  0
SECTION
  2
HEADER
  9
$ACADVER
  1
AC1002
  9
$INSBASE
 10
0.0
 20
0.0
  9
$EXTMIN
 10
-262.2472
 20
-180.0
  9
$EXTMAX
 10
262.2472
 20
180.0
  9
$LIMMIN
 10
0.0
 20
0.0
  9
$LIMMAX
 10
12.0
 20
9.0
  9
$VIEWCTR
 10
20.22981726
 20
0.0
  9
$VIEWSIZE
 40
360.0
  9
$SNAPMODE
 70
     0
  9
$SNAPUNIT
 10
1.0
 20
1.0
  9
$SNAPBASE
 10
0.0
 20
0.0
  9
$SNAPANG
 50
0.0
  9
$SNAPSTYLE
 70
     0
  9
$SNAPISOPAIR
 70
     0
  9
$GRIDMODE
 70
     0
  9
$GRIDUNIT
 10
0.0
 20
0.0
  9
$ORTHOMODE
 70
     0
  9
$REGENMODE
 70
     1
  9
$FILLMODE
 70
     1
  9
$QTEXTMODE
 70
     0
  9
$DRAGMODE
 70
     2
  9
$LTSCALE
 40
1.0
  9
$OSMODE
 70
     0
  9
$ATTMODE
 70
     1
  9
$TEXTSIZE
 40
0.2
  9
$TRACEWID
 40
0.05
  9
$TEXTSTYLE
  7
AAA
  9
$CLAYER
  8
0
  9
$CELTYPE
  6
BYLAYER
  9
$CECOLOR
 62
   256
  9
$DIMSCALE
 40
1.0
  9
$DIMASZ
 40
0.18
  9
$DIMEXO
 40
0.0625
  9
$DIMDLI
 40
0.38
  9
$DIMRND
 40
0.0
  9
$DIMDLE
 40
0.0
  9
$DIMEXE
 40
0.18
  9
$DIMTP
 40
0.0
  9
$DIMTM
 40
0.0
  9
$DIMTXT
 40
0.18
  9
$DIMCEN
 40
0.09
  9
$DIMTSZ
 40
0.0
  9
$DIMTOL
 70
     0
  9
$DIMLIM
 70
     0
  9
$DIMTIH
 70
     1
  9
$DIMTOH
 70
     1
  9
$DIMSE1
 70
     0
  9
$DIMSE2
 70
     0
  9
$DIMTAD
 70
     0
  9
$DIMZIN
 70
     0
  9
$DIMBLK
  1

  9
$LUNITS
 70
     2
  9
$LUPREC
 70
     4
  9
$AXISMODE
 70
     0
  9
$AXISUNIT
 10
0.0
 20
0.0
  9
$SKETCHINC
 40
0.1
  9
$FILLETRAD
 40
0.0
  9
$AUNITS
 70
     0
  9
$AUPREC
 70
     0
  9
$MENU
  1
ACAD
  9
$ELEVATION
 40
0.0
  9
$THICKNESS
 40
0.0
  9
$VIEWDIR
 10
0.0
 20
0.0
 30
1.0
  9
$LIMCHECK
 70
     0
  9
$BLIPMODE
 70
     1
  9
$CHAMFERA
 40
0.0
  9
$CHAMFERB
 40
0.0
  9
$FASTZOOM
 70
     1
  9
$SKPOLY
 70
     0
  9
$TDCREATE
 40
2447805.7334722715
  9
$TDUPDATE
 40
2447805.7334722715
  9
$TDINDWG
 40
0.0071875000
  9
$TDUSRTIMER
 40
0.0071875000
  9
$USRTIMER
 70
     1
  9
$ANGBASE
 50
0.0
  9
$ANGDIR
 70
     0
  9
$PDMODE
 70
     0
  9
$PDSIZE
 40
0.0
  9
$PLINEWID
 40
0.0
  9
$COORDS
 70
     0
  9
$USERI1
 70
     0
  9
$USERI2
 70
     0
  9
$USERI3
 70
     0
  9
$USERI4
 70
     0
  9
$USERI5
 70
     0
  9
$USERR1
 40
0.0
  9
$USERR2
 40
0.0
  9
$USERR3
 40
0.0
  9
$USERR4
 40
0.0
  9
$USERR5
 40
0.0
  0
ENDSEC
  0
SECTION
  2
TABLES
  0
TABLE
  2
LTYPE
 70
     3
  0
LTYPE
  2
CONTINUOUS
 70
    64
  3
SOLID
 72
    65
 73
     0
 40
0.0
  0
LTYPE
  2
DASHED
 70
    64
  3
DASHED
 72
    65
 73
     2
 40
0.75
 49
0.5
 49
-0.25
  0
LTYPE
  2
CENTER
 70
    64
  3
CENTER
 72
    65
 73
     4
 40
2.0
 49
1.25
 49
-0.25
 49
0.25
 49
-0.25
  0
ENDTAB
  0
TABLE
  2
LAYER
 70
     1
  0
LAYER
  2
0
 70
    64
 62
     7
  6
CONTINUOUS
  0
ENDTAB
  0
TABLE
  2
STYLE
 70
     2
  0
STYLE
  2
AAA
 70
     0
 40
0.0
 41
1.0
 50
0.0
 71
     0
 42
0.2
  3
TXT
  4

  0
STYLE
  2
STANDARD
 70
    64
 40
0.0
 41
1.0
 50
0.0
 71
     0
 42
0.2
  3
TXT
  4
BIGFONT
  0
ENDTAB
  0
TABLE
  2
VIEW
 70
     0
  0
ENDTAB
  0
ENDSEC
  0
SECTION
  2
BLOCKS
  0
ENDSEC
  0
SECTION
  2
ENTITIES
  0
POINT
  8
0
  6
CONTINUOUS
 62
     7
 10
-113.9702
 20
36.51686
  0
POINT
  8
0
  6
CONTINUOUS
 62
     7
 10
-88.97017
 20
36.51686
  0
POINT
  8
0
  6
CONTINUOUS
 62
     7
 10
-113.9701
 20
116.5169
  0
POINT
  8
0
  6
CONTINUOUS
 62
     7
 10
-88.97014
 20
116.5169
  0
POINT
  8
0
  6
CONTINUOUS
 62
     7
 10
-191.1235
 20
36.51697
  0
POINT
  8
0
  6
CONTINUOUS
 62
     7
 10
-185.1235
 20
36.51697
  0
POINT
  8
0
  6
CONTINUOUS
 62
     7
 10
167.1236
 20
36.74159
  0
POINT
  8
0
  6
CONTINUOUS
 62
     7
 10
197.1236
 20
36.74159
  0
POINT
  8
0
  6
CONTINUOUS
 62
     7
 10
71.12347
 20
36.74155
  0
POINT
  8
0
  6
CONTINUOUS
 62
     7
 10
79.12347
 20
36.74155
  0
POINT
  8
0
  6
CONTINUOUS
 62
     7
 10
167.1235
 20
116.7416
  0
POINT
  8
0
  6
CONTINUOUS
 62
     7
 10
197.1235
 20
116.7416
  0
POINT
  8
0
  6
CONTINUOUS
 62
     7
 10
-113.9702
 20
-123.2584
  0
POINT
  8
0
  6
CONTINUOUS
 62
     7
 10
-73.97017
 20
-123.2584
  0
POINT
  8
0
  6
CONTINUOUS
 62
     7
 10
-113.9701
 20
-43.25842
  0
POINT
  8
0
  6
CONTINUOUS
 62
     7
 10
-73.97014
 20
-43.25842
  0
POINT
  8
0
  6
CONTINUOUS
 62
     7
 10
-191.1235
 20
-123.2583
  0
POINT
  8
0
  6
CONTINUOUS
 62
     7
 10
-181.6235
 20
-123.2583
  0
POINT
  8
0
  6
CONTINUOUS
 62
     7
 10
71.12355
 20
-123.2584
  0
POINT
  8
0
  6
CONTINUOUS
 62
     7
 10
83.12355
 20
-123.2584
  0
POINT
  8
0
  6
CONTINUOUS
 62
     7
 10
167.1235
 20
-123.2584
  0
POINT
  8
0
  6
CONTINUOUS
 62
     7
 10
212.1235
 20
-123.2584
  0
POINT
  8
0
  6
CONTINUOUS
 62
     7
 10
167.1234
 20
-43.25851
  0
POINT
  8
0
  6
CONTINUOUS
 62
     7
 10
212.1234
 20
-43.25851
  0
LINE
  8
0
  6
CONTINUOUS
 62
     7
 10
-262.2472
 20
-180.0
 11
-262.2472
 21
180.0
  0
LINE
  8
0
  6
CONTINUOUS
 62
     7
 10
262.2472
 20
180.0
 11
262.2472
 21
-180.0
  0
LINE
  8
0
  6
CONTINUOUS
 62
     7
 10
-262.2472
 20
-180.0
 11
262.2472
 21
-180.0
  0
LINE
  8
0
  6
CONTINUOUS
 62
     7
 10
-262.2472
 20
180.0
 11
262.2472
 21
180.0
  0
LINE
  8
0
  6
CONTINUOUS
 62
     7
 10
-262.2472
 20
159.7753
 11
-112.2472
 21
159.7753
  0
LINE
  8
0
  6
CONTINUOUS
 62
     7
 10
-112.2472
 20
159.7753
 11
-112.2472
 21
180.0
  0
LINE
  8
0
  6
CONTINUOUS
 62
     7
 10
154.382
 20
-159.7753
 11
262.2472
 21
-159.7753
  0
LINE
  8
0
  6
CONTINUOUS
 62
     7
 10
182.7034
 20
-164.6383
 11
193.0652
 21
-164.6383
  0
LINE
  8
0
  6
CONTINUOUS
 62
     7
 10
182.7034
 20
-173.8271
 11
191.5012
 21
-173.8271
  0
LINE
  8
0
  6
CONTINUOUS
 62
     7
 10
182.7034
 20
-176.1732
 11
194.6293
 21
-176.1732
  0
LINE
  8
0
  6
CONTINUOUS
 62
     7
 10
182.7034
 20
-166.9844
 11
191.5012
 21
-166.9844
  0
LINE
  8
0
  6
CONTINUOUS
 62
     7
 10
182.7034
 20
-164.6383
 11
182.7034
 21
-166.9844
  0
LINE
  8
0
  6
CONTINUOUS
 62
     7
 10
194.6293
 20
-166.2024
 11
194.6293
 21
-176.1732
  0
LINE
  8
0
  6
CONTINUOUS
 62
     7
 10
191.5012
 20
-166.9844
 11
191.5012
 21
-173.8271
  0
LINE
  8
0
  6
CONTINUOUS
 62
     7
 10
196.3888
 20
-164.6383
 11
196.3888
 21
-166.9844
  0
LINE
  8
0
  6
CONTINUOUS
 62
     7
 10
207.5326
 20
-166.9844
 11
207.5326
 21
-174.6092
  0
LINE
  8
0
  6
CONTINUOUS
 62
     7
 10
204.4045
 20
-166.9844
 11
204.4045
 21
-173.8271
  0
LINE
  8
0
  6
CONTINUOUS
 62
     7
 10
182.7034
 20
-173.8271
 11
182.7034
 21
-176.1732
  0
LINE
  8
0
  6
CONTINUOUS
 62
     7
 10
196.3888
 20
-164.6383
 11
199.4796
 21
-164.6383
  0
LINE
  8
0
  6
CONTINUOUS
 62
     7
 10
196.3888
 20
-176.1732
 11
198.8176
 21
-176.1732
  0
LINE
  8
0
  6
CONTINUOUS
 62
     7
 10
196.3887
 20
-176.1731
 11
198.8509
 21
-166.9843
  0
LINE
  8
0
  6
CONTINUOUS
 62
     7
 10
196.3888
 20
-166.9844
 11
198.8509
 21
-166.9844
  0
LINE
  8
0
  6
CONTINUOUS
 62
     7
 10
198.8178
 20
-176.1733
 11
201.2799
 21
-166.9845
  0
LINE
  8
0
  6
CONTINUOUS
 62
     7
 10
202.0584
 20
-173.8271
 11
204.4045
 21
-173.8271
  0
LINE
  8
0
  6
CONTINUOUS
 62
     7
 10
202.0583
 20
-173.8271
 11
202.6869
 21
-176.1731
  0
LINE
  8
0
  6
CONTINUOUS
 62
     7
 10
202.6871
 20
-176.1732
 11
205.9686
 21
-176.1732
  0
LINE
  8
0
  6
CONTINUOUS
 62
     7
 10
201.2798
 20
-166.9844
 11
204.4045
 21
-166.9844
  0
LINE
  8
0
  6
CONTINUOUS
 62
     7
 10
201.9084
 20
-164.6383
 11
205.1865
 21
-164.6383
  0
LINE
  8
0
  6
CONTINUOUS
 62
     7
 10
199.4796
 20
-164.6384
 11
199.9458
 21
-162.8984
  0
LINE
  8
0
  6
CONTINUOUS
 62
     7
 10
201.9082
 20
-164.6382
 11
202.3744
 21
-162.8982
  0
LINE
  8
0
  6
CONTINUOUS
 62
     7
 10
209.4877
 20
-164.6383
 11
213.2023
 21
-164.6383
  0
LINE
  8
0
  6
CONTINUOUS
 62
     7
 10
209.4877
 20
-166.9844
 11
218.6106
 21
-166.9844
  0
LINE
  8
0
  6
CONTINUOUS
 62
     7
 10
213.2023
 20
-176.1732
 11
216.3303
 21
-176.1732
  0
LINE
  8
0
  6
CONTINUOUS
 62
     7
 10
209.4877
 20
-164.6383
 11
209.4877
 21
-166.9844
  0
LINE
  8
0
  6
CONTINUOUS
 62
     7
 10
221.0225
 20
-171.2385
 11
221.0225
 21
-173.8271
  0
LINE
  8
0
  6
CONTINUOUS
 62
     7
 10
209.4875
 20
-173.827
 11
213.2022
 21
-172.0948
  0
LINE
  8
0
  6
CONTINUOUS
 62
     7
 10
209.4879
 20
-171.2387
 11
218.6108
 21
-166.9846
  0
LINE
  8
0
  6
CONTINUOUS
 62
     7
 10
209.4877
 20
-171.2385
 11
209.4877
 21
-173.8271
  0
LINE
  8
0
  6
CONTINUOUS
 62
     7
 10
216.3302
 20
-171.6391
 11
221.0225
 21
-173.827
  0
LINE
  8
0
  6
CONTINUOUS
 62
     7
 10
218.0311
 20
-169.8436
 11
221.0228
 21
-171.2387
  0
LINE
  8
0
  6
CONTINUOUS
 62
     7
 10
221.0225
 20
-166.2024
 11
221.0225
 21
-167.4519
  0
LINE
  8
0
  6
CONTINUOUS
 62
     7
 10
213.2023
 20
-162.8984
 11
213.2023
 21
-164.6383
  0
LINE
  8
0
  6
CONTINUOUS
 62
     7
 10
216.3303
 20
-162.8984
 11
216.3303
 21
-164.6383
  0
LINE
  8
0
  6
CONTINUOUS
 62
     7
 10
216.3303
 20
-164.6383
 11
219.4585
 21
-164.6383
  0
LINE
  8
0
  6
CONTINUOUS
 62
     7
 10
213.2023
 20
-172.095
 11
213.2023
 21
-176.1732
  0
LINE
  8
0
  6
CONTINUOUS
 62
     7
 10
216.3303
 20
-171.6392
 11
216.3303
 21
-176.1732
  0
LINE
  8
0
  6
CONTINUOUS
 62
     7
 10
218.031
 20
-169.8436
 11
220.1197
 21
-168.8696
  0
LINE
  8
0
  6
CONTINUOUS
 62
     7
 10
231.5798
 20
-163.6022
 11
233.9258
 21
-163.6022
  0
LINE
  8
0
  6
CONTINUOUS
 62
     7
 10
222.0001
 20
-168.4483
 11
222.0001
 21
-170.9731
  0
LINE
  8
0
  6
CONTINUOUS
 62
     7
 10
233.9258
 20
-163.6022
 11
233.9258
 21
-164.6383
  0
LINE
  8
0
  6
CONTINUOUS
 62
     7
 10
231.5798
 20
-163.6022
 11
231.5798
 21
-164.1077
  0
LINE
  8
0
  6
CONTINUOUS
 62
     7
 10
228.4517
 20
-168.4072
 11
228.4517
 21
-176.1732
  0
LINE
  8
0
  6
CONTINUOUS
 62
     7
 10
222.0001
 20
-168.4484
 11
231.0869
 21
-164.8345
  0
LINE
  8
0
  6
CONTINUOUS
 62
     7
 10
222.0001
 20
-170.9732
 11
228.4517
 21
-168.4073
  0
LINE
  8
0
  6
CONTINUOUS
 62
     7
 10
228.4517
 20
-176.1732
 11
231.5798
 21
-176.1732
  0
LINE
  8
0
  6
CONTINUOUS
 62
     7
 10
231.5798
 20
-167.1632
 11
231.5798
 21
-176.1732
  0
LINE
  8
0
  6
CONTINUOUS
 62
     7
 10
231.5801
 20
-167.1633
 11
232.4471
 21
-166.8185
  0
LINE
  8
0
  6
CONTINUOUS
 62
     7
 10
199.7572
 20
-162.8984
 11
202.3746
 21
-162.8984
  0
LINE
  8
0
  6
CONTINUOUS
 62
     7
 10
206.2618
 20
-162.8984
 11
207.2589
 21
-162.8984
  0
LINE
  8
0
  6
CONTINUOUS
 62
     7
 10
213.2023
 20
-162.8984
 11
216.3303
 21
-162.8984
  0
LINE
  8
0
  6
CONTINUOUS
 62
     7
 10
206.2618
 20
-164.4624
 11
207.2589
 21
-164.4624
  0
LINE
  8
0
  6
CONTINUOUS
 62
     7
 10
206.2618
 20
-162.8984
 11
206.2618
 21
-164.4624
  0
LINE
  8
0
  6
CONTINUOUS
 62
     7
 10
207.2589
 20
-162.8984
 11
207.2589
 21
-164.4624
  0
LINE
  8
0
  6
CONTINUOUS
 62
     7
 10
207.8454
 20
-162.8984
 11
207.8454
 21
-164.4624
  0
LINE
  8
0
  6
CONTINUOUS
 62
     7
 10
208.9598
 20
-162.8984
 11
208.9598
 21
-164.4624
  0
LINE
  8
0
  6
CONTINUOUS
 62
     7
 10
207.8454
 20
-162.8984
 11
208.9598
 21
-162.8984
  0
LINE
  8
0
  6
CONTINUOUS
 62
     7
 10
207.8454
 20
-164.4624
 11
208.9598
 21
-164.4624
  0
LINE
  8
0
  6
CONTINUOUS
 62
     7
 10
154.382
 20
159.7753
 11
262.2472
 21
159.7753
  0
LINE
  8
0
  6
CONTINUOUS
 62
     7
 10
154.382
 20
180.0
 11
154.382
 21
159.7753
  0
LINE
  8
0
  6
CONTINUOUS
 62
     7
 10
154.382
 20
-159.7753
 11
154.382
 21
-180.0
  0
LINE
  8
0
  6
CONTINUOUS
 62
     7
 10
-262.2472
 20
0.0
 11
262.2472
 21
0.0
  0
LINE
  8
0
  6
CONTINUOUS
 62
     7
 10
0.0
 20
-180.0
 11
0.0
 21
180.0
  0
LINE
  8
0
  6
CENTER
 62
     2
 10
-113.9702
 20
29.68697
 11
-113.9702
 21
43.44508
  0
LINE
  8
0
  6
CENTER
 62
     2
 10
-122.8514
 20
36.51686
 11
-87.37585
 21
36.51686
  0
LINE
  8
0
  6
CONTINUOUS
 62
     7
 10
-119.3625
 20
30.51686
 11
-88.97017
 21
30.51686
  0
LINE
  8
0
  6
CONTINUOUS
 62
     7
 10
-119.3625
 20
42.51686
 11
-88.97017
 21
42.51686
  0
LINE
  8
0
  6
DASHED
 62
     7
 10
-96.97017
 20
33.51686
 11
-88.97017
 21
33.51686
  0
LINE
  8
0
  6
DASHED
 62
     7
 10
-96.97017
 20
39.51686
 11
-88.97017
 21
39.51686
  0
LINE
  8
0
  6
DASHED
 62
     7
 10
-96.97017
 20
34.05836
 11
-88.97017
 21
34.05836
  0
LINE
  8
0
  6
DASHED
 62
     7
 10
-96.97017
 20
38.97536
 11
-88.97017
 21
38.97536
  0
LINE
  8
0
  6
CONTINUOUS
 62
     7
 10
-88.97017
 20
42.51686
 11
-88.97017
 21
30.51686
  0
LINE
  8
0
  6
CONTINUOUS
 62
     7
 10
-99.97017
 20
30.51686
 11
-99.97017
 21
42.51686
  0
LINE
  8
0
  6
CONTINUOUS
 62
     7
 10
-99.97014
 20
110.5169
 11
-88.97014
 21
110.5169
  0
LINE
  8
0
  6
CONTINUOUS
 62
     7
 10
-99.97014
 20
122.5169
 11
-88.97014
 21
122.5169
  0
LINE
  8
0
  6
CENTER
 62
     2
 10
-113.9701
 20
111.685
 11
-113.9701
 21
121.5867
  0
LINE
  8
0
  6
CENTER
 62
     2
 10
-122.8514
 20
116.5169
 11
-87.29549
 21
116.5169
  0
LINE
  8
0
  6
DASHED
 62
     7
 10
-96.97014
 20
119.5169
 11
-88.97014
 21
119.5169
  0
LINE
  8
0
  6
DASHED
 62
     7
 10
-96.97014
 20
118.9754
 11
-88.97014
 21
118.9754
  0
LINE
  8
0
  6
DASHED
 62
     7
 10
-96.97014
 20
114.0584
 11
-88.97014
 21
114.0584
  0
LINE
  8
0
  6
DASHED
 62
     7
 10
-96.97014
 20
113.5169
 11
-88.97014
 21
113.5169
  0
LINE
  8
0
  6
CONTINUOUS
 62
     7
 10
-88.97014
 20
110.5169
 11
-88.97014
 21
122.5169
  0
LINE
  8
0
  6
CONTINUOUS
 62
     7
 10
-120.5356
 20
119.7169
 11
-99.97014
 21
119.7169
  0
LINE
  8
0
  6
CONTINUOUS
 62
     7
 10
-120.5356
 20
113.3169
 11
-99.97014
 21
113.3169
  0
LINE
  8
0
  6
CONTINUOUS
 62
     7
 10
-99.97014
 20
110.5169
 11
-99.97014
 21
113.3169
  0
LINE
  8
0
  6
CONTINUOUS
 62
     7
 10
-99.97014
 20
119.7169
 11
-99.97014
 21
122.5169
  0
LINE
  8
0
  6
CONTINUOUS
 62
     7
 10
-185.1235
 20
42.51696
 11
-185.1235
 21
30.51696
  0
LINE
  8
0
  6
CONTINUOUS
 62
     7
 10
-197.1235
 20
42.51696
 11
-197.1235
 21
30.51696
  0
LINE
  8
0
  6
CONTINUOUS
 62
     7
 10
-197.1235
 20
42.51697
 11
-185.1235
 21
42.51697
  0
LINE
  8
0
  6
CONTINUOUS
 62
     7
 10
-197.1235
 20
30.51697
 11
-185.1235
 21
30.51697
  0
LINE
  8
0
  6
CONTINUOUS
 62
     7
 10
-187.8735
 20
42.51696
 11
-187.8735
 21
30.51696
  0
LINE
  8
0
  6
CONTINUOUS
 62
     7
 10
-194.3735
 20
42.51696
 11
-194.3735
 21
30.51696
  0
LINE
  8
0
  6
CENTER
 62
     2
 10
-198.6235
 20
36.51697
 11
-183.6235
 21
36.51697
  0
LINE
  8
0
  6
CENTER
 62
     2
 10
-191.1235
 20
44.01697
 11
-191.1235
 21
29.01697
  0
LINE
  8
0
  6
CONTINUOUS
 62
     7
 10
178.1236
 20
30.74159
 11
186.1236
 21
30.74159
  0
LINE
  8
0
  6
CONTINUOUS
 62
     7
 10
159.435
 20
28.74159
 11
186.1236
 21
28.74159
  0
LINE
  8
0
  6
CENTER
 62
     2
 10
152.9986
 20
36.74159
 11
202.1236
 21
36.74159
  0
LINE
  8
0
  6
CONTINUOUS
 62
     7
 10
178.1236
 20
42.74159
 11
186.1236
 21
42.74159
  0
LINE
  8
0
  6
CONTINUOUS
 62
     7
 10
159.435
 20
44.74159
 11
186.1236
 21
44.74159
  0
LINE
  8
0
  6
CONTINUOUS
 62
     7
 10
186.1236
 20
44.74159
 11
186.1236
 21
42.74159
  0
LINE
  8
0
  6
CONTINUOUS
 62
     7
 10
186.1235
 20
44.74159
 11
187.1235
 21
43.74159
  0
LINE
  8
0
  6
CONTINUOUS
 62
     7
 10
187.1236
 20
43.74159
 11
187.1236
 21
29.74159
  0
LINE
  8
0
  6
CONTINUOUS
 62
     7
 10
187.1236
 20
43.74159
 11
197.1236
 21
43.74159
  0
LINE
  8
0
  6
CONTINUOUS
 62
     7
 10
186.1236
 20
30.74159
 11
186.1236
 21
28.74159
  0
LINE
  8
0
  6
CONTINUOUS
 62
     7
 10
186.1235
 20
28.7416
 11
187.1235
 21
29.74159
  0
LINE
  8
0
  6
CONTINUOUS
 62
     7
 10
187.1236
 20
29.74159
 11
197.1236
 21
29.74159
  0
LINE
  8
0
  6
CONTINUOUS
 62
     7
 10
197.1236
 20
43.74159
 11
197.1236
 21
29.74159
  0
LINE
  8
0
  6
CENTER
 62
     2
 10
167.1236
 20
49.24159
 11
167.1236
 21
24.24159
  0
LINE
  8
0
  6
CONTINUOUS
 62
     7
 10
178.1236
 20
44.74159
 11
178.1236
 21
28.74159
  0
LINE
  8
0
  6
DASHED
 62
     7
 10
182.1236
 20
40.74159
 11
197.1236
 21
40.74159
  0
LINE
  8
0
  6
DASHED
 62
     7
 10
182.1236
 20
32.74159
 11
197.1236
 21
32.74159
  0
LINE
  8
0
  6
DASHED
 62
     7
 10
182.1236
 20
39.74159
 11
197.1236
 21
39.74159
  0
LINE
  8
0
  6
DASHED
 62
     7
 10
182.1236
 20
33.74159
 11
197.1236
 21
33.74159
  0
LINE
  8
0
  6
CONTINUOUS
 62
     7
 10
178.1235
 20
110.7416
 11
186.1235
 21
110.7416
  0
LINE
  8
0
  6
CONTINUOUS
 62
     7
 10
178.1235
 20
108.7416
 11
186.1235
 21
108.7416
  0
LINE
  8
0
  6
CENTER
 62
     2
 10
152.1235
 20
116.7416
 11
202.1235
 21
116.7416
  0
LINE
  8
0
  6
CONTINUOUS
 62
     7
 10
178.1235
 20
122.7416
 11
186.1235
 21
122.7416
  0
LINE
  8
0
  6
CONTINUOUS
 62
     7
 10
178.1235
 20
124.7416
 11
186.1235
 21
124.7416
  0
LINE
  8
0
  6
CONTINUOUS
 62
     7
 10
186.1235
 20
124.7416
 11
186.1235
 21
122.7416
  0
LINE
  8
0
  6
CONTINUOUS
 62
     7
 10
186.1235
 20
124.7416
 11
187.1235
 21
123.7416
  0
LINE
  8
0
  6
CONTINUOUS
 62
     7
 10
187.1235
 20
123.7416
 11
187.1235
 21
109.7416
  0
LINE
  8
0
  6
CONTINUOUS
 62
     7
 10
187.1235
 20
123.7416
 11
197.1235
 21
123.7416
  0
LINE
  8
0
  6
CONTINUOUS
 62
     7
 10
186.1235
 20
110.7416
 11
186.1235
 21
108.7416
  0
LINE
  8
0
  6
CONTINUOUS
 62
     7
 10
186.1235
 20
108.7416
 11
187.1235
 21
109.7416
  0
LINE
  8
0
  6
CONTINUOUS
 62
     7
 10
187.1235
 20
109.7416
 11
197.1235
 21
109.7416
  0
LINE
  8
0
  6
CONTINUOUS
 62
     7
 10
197.1235
 20
123.7416
 11
197.1235
 21
109.7416
  0
LINE
  8
0
  6
CONTINUOUS
 62
     7
 10
157.6667
 20
120.7416
 11
178.1235
 21
120.7416
  0
LINE
  8
0
  6
CONTINUOUS
 62
     7
 10
157.6667
 20
112.7416
 11
178.1235
 21
112.7416
  0
LINE
  8
0
  6
CENTER
 62
     2
 10
167.1235
 20
123.6166
 11
167.1235
 21
110.3666
  0
LINE
  8
0
  6
CONTINUOUS
 62
     7
 10
178.1235
 20
124.7416
 11
178.1235
 21
120.7416
  0
LINE
  8
0
  6
CONTINUOUS
 62
     7
 10
178.1235
 20
112.7416
 11
178.1235
 21
108.7416
  0
LINE
  8
0
  6
DASHED
 62
     7
 10
182.1235
 20
120.7416
 11
197.1235
 21
120.7416
  0
LINE
  8
0
  6
DASHED
 62
     7
 10
182.1235
 20
112.7416
 11
197.1235
 21
112.7416
  0
LINE
  8
0
  6
DASHED
 62
     7
 10
182.1235
 20
119.7416
 11
197.1235
 21
119.7416
  0
LINE
  8
0
  6
DASHED
 62
     7
 10
182.1235
 20
113.7416
 11
197.1235
 21
113.7416
  0
LINE
  8
0
  6
CONTINUOUS
 62
     7
 10
65.12347
 20
44.74155
 11
77.12347
 21
44.74155
  0
LINE
  8
0
  6
CONTINUOUS
 62
     7
 10
65.12347
 20
28.74155
 11
77.12347
 21
28.74155
  0
LINE
  8
0
  6
CONTINUOUS
 62
     7
 10
79.12347
 20
42.74155
 11
79.12347
 21
30.74155
  0
LINE
  8
0
  6
CONTINUOUS
 62
     7
 10
63.12347
 20
42.74155
 11
63.12347
 21
30.74155
  0
LINE
  8
0
  6
CONTINUOUS
 62
     7
 10
67.12347
 20
44.74155
 11
67.12347
 21
28.74155
  0
LINE
  8
0
  6
CONTINUOUS
 62
     7
 10
75.12347
 20
44.74155
 11
75.12347
 21
28.74155
  0
LINE
  8
0
  6
CENTER
 62
     2
 10
58.62347
 20
36.74155
 11
83.62347
 21
36.74155
  0
LINE
  8
0
  6
CENTER
 62
     2
 10
71.12347
 20
49.24155
 11
71.12347
 21
24.24155
  0
LINE
  8
0
  6
CENTER
 62
     2
 10
-113.9702
 20
-110.7584
 11
-113.9702
 21
-135.7584
  0
LINE
  8
0
  6
DASHED
 62
     7
 10
-93.97017
 20
-119.2584
 11
-73.97017
 21
-119.2584
  0
LINE
  8
0
  6
DASHED
 62
     7
 10
-93.97017
 20
-127.2584
 11
-73.97017
 21
-127.2584
  0
LINE
  8
0
  6
CONTINUOUS
 62
     7
 10
-100.9702
 20
-113.7584
 11
-100.9702
 21
-132.7584
  0
LINE
  8
0
  6
CONTINUOUS
 62
     7
 10
-123.0681
 20
-132.7584
 11
-87.47014
 21
-132.7584
  0
LINE
  8
0
  6
CONTINUOUS
 62
     7
 10
-123.0681
 20
-113.7584
 11
-87.4702
 21
-113.7584
  0
LINE
  8
0
  6
CONTINUOUS
 62
     7
 10
-73.97017
 20
-115.7585
 11
-73.97017
 21
-130.7585
  0
LINE
  8
0
  6
DASHED
 62
     7
 10
-93.97017
 20
-118.2584
 11
-73.97017
 21
-118.2584
  0
LINE
  8
0
  6
DASHED
 62
     7
 10
-93.97017
 20
-128.2584
 11
-73.97017
 21
-128.2584
  0
LINE
  8
0
  6
CONTINUOUS
 62
     7
 10
-100.9702
 20
-131.3825
 11
-87.47015
 21
-131.3825
  0
LINE
  8
0
  6
CONTINUOUS
 62
     7
 10
-100.9702
 20
-115.1344
 11
-87.47021
 21
-115.1344
  0
LINE
  8
0
  6
CENTER
 62
     2
 10
-134.4919
 20
-123.2584
 11
-71.01373
 21
-123.2584
  0
LINE
  8
0
  6
CONTINUOUS
 62
     7
 10
-85.97017
 20
-115.2584
 11
-85.97017
 21
-131.2584
  0
LINE
  8
0
  6
CONTINUOUS
 62
     7
 10
-74.47017
 20
-115.2584
 11
-85.97017
 21
-115.2584
  0
LINE
  8
0
  6
CONTINUOUS
 62
     7
 10
-74.47018
 20
-131.2585
 11
-85.97017
 21
-131.2585
  0
LINE
  8
0
  6
CONTINUOUS
 62
     7
 10
-85.97018
 20
-115.2584
 11
-87.47018
 21
-113.7584
  0
LINE
  8
0
  6
CONTINUOUS
 62
     7
 10
-85.97018
 20
-131.2585
 11
-87.47016
 21
-132.7585
  0
LINE
  8
0
  6
CONTINUOUS
 62
     7
 10
-87.47018
 20
-113.7584
 11
-87.47018
 21
-115.1344
  0
LINE
  8
0
  6
CONTINUOUS
 62
     7
 10
-74.47021
 20
-115.2584
 11
-73.97021
 21
-115.7584
  0
LINE
  8
0
  6
CONTINUOUS
 62
     7
 10
-73.97021
 20
-130.7585
 11
-74.47021
 21
-131.2585
  0
LINE
  8
0
  6
CONTINUOUS
 62
     7
 10
-87.47014
 20
-132.7584
 11
-87.47014
 21
-131.3825
  0
LINE
  8
0
  6
CENTER
 62
     2
 10
-128.9701
 20
-43.25842
 11
-70.94812
 21
-43.25842
  0
LINE
  8
0
  6
CENTER
 62
     2
 10
-113.9701
 20
-34.92509
 11
-113.9701
 21
-52.59175
  0
LINE
  8
0
  6
CONTINUOUS
 62
     7
 10
-87.47011
 20
-52.75842
 11
-87.47011
 21
-51.38248
  0
LINE
  8
0
  6
CONTINUOUS
 62
     7
 10
-73.97014
 20
-35.75844
 11
-73.97014
 21
-50.75847
  0
LINE
  8
0
  6
CONTINUOUS
 62
     7
 10
-100.9701
 20
-33.75845
 11
-100.9701
 21
-38.25842
  0
LINE
  8
0
  6
CONTINUOUS
 62
     7
 10
-125.2182
 20
-38.25842
 11
-100.9701
 21
-38.25842
  0
LINE
  8
0
  6
CONTINUOUS
 62
     7
 10
-125.2182
 20
-48.25842
 11
-100.9701
 21
-48.25842
  0
LINE
  8
0
  6
DASHED
 62
     7
 10
-93.97014
 20
-39.25842
 11
-73.97014
 21
-39.25842
  0
LINE
  8
0
  6
DASHED
 62
     7
 10
-93.97014
 20
-47.25842
 11
-73.97014
 21
-47.25842
  0
LINE
  8
0
  6
DASHED
 62
     7
 10
-93.97014
 20
-38.25842
 11
-73.97014
 21
-38.25842
  0
LINE
  8
0
  6
DASHED
 62
     7
 10
-93.97014
 20
-48.25842
 11
-73.97014
 21
-48.25842
  0
LINE
  8
0
  6
CONTINUOUS
 62
     7
 10
-85.97014
 20
-35.25842
 11
-85.97014
 21
-51.25842
  0
LINE
  8
0
  6
CONTINUOUS
 62
     7
 10
-74.47014
 20
-35.25842
 11
-85.97014
 21
-35.25842
  0
LINE
  8
0
  6
CONTINUOUS
 62
     7
 10
-74.47015
 20
-51.25847
 11
-85.97014
 21
-51.25847
  0
LINE
  8
0
  6
CONTINUOUS
 62
     7
 10
-85.97011
 20
-35.25841
 11
-87.47011
 21
-33.75842
  0
LINE
  8
0
  6
CONTINUOUS
 62
     7
 10
-85.9701
 20
-51.25846
 11
-87.47006
 21
-52.75842
  0
LINE
  8
0
  6
CONTINUOUS
 62
     7
 10
-87.47015
 20
-33.75842
 11
-87.47015
 21
-35.13438
  0
LINE
  8
0
  6
CONTINUOUS
 62
     7
 10
-74.47017
 20
-35.25843
 11
-73.97017
 21
-35.75843
  0
LINE
  8
0
  6
CONTINUOUS
 62
     7
 10
-73.9702
 20
-50.75848
 11
-74.4702
 21
-51.25848
  0
LINE
  8
0
  6
CONTINUOUS
 62
     7
 10
-87.47012
 20
-52.75846
 11
-100.9702
 21
-52.75846
  0
LINE
  8
0
  6
CONTINUOUS
 62
     7
 10
-87.47017
 20
-33.75847
 11
-100.9702
 21
-33.75847
  0
LINE
  8
0
  6
CONTINUOUS
 62
     7
 10
-100.9701
 20
-48.35133
 11
-100.9701
 21
-52.75844
  0
LINE
  8
0
  6
CONTINUOUS
 62
     7
 10
-181.6235
 20
-115.1343
 11
-181.6235
 21
-131.3824
  0
LINE
  8
0
  6
CONTINUOUS
 62
     7
 10
-200.6235
 20
-115.1343
 11
-200.6235
 21
-131.3824
  0
LINE
  8
0
  6
CONTINUOUS
 62
     7
 10
-196.1235
 20
-113.7583
 11
-196.1235
 21
-132.7583
  0
LINE
  8
0
  6
CONTINUOUS
 62
     7
 10
-186.1235
 20
-113.7583
 11
-186.1235
 21
-132.7583
  0
LINE
  8
0
  6
CENTER
 62
     2
 10
-205.4235
 20
-123.2583
 11
-177.6235
 21
-123.2583
  0
LINE
  8
0
  6
CENTER
 62
     2
 10
-191.1235
 20
-108.898
 11
-191.1235
 21
-135.4091
  0
LINE
  8
0
  6
CONTINUOUS
 62
     7
 10
-199.2476
 20
-113.7583
 11
-182.9995
 21
-113.7583
  0
LINE
  8
0
  6
CONTINUOUS
 62
     7
 10
-199.2476
 20
-132.7583
 11
-182.9995
 21
-132.7583
  0
LINE
  8
0
  6
CENTER
 62
     2
 10
167.1235
 20
-106.6666
 11
167.1235
 21
-138.7874
  0
LINE
  8
0
  6
CENTER
 62
     2
 10
148.6017
 20
-123.2584
 11
215.0799
 21
-123.2584
  0
LINE
  8
0
  6
CONTINUOUS
 62
     7
 10
212.1235
 20
-112.7585
 11
212.1235
 21
-133.7585
  0
LINE
  8
0
  6
DASHED
 62
     7
 10
187.1235
 20
-117.2584
 11
212.1235
 21
-117.2584
  0
LINE
  8
0
  6
DASHED
 62
     7
 10
187.1235
 20
-129.2585
 11
212.1235
 21
-129.2585
  0
LINE
  8
0
  6
DASHED
 62
     7
 10
187.1235
 20
-116.2584
 11
212.1235
 21
-116.2584
  0
LINE
  8
0
  6
DASHED
 62
     7
 10
187.1235
 20
-130.2585
 11
212.1235
 21
-130.2585
  0
LINE
  8
0
  6
CONTINUOUS
 62
     7
 10
197.1235
 20
-112.2584
 11
197.1235
 21
-134.2585
  0
LINE
  8
0
  6
CONTINUOUS
 62
     7
 10
180.1235
 20
-111.2584
 11
180.1235
 21
-135.2585
  0
LINE
  8
0
  6
CONTINUOUS
 62
     7
 10
211.6235
 20
-112.2584
 11
197.1235
 21
-112.2584
  0
LINE
  8
0
  6
CONTINUOUS
 62
     7
 10
211.6234
 20
-134.2585
 11
197.1235
 21
-134.2585
  0
LINE
  8
0
  6
CONTINUOUS
 62
     7
 10
211.6234
 20
-112.2585
 11
212.1234
 21
-112.7585
  0
LINE
  8
0
  6
CONTINUOUS
 62
     7
 10
212.1234
 20
-133.7585
 11
211.6234
 21
-134.2585
  0
LINE
  8
0
  6
CONTINUOUS
 62
     7
 10
197.1233
 20
-112.2584
 11
196.1234
 21
-111.2585
  0
LINE
  8
0
  6
CONTINUOUS
 62
     7
 10
197.1234
 20
-134.2585
 11
196.1234
 21
-135.2585
  0
LINE
  8
0
  6
CONTINUOUS
 62
     7
 10
196.1235
 20
-111.2585
 11
196.1235
 21
-114.2585
  0
LINE
  8
0
  6
CONTINUOUS
 62
     7
 10
196.1234
 20
-135.2585
 11
196.1234
 21
-132.2585
  0
LINE
  8
0
  6
CONTINUOUS
 62
     7
 10
157.9367
 20
-111.2584
 11
196.1235
 21
-111.2584
  0
LINE
  8
0
  6
CONTINUOUS
 62
     7
 10
180.1235
 20
-114.2584
 11
196.1235
 21
-114.2584
  0
LINE
  8
0
  6
CONTINUOUS
 62
     7
 10
196.1235
 20
-135.2585
 11
157.9367
 21
-135.2585
  0
LINE
  8
0
  6
CONTINUOUS
 62
     7
 10
196.1235
 20
-132.2585
 11
180.1235
 21
-132.2585
  0
LINE
  8
0
  6
CENTER
 62
     2
 10
150.4567
 20
-43.25851
 11
215.1454
 21
-43.25851
  0
LINE
  8
0
  6
CENTER
 62
     2
 10
167.1234
 20
-31.92517
 11
167.1234
 21
-55.25851
  0
LINE
  8
0
  6
CONTINUOUS
 62
     7
 10
156.0465
 20
-36.25851
 11
180.1234
 21
-36.25851
  0
LINE
  8
0
  6
CONTINUOUS
 62
     7
 10
156.0465
 20
-50.25851
 11
180.1234
 21
-50.25851
  0
LINE
  8
0
  6
CONTINUOUS
 62
     7
 10
196.1233
 20
-55.25856
 11
180.1233
 21
-55.25856
  0
LINE
  8
0
  6
CONTINUOUS
 62
     7
 10
196.1234
 20
-31.25858
 11
180.1233
 21
-31.25858
  0
LINE
  8
0
  6
CONTINUOUS
 62
     7
 10
196.1234
 20
-34.25858
 11
180.1233
 21
-34.25858
  0
LINE
  8
0
  6
CONTINUOUS
 62
     7
 10
196.1234
 20
-52.25856
 11
180.1233
 21
-52.25856
  0
LINE
  8
0
  6
CONTINUOUS
 62
     7
 10
212.1234
 20
-32.75852
 11
212.1234
 21
-53.75855
  0
LINE
  8
0
  6
CONTINUOUS
 62
     7
 10
180.1234
 20
-31.25854
 11
180.1234
 21
-36.25851
  0
LINE
  8
0
  6
DASHED
 62
     7
 10
187.1234
 20
-37.25851
 11
212.1234
 21
-37.25851
  0
LINE
  8
0
  6
DASHED
 62
     7
 10
187.1234
 20
-49.25851
 11
212.1234
 21
-49.25851
  0
LINE
  8
0
  6
DASHED
 62
     7
 10
187.1234
 20
-36.25851
 11
212.1234
 21
-36.25851
  0
LINE
  8
0
  6
DASHED
 62
     7
 10
187.1234
 20
-50.25851
 11
212.1234
 21
-50.25851
  0
LINE
  8
0
  6
CONTINUOUS
 62
     7
 10
197.1234
 20
-32.25851
 11
197.1234
 21
-54.25855
  0
LINE
  8
0
  6
CONTINUOUS
 62
     7
 10
180.1234
 20
-50.35142
 11
180.1234
 21
-55.25852
  0
LINE
  8
0
  6
CONTINUOUS
 62
     7
 10
211.6234
 20
-32.25851
 11
197.1234
 21
-32.25851
  0
LINE
  8
0
  6
CONTINUOUS
 62
     7
 10
211.6233
 20
-54.25855
 11
197.1234
 21
-54.25855
  0
LINE
  8
0
  6
CONTINUOUS
 62
     7
 10
211.6232
 20
-32.25851
 11
212.1232
 21
-32.75853
  0
LINE
  8
0
  6
CONTINUOUS
 62
     7
 10
212.1233
 20
-53.75857
 11
211.6233
 21
-54.25857
  0
LINE
  8
0
  6
CONTINUOUS
 62
     7
 10
197.1232
 20
-32.25851
 11
196.1233
 21
-31.25858
  0
LINE
  8
0
  6
CONTINUOUS
 62
     7
 10
197.1232
 20
-54.25857
 11
196.1233
 21
-55.25851
  0
LINE
  8
0
  6
CONTINUOUS
 62
     7
 10
196.1234
 20
-31.25859
 11
196.1234
 21
-34.25857
  0
LINE
  8
0
  6
CONTINUOUS
 62
     7
 10
196.1233
 20
-55.25855
 11
196.1233
 21
-52.25854
  0
LINE
  8
0
  6
CONTINUOUS
 62
     7
 10
83.12355
 20
-114.2584
 11
83.12355
 21
-132.2584
  0
LINE
  8
0
  6
CONTINUOUS
 62
     7
 10
59.12355
 20
-114.2584
 11
59.12355
 21
-132.2584
  0
LINE
  8
0
  6
CONTINUOUS
 62
     7
 10
64.12355
 20
-111.2584
 11
64.12355
 21
-135.2584
  0
LINE
  8
0
  6
CONTINUOUS
 62
     7
 10
78.12355
 20
-111.2584
 11
78.12355
 21
-135.2584
  0
LINE
  8
0
  6
CENTER
 62
     2
 10
54.32356
 20
-123.2584
 11
87.52473
 21
-123.2584
  0
LINE
  8
0
  6
CENTER
 62
     2
 10
71.12355
 20
-106.3981
 11
71.12355
 21
-139.7511
  0
LINE
  8
0
  6
CONTINUOUS
 62
     7
 10
62.12355
 20
-111.2584
 11
80.12355
 21
-111.2584
  0
LINE
  8
0
  6
CONTINUOUS
 62
     7
 10
62.12355
 20
-135.2584
 11
80.12355
 21
-135.2584
  0
ARC
  8
0
  6
CONTINUOUS
 62
     7
 10
193.0652
 20
-166.2024
 40
1.56404
 50
0.0
 51
89.99999
  0
ARC
  8
0
  6
CONTINUOUS
 62
     7
 10
205.9686
 20
-174.6092
 40
1.56404
 50
270.0
 51
0.0
  0
ARC
  8
0
  6
CONTINUOUS
 62
     7
 10
205.1865
 20
-166.9844
 40
2.34607
 50
0.0
 51
89.99999
  0
ARC
  8
0
  6
CONTINUOUS
 62
     7
 10
219.4585
 20
-166.2024
 40
1.56404
 50
0.0
 51
89.99999
  0
ARC
  8
0
  6
CONTINUOUS
 62
     7
 10
219.4585
 20
-167.4519
 40
1.56405
 50
295.0
 51
0.0
  0
ARC
  8
0
  6
CONTINUOUS
 62
     7
 10
231.5798
 20
-164.6383
 40
2.34607
 50
291.6882
 51
0.0
  0
ARC
  8
0
  6
CONTINUOUS
 62
     7
 10
230.7978
 20
-164.1077
 40
0.78203
 50
291.688
 51
0.0
  0
ARC
  8
0
  6
CONTINUOUS
 62
     7
 10
-108.9702
 20
36.51686
 40
12.0
 50
150.0
 51
209.9999
  0
CIRCLE
  8
0
  6
CONTINUOUS
 62
     7
 10
-113.9702
 20
36.51686
 40
2.55
  0
ARC
  8
0
  6
CONTINUOUS
 62
     7
 10
-104.6059
 20
36.51686
 40
15.92974
 50
157.8734
 51
202.1265
  0
ARC
  8
0
  6
CONTINUOUS
 62
     7
 10
-108.9701
 20
116.5169
 40
12.0
 50
164.534
 51
195.466
  0
ARC
  8
0
  6
CONTINUOUS
 62
     7
 10
-108.9701
 20
116.5169
 40
10.87382
 50
162.8853
 51
197.1146
  0
CIRCLE
  8
0
  6
CONTINUOUS
 62
     7
 10
167.1236
 20
36.74159
 40
4.0
  0
ARC
  8
0
  6
CONTINUOUS
 62
     7
 10
172.1236
 20
36.74159
 40
15.0
 50
147.7691
 51
212.2309
  0
ARC
  8
0
  6
CONTINUOUS
 62
     7
 10
176.6478
 20
36.74159
 40
18.98107
 50
155.0724
 51
204.9276
  0
ARC
  8
0
  6
CONTINUOUS
 62
     7
 10
168.6236
 20
36.74159
 40
18.5
 50
341.0753
 51
18.92464
  0
ARC
  8
0
  6
CONTINUOUS
 62
     7
 10
172.1235
 20
116.7416
 40
15.0
 50
164.534
 51
195.466
  0
ARC
  8
0
  6
CONTINUOUS
 62
     7
 10
173.896
 20
116.7416
 40
15.00408
 50
164.5383
 51
195.4616
  0
ARC
  8
0
  6
CONTINUOUS
 62
     7
 10
168.6235
 20
116.7416
 40
18.5
 50
341.0753
 51
18.92464
  0
ARC
  8
0
  6
CONTINUOUS
 62
     7
 10
71.12347
 20
36.74155
 40
10.0
 50
216.8699
 51
233.1301
  0
ARC
  8
0
  6
CONTINUOUS
 62
     7
 10
71.12347
 20
36.74155
 40
10.0
 50
126.8699
 51
143.1301
  0
ARC
  8
0
  6
CONTINUOUS
 62
     7
 10
71.12347
 20
36.74155
 40
10.0
 50
36.8699
 51
53.1301
  0
ARC
  8
0
  6
CONTINUOUS
 62
     7
 10
71.12347
 20
36.74155
 40
10.0
 50
306.8699
 51
323.1301
  0
CIRCLE
  8
0
  6
CONTINUOUS
 62
     7
 10
-113.9702
 20
-123.2584
 40
5.0
  0
ARC
  8
0
  6
CONTINUOUS
 62
     7
 10
-108.7203
 20
-123.2585
 40
22.75014
 50
339.078
 51
20.92229
  0
ARC
  8
0
  6
CONTINUOUS
 62
     7
 10
-108.9702
 20
-123.2584
 40
17.0
 50
146.0255
 51
213.9745
  0
ARC
  8
0
  6
CONTINUOUS
 62
     7
 10
-103.1567
 20
-123.2584
 40
22.06158
 50
154.4935
 51
205.5064
  0
ARC
  8
0
  6
CONTINUOUS
 62
     7
 10
-108.7203
 20
-43.2585
 40
22.75014
 50
339.0781
 51
20.92229
  0
ARC
  8
0
  6
CONTINUOUS
 62
     7
 10
-106.822
 20
-43.25842
 40
16.99803
 50
162.8933
 51
197.1066
  0
ARC
  8
0
  6
CONTINUOUS
 62
     7
 10
-108.9702
 20
-43.25842
 40
17.0
 50
162.8953
 51
197.1046
  0
ARC
  8
0
  6
CONTINUOUS
 62
     7
 10
-191.1235
 20
-123.2583
 40
12.5
 50
40.5358
 51
49.4642
  0
ARC
  8
0
  6
CONTINUOUS
 62
     7
 10
-191.1235
 20
-123.2583
 40
12.5
 50
130.5358
 51
139.4642
  0
ARC
  8
0
  6
CONTINUOUS
 62
     7
 10
-191.1235
 20
-123.2583
 40
12.5
 50
310.5358
 51
319.4642
  0
ARC
  8
0
  6
CONTINUOUS
 62
     7
 10
-191.1235
 20
-123.2583
 40
12.5
 50
220.5358
 51
229.4642
  0
CIRCLE
  8
0
  6
CONTINUOUS
 62
     7
 10
167.1235
 20
-123.2584
 40
5.0
  0
ARC
  8
0
  6
CONTINUOUS
 62
     7
 10
156.123
 20
-123.2584
 40
41.00047
 50
347.3197
 51
12.68013
  0
ARC
  8
0
  6
CONTINUOUS
 62
     7
 10
182.1235
 20
-123.2584
 40
27.0
 50
153.6122
 51
206.3878
  0
ARC
  8
0
  6
CONTINUOUS
 62
     7
 10
195.0863
 20
-123.2584
 40
39.03965
 50
162.0986
 51
197.9014
  0
ARC
  8
0
  6
CONTINUOUS
 62
     7
 10
156.1229
 20
-43.25849
 40
41.00047
 50
347.3197
 51
12.68013
  0
ARC
  8
0
  6
CONTINUOUS
 62
     7
 10
182.1234
 20
-43.25851
 40
27.0
 50
164.9739
 51
195.0261
  0
ARC
  8
0
  6
CONTINUOUS
 62
     7
 10
183.7579
 20
-43.25851
 40
26.75336
 50
164.832
 51
195.1679
  0
ARC
  8
0
  6
CONTINUOUS
 62
     7
 10
71.12355
 20
-123.2584
 40
15.0
 50
36.8699
 51
53.1301
  0
ARC
  8
0
  6
CONTINUOUS
 62
     7
 10
71.12355
 20
-123.2584
 40
15.0
 50
126.8699
 51
143.1301
  0
ARC
  8
0
  6
CONTINUOUS
 62
     7
 10
71.12355
 20
-123.2584
 40
14.99999
 50
306.8699
 51
323.1301
  0
ARC
  8
0
  6
CONTINUOUS
 62
     7
 10
71.12355
 20
-123.2584
 40
15.0
 50
216.87
 51
233.1301
  0
TEXT
  8
0
  6
CONTINUOUS
 62
     7
 10
161.9774
 20
167.0677
 40
6.0
  1
DATE : AUG ,1989
 41
0.8
  7
STANDARD
  0
TEXT
  8
0
  6
CONTINUOUS
 62
     7
 10
-245.5772
 20
166.5977
 40
7.0
  1
SLIM I-KNUCKLE,-I
 41
0.8
  7
STANDARD
  0
TEXT
  8
0
  6
CONTINUOUS
 62
     7
 10
7.85
 20
146.4853
 40
7.0
  1
BORE : 20
 41
0.8
  7
STANDARD
  0
TEXT
  8
0
  6
CONTINUOUS
 62
     7
 10
21.97126455
 20
132.4853
 40
7.0
  1
       25(SQUARE ROD)
 41
0.8
  7
STANDARD
  0
TEXT
  8
0
  6
CONTINUOUS
 62
     7
 10
-254.3972
 20
146.4853
 40
7.0
  1
BORE : 16
 41
0.8
  7
STANDARD
  0
TEXT
  8
0
  6
CONTINUOUS
 62
     7
 10
7.85
 20
-13.29
 40
7.0
  1
BORE : 40,50,63
 41
0.8
  7
STANDARD
  0
TEXT
  8
0
  6
CONTINUOUS
 62
     7
 10
-254.3972
 20
-13.29
 40
7.0
  1
BORE : 25,32
 41
0.8
  7
STANDARD
  0
ENDSEC
  0
EOF
