  0
SECTION
  2
HEADER
  0
ENDSEC
  0
SECTION
  2
TABLES
  0
TABLE
  2
LTYPE
 70
     4
  0
LTYPE
  2
CONTINUOUS
 70
    64
  3
Solid line
 72
    65
 73
     0
 40
0.000000
  0
LTYPE
  2
DASHED
 70
    64
  3
__ __ __ __ __ __ __ __ __ __ __ __ __ __ __
 72
    65
 73
     2
 40
3.500000
 49
2.000000
 49
-1.500000
  0
LTYPE
  2
CENTER
 70
    64
  3
____ _ ____ _ ____ _ ____ _ ____ _ ____ _ ____
 72
    65
 73
     4
 40
17.500000
 49
13.000000
 49
-1.500000
 49
1.500000
 49
-1.500000
  0
LTYPE
  2
PHANTOM
 70
    64
  3
_____ _ _ _____ _ _ _____ _ _ _____ _ _ ____  
 72
    65
 73
     6
 40
15.500000
 49
8.000000
 49
-1.500000
 49
1.500000
 49
-1.500000
 49
1.500000
 49
-1.500000
  0
ENDTAB
  0
TABLE
  2
LAYER
 70
     1
  0
LAYER
  2
0
 70
     0
 62
     7
  6
CONTINUOUS
  0
ENDTAB
  0
TABLE
  2
STYLE
 70
     1
  0
STYLE
  2
STANDARD
 70
     0
 40
0.000000
 41
1.000000
 50
0.000000
 71
     0
 42
0.200000
  3
txt
  4
BIGFONT
  0
ENDTAB
  0
TABLE
  2
VIEW
 70
     0
  0
ENDTAB
  0
ENDSEC
  0
SECTION
  2
BLOCKS
  0
ENDSEC
  0
SECTION
  2
ENTITIES
  0
LINE
  8
0
  6
CONTINUOUS
 62
7
 10
-281.250000
 20
195.500000
 11
282.100006
 21
195.500000
  0
LINE
  8
0
  6
CONTINUOUS
 62
7
 10
-281.250000
 20
195.500000
 11
-281.250000
 21
-195.000000
  0
LINE
  8
0
  6
CONTINUOUS
 62
7
 10
282.100006
 20
195.500000
 11
282.100006
 21
-195.000000
  0
LINE
  8
0
  6
CONTINUOUS
 62
7
 10
-281.250000
 20
-195.000000
 11
282.100006
 21
-195.000000
  0
LINE
  8
0
  6
CONTINUOUS
 62
7
 10
162.100006
 20
-175.000000
 11
162.100006
 21
-195.000000
  0
LINE
  8
0
  6
CONTINUOUS
 62
7
 10
162.100006
 20
-175.000000
 11
282.100006
 21
-175.000000
  0
LINE
  8
0
  6
CONTINUOUS
 62
7
 10
162.100006
 20
175.500000
 11
282.100006
 21
175.500000
  0
LINE
  8
0
  6
CONTINUOUS
 62
7
 10
-281.250000
 20
175.500000
 11
-161.250000
 21
175.500000
  0
LINE
  8
0
  6
CONTINUOUS
 62
7
 10
162.100006
 20
195.500000
 11
162.100006
 21
175.500000
  0
LINE
  8
0
  6
CONTINUOUS
 62
7
 10
-161.250000
 20
195.500000
 11
-161.250000
 21
175.500000
  0
LINE
  8
0
  6
CONTINUOUS
 62
7
 10
-93.466698
 20
195.500000
 11
-93.466698
 21
-195.000000
  0
LINE
  8
0
  6
CONTINUOUS
 62
7
 10
94.316704
 20
195.500000
 11
94.316704
 21
-195.000000
  0
LINE
  8
0
  6
CONTINUOUS
 62
4
 10
-248.063995
 20
21.741501
 11
-191.063995
 21
21.741501
  0
LINE
  8
0
  6
CONTINUOUS
 62
4
 10
-249.063995
 20
20.741501
 11
-249.063995
 21
10.741500
  0
LINE
  8
0
  6
CONTINUOUS
 62
4
 10
-248.063995
 20
9.741550
 11
-191.063995
 21
9.741550
  0
LINE
  8
0
  6
CONTINUOUS
 62
4
 10
-237.063995
 20
9.741550
 11
-237.063995
 21
6.541530
  0
LINE
  8
0
  6
CENTER
 62
1
 10
-252.063995
 20
15.741500
 11
-187.063995
 21
15.741500
  0
LINE
  8
0
  6
CENTER
 62
1
 10
-242.063995
 20
21.741501
 11
-242.063995
 21
9.741550
  0
LINE
  8
0
  6
CONTINUOUS
 62
4
 10
-237.063995
 20
24.941500
 11
-237.063995
 21
21.741501
  0
LINE
  8
0
  6
CONTINUOUS
 62
4
 10
-237.063995
 20
24.941500
 11
-204.063995
 21
24.941500
  0
LINE
  8
0
  6
CENTER
 62
1
 10
-227.063995
 20
28.991501
 11
-227.063995
 21
2.741550
  0
LINE
  8
0
  6
CONTINUOUS
 62
4
 10
-237.063995
 20
6.541530
 11
-204.063995
 21
6.541530
  0
LINE
  8
0
  6
CONTINUOUS
 62
4
 10
-204.063995
 20
24.941500
 11
-204.063995
 21
21.741501
  0
LINE
  8
0
  6
CONTINUOUS
 62
4
 10
-204.063995
 20
9.741550
 11
-204.063995
 21
6.541530
  0
LINE
  8
0
  6
CENTER
 62
1
 10
-197.063995
 20
21.741501
 11
-197.063995
 21
9.741550
  0
LINE
  8
0
  6
CONTINUOUS
 62
4
 10
-190.063995
 20
20.741501
 11
-190.063995
 21
10.741500
  0
LINE
  8
0
  6
CONTINUOUS
 62
4
 10
-231.063995
 20
27.941500
 11
-231.063995
 21
26.441500
  0
LINE
  8
0
  6
CONTINUOUS
 62
4
 10
-223.063995
 20
27.941500
 11
-223.063995
 21
26.441500
  0
LINE
  8
0
  6
CONTINUOUS
 62
4
 10
-222.063995
 20
26.441500
 11
-222.063995
 21
25.541500
  0
LINE
  8
0
  6
CONTINUOUS
 62
4
 10
-232.063995
 20
26.441500
 11
-232.063995
 21
25.541500
  0
LINE
  8
0
  6
CONTINUOUS
 62
4
 10
-231.063995
 20
3.541530
 11
-223.063995
 21
3.541530
  0
LINE
  8
0
  6
CONTINUOUS
 62
4
 10
-231.063995
 20
27.941500
 11
-223.063995
 21
27.941500
  0
LINE
  8
0
  6
CONTINUOUS
 62
4
 10
-232.063995
 20
26.441500
 11
-222.063995
 21
26.441500
  0
LINE
  8
0
  6
CONTINUOUS
 62
4
 10
-232.063995
 20
5.041530
 11
-222.063995
 21
5.041530
  0
LINE
  8
0
  6
CONTINUOUS
 62
4
 10
-232.063995
 20
5.941540
 11
-222.063995
 21
5.941540
  0
LINE
  8
0
  6
CONTINUOUS
 62
4
 10
-232.063995
 20
25.541500
 11
-222.063995
 21
25.541500
  0
LINE
  8
0
  6
CONTINUOUS
 62
4
 10
-232.063995
 20
5.941540
 11
-232.063995
 21
5.041530
  0
LINE
  8
0
  6
CONTINUOUS
 62
4
 10
-222.063995
 20
5.941540
 11
-222.063995
 21
5.041530
  0
LINE
  8
0
  6
CONTINUOUS
 62
4
 10
-231.063995
 20
5.041530
 11
-231.063995
 21
3.541530
  0
LINE
  8
0
  6
CONTINUOUS
 62
4
 10
-231.063995
 20
6.541530
 11
-231.063995
 21
5.941540
  0
LINE
  8
0
  6
CONTINUOUS
 62
4
 10
-223.063995
 20
6.541530
 11
-223.063995
 21
5.941540
  0
LINE
  8
0
  6
CONTINUOUS
 62
4
 10
-223.063995
 20
5.041530
 11
-223.063995
 21
3.541530
  0
LINE
  8
0
  6
CONTINUOUS
 62
4
 10
-223.063995
 20
25.541500
 11
-223.063995
 21
24.941500
  0
LINE
  8
0
  6
CONTINUOUS
 62
4
 10
-223.063995
 20
21.741501
 11
-223.063995
 21
9.741550
  0
LINE
  8
0
  6
CONTINUOUS
 62
4
 10
-231.063995
 20
25.541500
 11
-231.063995
 21
24.941500
  0
LINE
  8
0
  6
CONTINUOUS
 62
4
 10
-231.063995
 20
21.741501
 11
-231.063995
 21
9.741550
  0
LINE
  8
0
  6
CONTINUOUS
 62
4
 10
-226.029007
 20
-57.122200
 11
-225.770004
 21
-58.088100
  0
LINE
  8
0
  6
CENTER
 62
1
 10
-227.063995
 20
-40.458500
 11
-227.063995
 21
-66.000000
  0
LINE
  8
0
  6
CENTER
 62
1
 10
-239.589005
 20
-53.258499
 11
-212.813995
 21
-53.258499
  0
LINE
  8
0
  6
CONTINUOUS
 62
4
 10
-204.063995
 20
-78.258400
 11
-218.037994
 21
-48.954300
  0
LINE
  8
0
  6
CONTINUOUS
 62
4
 10
-231.063995
 20
-62.423599
 11
-231.063995
 21
-83.258499
  0
LINE
  8
0
  6
CONTINUOUS
 62
4
 10
-204.063995
 20
-78.258499
 11
-204.063995
 21
-83.258499
  0
LINE
  8
0
  6
CONTINUOUS
 62
4
 10
-204.063995
 20
-80.058502
 11
-190.063995
 21
-80.058502
  0
LINE
  8
0
  6
CENTER
 62
1
 10
-197.063995
 20
-78.258499
 11
-197.063995
 21
-85.258499
  0
LINE
  8
0
  6
CONTINUOUS
 62
4
 10
-190.063995
 20
-80.058502
 11
-190.063995
 21
-83.258499
  0
LINE
  8
0
  6
CONTINUOUS
 62
4
 10
-249.063995
 20
-83.258499
 11
-190.063995
 21
-83.258499
  0
LINE
  8
0
  6
CONTINUOUS
 62
4
 10
-249.063995
 20
-80.058502
 11
-231.063995
 21
-80.058502
  0
LINE
  8
0
  6
CENTER
 62
1
 10
-242.063995
 20
-78.258499
 11
-242.063995
 21
-85.258499
  0
LINE
  8
0
  6
CONTINUOUS
 62
4
 10
-249.063995
 20
-80.058502
 11
-249.063995
 21
-83.258499
  0
LINE
  8
0
  6
CONTINUOUS
 62
4
 10
-228.358002
 20
-58.088100
 11
-228.098999
 21
-57.122200
  0
LINE
  8
0
  6
CONTINUOUS
 62
4
 10
-166.264008
 20
-43.258499
 11
-163.063995
 21
-43.258499
  0
LINE
  8
0
  6
CENTER
 62
1
 10
-157.063995
 20
-39.258499
 11
-157.063995
 21
-85.508499
  0
LINE
  8
0
  6
CONTINUOUS
 62
4
 10
-151.063995
 20
-43.258499
 11
-147.863998
 21
-43.258499
  0
LINE
  8
0
  6
CONTINUOUS
 62
4
 10
-151.063995
 20
-43.258499
 11
-151.063995
 21
-83.258499
  0
LINE
  8
0
  6
CONTINUOUS
 62
4
 10
-147.863998
 20
-43.258499
 11
-147.863998
 21
-80.258499
  0
LINE
  8
0
  6
CONTINUOUS
 62
4
 10
-163.063995
 20
-43.258499
 11
-163.063995
 21
-83.251801
  0
LINE
  8
0
  6
CONTINUOUS
 62
4
 10
-166.264008
 20
-43.258499
 11
-166.264008
 21
-80.258499
  0
LINE
  8
0
  6
CENTER
 62
1
 10
-170.414001
 20
-53.258499
 11
-143.464005
 21
-53.258499
  0
LINE
  8
0
  6
CONTINUOUS
 62
4
 10
-166.264008
 20
-78.258499
 11
-163.063995
 21
-78.258499
  0
LINE
  8
0
  6
CONTINUOUS
 62
4
 10
-163.063995
 20
-80.058502
 11
-151.063995
 21
-80.058502
  0
LINE
  8
0
  6
CONTINUOUS
 62
4
 10
-163.264008
 20
-83.258499
 11
-150.863998
 21
-83.258499
  0
LINE
  8
0
  6
CONTINUOUS
 62
4
 10
-151.063995
 20
-78.258499
 11
-147.863998
 21
-78.258499
  0
LINE
  8
0
  6
CONTINUOUS
 62
4
 10
-169.264008
 20
-49.258499
 11
-169.264008
 21
-57.258499
  0
LINE
  8
0
  6
CONTINUOUS
 62
4
 10
-144.863998
 20
-49.258499
 11
-144.863998
 21
-57.258499
  0
LINE
  8
0
  6
CONTINUOUS
 62
4
 10
-169.264008
 20
-49.258499
 11
-167.764008
 21
-49.258499
  0
LINE
  8
0
  6
CONTINUOUS
 62
4
 10
-169.264008
 20
-57.258499
 11
-167.764008
 21
-57.258499
  0
LINE
  8
0
  6
CONTINUOUS
 62
4
 10
-167.764008
 20
-48.258499
 11
-167.764008
 21
-58.258499
  0
LINE
  8
0
  6
CONTINUOUS
 62
4
 10
-146.363998
 20
-48.258499
 11
-146.363998
 21
-58.258499
  0
LINE
  8
0
  6
CONTINUOUS
 62
4
 10
-166.863998
 20
-48.258499
 11
-166.863998
 21
-58.258499
  0
LINE
  8
0
  6
CONTINUOUS
 62
4
 10
-147.264008
 20
-48.258499
 11
-147.264008
 21
-58.258499
  0
LINE
  8
0
  6
CONTINUOUS
 62
4
 10
-167.764008
 20
-48.258499
 11
-166.863998
 21
-48.258499
  0
LINE
  8
0
  6
CONTINUOUS
 62
4
 10
-167.764008
 20
-58.258499
 11
-166.863998
 21
-58.258499
  0
LINE
  8
0
  6
CONTINUOUS
 62
4
 10
-147.264008
 20
-48.258499
 11
-146.363998
 21
-48.258499
  0
LINE
  8
0
  6
CONTINUOUS
 62
4
 10
-147.264008
 20
-58.258499
 11
-146.363998
 21
-58.258499
  0
LINE
  8
0
  6
CONTINUOUS
 62
4
 10
-166.863998
 20
-57.258499
 11
-166.264008
 21
-57.258499
  0
LINE
  8
0
  6
CONTINUOUS
 62
4
 10
-166.863998
 20
-49.258499
 11
-166.264008
 21
-49.258499
  0
LINE
  8
0
  6
CONTINUOUS
 62
4
 10
-163.063995
 20
-49.258499
 11
-151.063995
 21
-49.258499
  0
LINE
  8
0
  6
CONTINUOUS
 62
4
 10
-163.063995
 20
-57.258499
 11
-151.063995
 21
-57.258499
  0
LINE
  8
0
  6
CONTINUOUS
 62
4
 10
-147.863998
 20
-57.258499
 11
-147.264008
 21
-57.258499
  0
LINE
  8
0
  6
CONTINUOUS
 62
4
 10
-147.863998
 20
-49.258499
 11
-147.264008
 21
-49.258499
  0
LINE
  8
0
  6
CONTINUOUS
 62
4
 10
-146.363998
 20
-49.258499
 11
-144.863998
 21
-49.258499
  0
LINE
  8
0
  6
CONTINUOUS
 62
4
 10
-146.363998
 20
-57.258499
 11
-144.863998
 21
-57.258499
  0
LINE
  8
0
  6
CONTINUOUS
 62
4
 10
-67.707901
 20
27.483101
 11
5.292130
 21
27.483101
  0
LINE
  8
0
  6
CONTINUOUS
 62
4
 10
-68.707901
 20
26.483101
 11
-68.707901
 21
8.483080
  0
LINE
  8
0
  6
CONTINUOUS
 62
4
 10
-67.707901
 20
7.483080
 11
5.292130
 21
7.483080
  0
LINE
  8
0
  6
CENTER
 62
1
 10
-74.232101
 20
17.483101
 11
12.395300
 21
17.483101
  0
LINE
  8
0
  6
CENTER
 62
1
 10
-58.707901
 20
26.112400
 11
-58.707901
 21
8.575100
  0
LINE
  8
0
  6
CONTINUOUS
 62
4
 10
-56.707901
 20
31.483101
 11
-13.707900
 21
31.483101
  0
LINE
  8
0
  6
CENTER
 62
1
 10
-43.707901
 20
37.513100
 11
-43.707901
 21
-3.204010
  0
LINE
  8
0
  6
CONTINUOUS
 62
4
 10
-56.707901
 20
3.483030
 11
-13.707900
 21
3.483030
  0
LINE
  8
0
  6
CONTINUOUS
 62
4
 10
-13.707900
 20
31.483101
 11
-13.707900
 21
27.483101
  0
LINE
  8
0
  6
CONTINUOUS
 62
4
 10
-13.707900
 20
7.483080
 11
-13.707900
 21
3.483030
  0
LINE
  8
0
  6
CENTER
 62
1
 10
-3.707870
 20
26.382900
 11
-3.707870
 21
8.575100
  0
LINE
  8
0
  6
CONTINUOUS
 62
4
 10
6.292130
 20
26.483101
 11
6.292130
 21
8.483080
  0
LINE
  8
0
  6
CONTINUOUS
 62
4
 10
-48.707901
 20
34.483101
 11
-48.707901
 21
32.983101
  0
LINE
  8
0
  6
CONTINUOUS
 62
4
 10
-38.707901
 20
34.483101
 11
-38.707901
 21
32.983101
  0
LINE
  8
0
  6
CONTINUOUS
 62
4
 10
-37.707901
 20
32.983101
 11
-37.707901
 21
32.083099
  0
LINE
  8
0
  6
CONTINUOUS
 62
4
 10
-49.707901
 20
32.983101
 11
-49.707901
 21
32.083099
  0
LINE
  8
0
  6
CONTINUOUS
 62
4
 10
-48.707901
 20
0.483032
 11
-38.707901
 21
0.483032
  0
LINE
  8
0
  6
CONTINUOUS
 62
4
 10
-48.707901
 20
34.483101
 11
-38.707901
 21
34.483101
  0
LINE
  8
0
  6
CONTINUOUS
 62
4
 10
-49.707901
 20
32.983101
 11
-37.707901
 21
32.983101
  0
LINE
  8
0
  6
CONTINUOUS
 62
4
 10
-49.707901
 20
1.983030
 11
-37.707901
 21
1.983030
  0
LINE
  8
0
  6
CONTINUOUS
 62
4
 10
-49.707901
 20
2.883040
 11
-37.707901
 21
2.883040
  0
LINE
  8
0
  6
CONTINUOUS
 62
4
 10
-49.707901
 20
32.083099
 11
-37.707901
 21
32.083099
  0
LINE
  8
0
  6
CONTINUOUS
 62
4
 10
-49.707901
 20
2.883040
 11
-49.707901
 21
1.983030
  0
LINE
  8
0
  6
CONTINUOUS
 62
4
 10
-37.707901
 20
2.883040
 11
-37.707901
 21
1.983030
  0
LINE
  8
0
  6
CONTINUOUS
 62
4
 10
-48.707901
 20
1.983030
 11
-48.707901
 21
0.483032
  0
LINE
  8
0
  6
CONTINUOUS
 62
4
 10
-48.707901
 20
3.483030
 11
-48.707901
 21
2.883040
  0
LINE
  8
0
  6
CONTINUOUS
 62
4
 10
-38.707901
 20
3.483030
 11
-38.707901
 21
2.883040
  0
LINE
  8
0
  6
CONTINUOUS
 62
4
 10
-38.707901
 20
1.983030
 11
-38.707901
 21
0.483032
  0
LINE
  8
0
  6
CONTINUOUS
 62
4
 10
-38.707901
 20
32.083099
 11
-38.707901
 21
31.483101
  0
LINE
  8
0
  6
CONTINUOUS
 62
4
 10
-38.707901
 20
27.483101
 11
-38.707901
 21
7.483080
  0
LINE
  8
0
  6
CONTINUOUS
 62
4
 10
-48.707901
 20
32.083099
 11
-48.707901
 21
31.483101
  0
LINE
  8
0
  6
CONTINUOUS
 62
4
 10
-48.707901
 20
27.483101
 11
-48.707901
 21
7.483080
  0
LINE
  8
0
  6
CONTINUOUS
 62
4
 10
-56.707901
 20
7.483080
 11
-56.707901
 21
3.483030
  0
LINE
  8
0
  6
CONTINUOUS
 62
4
 10
-56.707901
 20
31.483101
 11
-56.707901
 21
27.483101
  0
LINE
  8
0
  6
CONTINUOUS
 62
4
 10
-48.707901
 20
-65.258499
 11
-48.707901
 21
-93.258499
  0
LINE
  8
0
  6
CONTINUOUS
 62
4
 10
-31.903200
 20
-47.813202
 11
-13.707900
 21
-87.258400
  0
LINE
  8
0
  6
CENTER
 62
1
 10
-43.707901
 20
-37.506199
 11
-43.707901
 21
-69.333298
  0
LINE
  8
0
  6
CENTER
 62
1
 10
-61.302399
 20
-53.258499
 11
-24.708900
 21
-53.258499
  0
LINE
  8
0
  6
CONTINUOUS
 62
4
 10
-13.707900
 20
-87.258499
 11
-13.707900
 21
-93.258400
  0
LINE
  8
0
  6
CONTINUOUS
 62
4
 10
-13.707900
 20
-89.258499
 11
6.292130
 21
-89.258499
  0
LINE
  8
0
  6
CENTER
 62
1
 10
-3.707870
 20
-86.680702
 11
-3.707870
 21
-95.258499
  0
LINE
  8
0
  6
CONTINUOUS
 62
4
 10
6.292130
 20
-89.258499
 11
6.292130
 21
-93.258499
  0
LINE
  8
0
  6
CONTINUOUS
 62
4
 10
-68.707901
 20
-93.258499
 11
6.292130
 21
-93.258499
  0
LINE
  8
0
  6
CONTINUOUS
 62
4
 10
-68.707901
 20
-89.258499
 11
-48.707901
 21
-89.258499
  0
LINE
  8
0
  6
CENTER
 62
1
 10
-58.707901
 20
-87.221802
 11
-58.707901
 21
-95.258499
  0
LINE
  8
0
  6
CONTINUOUS
 62
4
 10
-68.707901
 20
-89.258499
 11
-68.707901
 21
-93.258499
  0
LINE
  8
0
  6
CONTINUOUS
 62
4
 10
-45.260799
 20
-59.054001
 11
-45.001999
 21
-58.088100
  0
LINE
  8
0
  6
CONTINUOUS
 62
4
 10
-42.413799
 20
-58.088100
 11
-42.154999
 21
-59.054001
  0
LINE
  8
0
  6
CENTER
 62
1
 10
39.292099
 20
-37.303299
 11
39.292099
 21
-95.508499
  0
LINE
  8
0
  6
CONTINUOUS
 62
4
 10
49.292099
 20
-40.258499
 11
49.292099
 21
-93.258499
  0
LINE
  8
0
  6
CONTINUOUS
 62
4
 10
53.292099
 20
-40.258499
 11
53.292099
 21
-90.258499
  0
LINE
  8
0
  6
CONTINUOUS
 62
4
 10
29.292101
 20
-40.258499
 11
29.292101
 21
-93.251801
  0
LINE
  8
0
  6
CONTINUOUS
 62
4
 10
25.292101
 20
-40.258499
 11
25.292101
 21
-90.258499
  0
LINE
  8
0
  6
CENTER
 62
1
 10
21.142099
 20
-53.258499
 11
57.692101
 21
-53.258499
  0
LINE
  8
0
  6
CONTINUOUS
 62
4
 10
25.292101
 20
-87.258499
 11
29.292101
 21
-87.258499
  0
LINE
  8
0
  6
CONTINUOUS
 62
4
 10
29.292101
 20
-89.258499
 11
49.292099
 21
-89.258499
  0
LINE
  8
0
  6
CONTINUOUS
 62
4
 10
28.292101
 20
-93.258499
 11
50.292099
 21
-93.258499
  0
LINE
  8
0
  6
CONTINUOUS
 62
4
 10
49.292099
 20
-87.258499
 11
53.292099
 21
-87.258499
  0
LINE
  8
0
  6
CONTINUOUS
 62
4
 10
22.292101
 20
-48.258499
 11
22.292101
 21
-58.258499
  0
LINE
  8
0
  6
CONTINUOUS
 62
4
 10
56.292099
 20
-48.258499
 11
56.292099
 21
-58.258499
  0
LINE
  8
0
  6
CONTINUOUS
 62
4
 10
22.292101
 20
-48.258499
 11
23.792101
 21
-48.258499
  0
LINE
  8
0
  6
CONTINUOUS
 62
4
 10
22.292101
 20
-58.258499
 11
23.792101
 21
-58.258499
  0
LINE
  8
0
  6
CONTINUOUS
 62
4
 10
23.792101
 20
-47.258499
 11
23.792101
 21
-59.258499
  0
LINE
  8
0
  6
CONTINUOUS
 62
4
 10
54.792099
 20
-47.258499
 11
54.792099
 21
-59.258499
  0
LINE
  8
0
  6
CONTINUOUS
 62
4
 10
24.692101
 20
-47.258499
 11
24.692101
 21
-59.258499
  0
LINE
  8
0
  6
CONTINUOUS
 62
4
 10
53.892101
 20
-47.258499
 11
53.892101
 21
-59.258499
  0
LINE
  8
0
  6
CONTINUOUS
 62
4
 10
23.792101
 20
-47.258499
 11
24.692101
 21
-47.258499
  0
LINE
  8
0
  6
CONTINUOUS
 62
4
 10
23.792101
 20
-59.258499
 11
24.692101
 21
-59.258499
  0
LINE
  8
0
  6
CONTINUOUS
 62
4
 10
53.892101
 20
-47.258499
 11
54.792099
 21
-47.258499
  0
LINE
  8
0
  6
CONTINUOUS
 62
4
 10
53.892101
 20
-59.258499
 11
54.792099
 21
-59.258499
  0
LINE
  8
0
  6
CONTINUOUS
 62
4
 10
24.692101
 20
-58.258499
 11
25.292101
 21
-58.258499
  0
LINE
  8
0
  6
CONTINUOUS
 62
4
 10
24.692101
 20
-48.258499
 11
25.292101
 21
-48.258499
  0
LINE
  8
0
  6
CONTINUOUS
 62
4
 10
29.292101
 20
-48.258499
 11
49.292099
 21
-48.258499
  0
LINE
  8
0
  6
CONTINUOUS
 62
4
 10
29.292101
 20
-58.258499
 11
49.292099
 21
-58.258499
  0
LINE
  8
0
  6
CONTINUOUS
 62
4
 10
53.292099
 20
-58.258499
 11
53.892101
 21
-58.258499
  0
LINE
  8
0
  6
CONTINUOUS
 62
4
 10
53.292099
 20
-48.258499
 11
53.892101
 21
-48.258499
  0
LINE
  8
0
  6
CONTINUOUS
 62
4
 10
54.792099
 20
-48.258499
 11
56.292099
 21
-48.258499
  0
LINE
  8
0
  6
CONTINUOUS
 62
4
 10
54.792099
 20
-58.258499
 11
56.292099
 21
-58.258499
  0
LINE
  8
0
  6
CONTINUOUS
 62
4
 10
25.292101
 20
-40.258499
 11
29.292101
 21
-40.258499
  0
LINE
  8
0
  6
CONTINUOUS
 62
4
 10
49.292099
 20
-40.258499
 11
53.292099
 21
-40.258499
  0
LINE
  8
0
  6
CONTINUOUS
 62
4
 10
127.342003
 20
30.241501
 11
127.342003
 21
25.741501
  0
LINE
  8
0
  6
CONTINUOUS
 62
4
 10
121.342003
 20
34.741501
 11
121.342003
 21
-3.258450
  0
LINE
  8
0
  6
CONTINUOUS
 62
4
 10
121.342003
 20
1.241550
 11
178.341995
 21
1.241550
  0
LINE
  8
0
  6
CONTINUOUS
 62
4
 10
121.342003
 20
30.241501
 11
178.341995
 21
30.241501
  0
LINE
  8
0
  6
CONTINUOUS
 62
4
 10
126.342003
 20
36.741501
 11
144.341995
 21
36.741501
  0
LINE
  8
0
  6
CONTINUOUS
 62
4
 10
126.342003
 20
-5.258450
 11
144.341995
 21
-5.258450
  0
LINE
  8
0
  6
CONTINUOUS
 62
4
 10
127.342003
 20
5.741550
 11
143.341995
 21
5.741550
  0
LINE
  8
0
  6
CONTINUOUS
 62
4
 10
126.342003
 20
36.741501
 11
126.342003
 21
34.741501
  0
LINE
  8
0
  6
DASHED
 62
1
 10
130.341995
 20
36.741501
 11
130.341995
 21
25.741501
  0
LINE
  8
0
  6
DASHED
 62
1
 10
140.341995
 20
36.741501
 11
140.341995
 21
25.741501
  0
LINE
  8
0
  6
CONTINUOUS
 62
4
 10
144.341995
 20
36.741501
 11
144.341995
 21
34.741501
  0
LINE
  8
0
  6
CONTINUOUS
 62
4
 10
127.342003
 20
25.741501
 11
143.341995
 21
25.741501
  0
LINE
  8
0
  6
CENTER
 62
1
 10
118.342003
 20
15.741500
 11
181.843002
 21
15.741500
  0
LINE
  8
0
  6
CONTINUOUS
 62
4
 10
121.342003
 20
34.741501
 11
178.341995
 21
34.741501
  0
LINE
  8
0
  6
CONTINUOUS
 62
4
 10
121.342003
 20
-3.258450
 11
178.341995
 21
-3.258450
  0
LINE
  8
0
  6
CONTINUOUS
 62
4
 10
126.342003
 20
-3.258450
 11
126.342003
 21
-5.258450
  0
LINE
  8
0
  6
CONTINUOUS
 62
4
 10
144.341995
 20
-3.258450
 11
144.341995
 21
-5.258450
  0
LINE
  8
0
  6
DASHED
 62
1
 10
140.341995
 20
5.741550
 11
140.341995
 21
-5.258450
  0
LINE
  8
0
  6
DASHED
 62
1
 10
130.341995
 20
5.741550
 11
130.341995
 21
-5.258450
  0
LINE
  8
0
  6
CENTER
 62
1
 10
135.341995
 20
41.216499
 11
135.341995
 21
-9.576050
  0
LINE
  8
0
  6
CONTINUOUS
 62
4
 10
143.341995
 20
30.241501
 11
143.341995
 21
25.741501
  0
LINE
  8
0
  6
CONTINUOUS
 62
4
 10
127.342003
 20
5.741550
 11
127.342003
 21
1.241550
  0
LINE
  8
0
  6
CONTINUOUS
 62
4
 10
143.341995
 20
5.741550
 11
143.341995
 21
1.241550
  0
LINE
  8
0
  6
CENTER
 62
1
 10
132.341995
 20
24.241501
 11
132.341995
 21
7.241550
  0
LINE
  8
0
  6
CENTER
 62
1
 10
167.341995
 20
24.241501
 11
167.341995
 21
7.241550
  0
LINE
  8
0
  6
CONTINUOUS
 62
4
 10
130.341995
 20
-5.858450
 11
130.341995
 21
-5.258450
  0
LINE
  8
0
  6
CONTINUOUS
 62
4
 10
140.341995
 20
-5.858460
 11
140.341995
 21
-5.258450
  0
LINE
  8
0
  6
CONTINUOUS
 62
4
 10
130.841995
 20
39.741501
 11
139.841995
 21
39.741501
  0
LINE
  8
0
  6
CONTINUOUS
 62
4
 10
130.341995
 20
38.241501
 11
140.341995
 21
38.241501
  0
LINE
  8
0
  6
CONTINUOUS
 62
4
 10
130.341995
 20
37.341499
 11
140.341995
 21
37.341499
  0
LINE
  8
0
  6
CONTINUOUS
 62
4
 10
130.341995
 20
39.241501
 11
130.841995
 21
39.741501
  0
LINE
  8
0
  6
CONTINUOUS
 62
4
 10
139.841995
 20
39.741501
 11
140.341995
 21
39.241501
  0
LINE
  8
0
  6
CONTINUOUS
 62
4
 10
130.341995
 20
39.241501
 11
140.341995
 21
39.241501
  0
LINE
  8
0
  6
CONTINUOUS
 62
4
 10
140.341995
 20
38.241501
 11
140.341995
 21
39.241501
  0
LINE
  8
0
  6
CONTINUOUS
 62
4
 10
130.341995
 20
38.241501
 11
130.341995
 21
39.241501
  0
LINE
  8
0
  6
CONTINUOUS
 62
4
 10
130.341995
 20
-5.858450
 11
140.341995
 21
-5.858450
  0
LINE
  8
0
  6
CONTINUOUS
 62
4
 10
130.341995
 20
-6.758450
 11
140.341995
 21
-6.758450
  0
LINE
  8
0
  6
CONTINUOUS
 62
4
 10
130.341995
 20
-7.758450
 11
140.341995
 21
-7.758450
  0
LINE
  8
0
  6
CONTINUOUS
 62
4
 10
130.841995
 20
-8.258450
 11
139.841995
 21
-8.258450
  0
LINE
  8
0
  6
CONTINUOUS
 62
4
 10
130.341995
 20
-6.758450
 11
130.341995
 21
-7.758450
  0
LINE
  8
0
  6
CONTINUOUS
 62
4
 10
130.341995
 20
-7.758440
 11
130.841995
 21
-8.258450
  0
LINE
  8
0
  6
CONTINUOUS
 62
4
 10
140.341995
 20
-6.758460
 11
140.341995
 21
-7.758460
  0
LINE
  8
0
  6
CONTINUOUS
 62
4
 10
139.841995
 20
-8.258450
 11
140.341995
 21
-7.758460
  0
LINE
  8
0
  6
CONTINUOUS
 62
4
 10
140.341995
 20
36.741501
 11
140.341995
 21
37.341499
  0
LINE
  8
0
  6
CONTINUOUS
 62
4
 10
130.341995
 20
36.741501
 11
130.341995
 21
37.341499
  0
LINE
  8
0
  6
CONTINUOUS
 62
4
 10
130.341995
 20
5.741550
 11
130.341995
 21
25.741501
  0
LINE
  8
0
  6
CONTINUOUS
 62
4
 10
140.341995
 20
5.741550
 11
140.341995
 21
25.741501
  0
LINE
  8
0
  6
CONTINUOUS
 62
4
 10
129.341995
 20
37.341499
 11
141.341995
 21
37.341499
  0
LINE
  8
0
  6
CONTINUOUS
 62
4
 10
129.341995
 20
37.341499
 11
129.341995
 21
38.241600
  0
LINE
  8
0
  6
CONTINUOUS
 62
4
 10
129.341995
 20
38.241600
 11
141.341995
 21
38.241600
  0
LINE
  8
0
  6
CONTINUOUS
 62
4
 10
141.341995
 20
37.341499
 11
141.341995
 21
38.241600
  0
LINE
  8
0
  6
CONTINUOUS
 62
4
 10
129.341995
 20
-6.758450
 11
141.341995
 21
-6.758450
  0
LINE
  8
0
  6
CONTINUOUS
 62
4
 10
129.341995
 20
-6.758450
 11
129.341995
 21
-5.858440
  0
LINE
  8
0
  6
CONTINUOUS
 62
4
 10
129.341995
 20
-5.858440
 11
141.341995
 21
-5.858440
  0
LINE
  8
0
  6
CONTINUOUS
 62
4
 10
141.341995
 20
-6.758450
 11
141.341995
 21
-5.858440
  0
LINE
  8
0
  6
CONTINUOUS
 62
4
 10
178.341995
 20
34.741501
 11
178.341995
 21
-3.258450
  0
LINE
  8
0
  6
CENTER
 62
1
 10
118.342003
 20
-53.258499
 11
152.341995
 21
-53.258499
  0
LINE
  8
0
  6
CONTINUOUS
 62
4
 10
121.342003
 20
-92.258499
 11
178.341995
 21
-92.258499
  0
LINE
  8
0
  6
CONTINUOUS
 62
4
 10
178.341995
 20
-71.330002
 11
144.389999
 21
-42.575100
  0
LINE
  8
0
  6
CONTINUOUS
 62
4
 10
121.342003
 20
-53.258499
 11
121.342003
 21
-92.258499
  0
LINE
  8
0
  6
CENTER
 62
1
 10
135.341995
 20
-36.258499
 11
135.341995
 21
-70.258499
  0
LINE
  8
0
  6
CENTER
 62
1
 10
167.341995
 20
-84.758499
 11
167.341995
 21
-95.258499
  0
LINE
  8
0
  6
CENTER
 62
1
 10
132.341995
 20
-84.758499
 11
132.341995
 21
-95.258499
  0
LINE
  8
0
  6
CONTINUOUS
 62
4
 10
133.789001
 20
-59.054001
 11
134.048004
 21
-58.088100
  0
LINE
  8
0
  6
CONTINUOUS
 62
4
 10
136.636002
 20
-58.088100
 11
136.895004
 21
-59.054001
  0
LINE
  8
0
  6
CONTINUOUS
 62
4
 10
178.341995
 20
-71.330002
 11
178.341995
 21
-92.258499
  0
LINE
  8
0
  6
CONTINUOUS
 62
4
 10
214.341995
 20
-87.758499
 11
236.341995
 21
-87.758499
  0
LINE
  8
0
  6
CONTINUOUS
 62
4
 10
206.341995
 20
-39.258499
 11
210.841995
 21
-39.258499
  0
LINE
  8
0
  6
CENTER
 62
1
 10
225.341995
 20
-36.258499
 11
225.341995
 21
-95.258499
  0
LINE
  8
0
  6
CONTINUOUS
 62
4
 10
204.341995
 20
-44.258499
 11
204.341995
 21
-62.258499
  0
LINE
  8
0
  6
CONTINUOUS
 62
4
 10
215.341995
 20
-45.258499
 11
215.341995
 21
-61.258499
  0
LINE
  8
0
  6
CONTINUOUS
 62
4
 10
206.341995
 20
-39.258499
 11
206.341995
 21
-84.258499
  0
LINE
  8
0
  6
CONTINUOUS
 62
4
 10
246.341995
 20
-44.258499
 11
246.341995
 21
-62.258499
  0
LINE
  8
0
  6
CONTINUOUS
 62
4
 10
235.341995
 20
-45.258499
 11
235.341995
 21
-61.258499
  0
LINE
  8
0
  6
CONTINUOUS
 62
4
 10
210.841995
 20
-39.258499
 11
210.841995
 21
-84.258499
  0
LINE
  8
0
  6
CONTINUOUS
 62
4
 10
239.841995
 20
-39.258499
 11
239.841995
 21
-84.258499
  0
LINE
  8
0
  6
CONTINUOUS
 62
4
 10
204.341995
 20
-62.258499
 11
206.341995
 21
-62.258499
  0
LINE
  8
0
  6
CONTINUOUS
 62
4
 10
210.841995
 20
-61.258499
 11
215.341995
 21
-61.258499
  0
LINE
  8
0
  6
CONTINUOUS
 62
4
 10
210.841995
 20
-45.258499
 11
215.341995
 21
-45.258499
  0
LINE
  8
0
  6
CONTINUOUS
 62
4
 10
204.341995
 20
-44.258499
 11
206.341995
 21
-44.258499
  0
LINE
  8
0
  6
CONTINUOUS
 62
4
 10
206.341995
 20
-77.258499
 11
210.841995
 21
-77.258499
  0
LINE
  8
0
  6
CONTINUOUS
 62
4
 10
239.841995
 20
-39.258499
 11
244.341995
 21
-39.258499
  0
LINE
  8
0
  6
CONTINUOUS
 62
4
 10
244.341995
 20
-44.258499
 11
246.341995
 21
-44.258499
  0
LINE
  8
0
  6
CONTINUOUS
 62
4
 10
235.341995
 20
-45.258499
 11
239.841995
 21
-45.258499
  0
LINE
  8
0
  6
CONTINUOUS
 62
4
 10
235.341995
 20
-61.258499
 11
239.841995
 21
-61.258499
  0
LINE
  8
0
  6
CONTINUOUS
 62
4
 10
244.341995
 20
-62.258499
 11
246.341995
 21
-62.258499
  0
LINE
  8
0
  6
CONTINUOUS
 62
4
 10
239.841995
 20
-77.258499
 11
244.341995
 21
-77.258499
  0
LINE
  8
0
  6
CONTINUOUS
 62
4
 10
214.341995
 20
-92.258499
 11
236.341995
 21
-92.258499
  0
LINE
  8
0
  6
DASHED
 62
4
 10
204.341995
 20
-48.258499
 11
215.341995
 21
-48.258499
  0
LINE
  8
0
  6
DASHED
 62
1
 10
235.341995
 20
-58.258499
 11
246.341995
 21
-58.258499
  0
LINE
  8
0
  6
DASHED
 62
4
 10
204.341995
 20
-58.258499
 11
215.341995
 21
-58.258499
  0
LINE
  8
0
  6
DASHED
 62
1
 10
235.341995
 20
-48.258499
 11
246.341995
 21
-48.258499
  0
LINE
  8
0
  6
CENTER
 62
1
 10
198.341995
 20
-53.258499
 11
252.341995
 21
-53.258499
  0
LINE
  8
0
  6
CONTINUOUS
 62
4
 10
203.742004
 20
-48.258499
 11
204.341995
 21
-48.258499
  0
LINE
  8
0
  6
CONTINUOUS
 62
4
 10
203.742004
 20
-58.258499
 11
204.341995
 21
-58.258499
  0
LINE
  8
0
  6
CONTINUOUS
 62
4
 10
249.341995
 20
-48.758499
 11
249.341995
 21
-57.758499
  0
LINE
  8
0
  6
CONTINUOUS
 62
4
 10
247.841995
 20
-48.258499
 11
247.841995
 21
-58.258499
  0
LINE
  8
0
  6
CONTINUOUS
 62
4
 10
246.942001
 20
-48.258499
 11
246.942001
 21
-58.258499
  0
LINE
  8
0
  6
CONTINUOUS
 62
4
 10
248.841995
 20
-48.258400
 11
249.341995
 21
-48.758400
  0
LINE
  8
0
  6
CONTINUOUS
 62
4
 10
249.341995
 20
-57.758400
 11
248.841995
 21
-58.258400
  0
LINE
  8
0
  6
CONTINUOUS
 62
4
 10
248.841995
 20
-48.258499
 11
248.841995
 21
-58.258499
  0
LINE
  8
0
  6
CONTINUOUS
 62
4
 10
247.841995
 20
-58.258499
 11
248.841995
 21
-58.258499
  0
LINE
  8
0
  6
CONTINUOUS
 62
4
 10
247.841995
 20
-48.258499
 11
248.841995
 21
-48.258499
  0
LINE
  8
0
  6
CONTINUOUS
 62
4
 10
203.742004
 20
-48.258499
 11
203.742004
 21
-58.258499
  0
LINE
  8
0
  6
CONTINUOUS
 62
4
 10
202.841995
 20
-48.258499
 11
202.841995
 21
-58.258499
  0
LINE
  8
0
  6
CONTINUOUS
 62
4
 10
201.841995
 20
-48.258499
 11
201.841995
 21
-58.258499
  0
LINE
  8
0
  6
CONTINUOUS
 62
4
 10
201.341995
 20
-48.758499
 11
201.341995
 21
-57.758499
  0
LINE
  8
0
  6
CONTINUOUS
 62
4
 10
202.841995
 20
-48.258499
 11
201.841995
 21
-48.258499
  0
LINE
  8
0
  6
CONTINUOUS
 62
4
 10
201.841995
 20
-48.258400
 11
201.341995
 21
-48.758400
  0
LINE
  8
0
  6
CONTINUOUS
 62
4
 10
202.841995
 20
-58.258499
 11
201.841995
 21
-58.258499
  0
LINE
  8
0
  6
CONTINUOUS
 62
4
 10
201.341995
 20
-57.758400
 11
201.841995
 21
-58.258400
  0
LINE
  8
0
  6
CONTINUOUS
 62
4
 10
215.341995
 20
-48.258499
 11
235.341995
 21
-48.258499
  0
LINE
  8
0
  6
CONTINUOUS
 62
4
 10
215.341995
 20
-58.258499
 11
235.341995
 21
-58.258499
  0
LINE
  8
0
  6
CONTINUOUS
 62
4
 10
246.341995
 20
-48.258499
 11
246.942001
 21
-48.258499
  0
LINE
  8
0
  6
CONTINUOUS
 62
4
 10
246.341995
 20
-58.258499
 11
246.942001
 21
-58.258499
  0
LINE
  8
0
  6
CONTINUOUS
 62
4
 10
202.841995
 20
-47.258499
 11
202.841995
 21
-59.258499
  0
LINE
  8
0
  6
CONTINUOUS
 62
4
 10
202.841995
 20
-47.258499
 11
203.742004
 21
-47.258499
  0
LINE
  8
0
  6
CONTINUOUS
 62
4
 10
203.742004
 20
-47.258499
 11
203.742004
 21
-59.258499
  0
LINE
  8
0
  6
CONTINUOUS
 62
4
 10
202.841995
 20
-59.258499
 11
203.742004
 21
-59.258499
  0
LINE
  8
0
  6
CONTINUOUS
 62
4
 10
246.942001
 20
-47.258499
 11
246.942001
 21
-59.258499
  0
LINE
  8
0
  6
CONTINUOUS
 62
4
 10
246.942001
 20
-47.258499
 11
247.841995
 21
-47.258499
  0
LINE
  8
0
  6
CONTINUOUS
 62
4
 10
247.841995
 20
-47.258499
 11
247.841995
 21
-59.258499
  0
LINE
  8
0
  6
CONTINUOUS
 62
4
 10
246.942001
 20
-59.258499
 11
247.841995
 21
-59.258499
  0
LINE
  8
0
  6
CONTINUOUS
 62
4
 10
244.341995
 20
-39.258499
 11
244.341995
 21
-84.258499
  0
CIRCLE
  8
0
  6
CONTINUOUS
 62
4
 10
-197.063995
 20
15.741500
 40
3.400000
  0
CIRCLE
  8
0
  6
CONTINUOUS
 62
4
 10
-242.063995
 20
15.741500
 40
3.400000
  0
ARC
  8
0
  6
CONTINUOUS
 62
4
 10
-191.063995
 20
20.741501
 40
1.000000
 50
0.000000
 51
90.000000
  0
ARC
  8
0
  6
CONTINUOUS
 62
4
 10
-191.063995
 20
10.741500
 40
1.000000
 50
270.000000
 51
0.000000
  0
ARC
  8
0
  6
CONTINUOUS
 62
4
 10
-248.063995
 20
20.741501
 40
1.000000
 50
90.000000
 51
180.000000
  0
ARC
  8
0
  6
CONTINUOUS
 62
4
 10
-248.063995
 20
10.741500
 40
1.000000
 50
180.000000
 51
270.000000
  0
CIRCLE
  8
0
  6
CONTINUOUS
 62
4
 10
-227.063995
 20
-53.258499
 40
4.000000
  0
ARC
  8
0
  6
CONTINUOUS
 62
4
 10
-227.063995
 20
-53.258499
 40
10.000000
 50
25.494101
 51
246.421997
  0
ARC
  8
0
  6
CONTINUOUS
 62
4
 10
-227.063995
 20
-53.258499
 40
5.000000
 50
0.000000
 51
255.000000
  0
ARC
  8
0
  6
CONTINUOUS
 62
4
 10
-227.063995
 20
-53.258499
 40
5.000000
 50
285.000000
 51
0.000000
  0
ARC
  8
0
  6
CONTINUOUS
 62
4
 10
-163.264008
 20
-80.258499
 40
3.000000
 50
180.000000
 51
270.000000
  0
ARC
  8
0
  6
CONTINUOUS
 62
4
 10
-150.863998
 20
-80.258499
 40
3.000000
 50
270.000000
 51
0.000000
  0
CIRCLE
  8
0
  6
CONTINUOUS
 62
4
 10
-3.707870
 20
17.483101
 40
4.500000
  0
ARC
  8
0
  6
CONTINUOUS
 62
4
 10
5.292130
 20
8.483080
 40
1.000000
 50
270.000000
 51
0.000000
  0
CIRCLE
  8
0
  6
CONTINUOUS
 62
4
 10
-58.707901
 20
17.483101
 40
4.500000
  0
ARC
  8
0
  6
CONTINUOUS
 62
4
 10
5.292130
 20
26.483101
 40
1.000000
 50
0.000000
 51
90.000000
  0
ARC
  8
0
  6
CONTINUOUS
 62
4
 10
-67.707901
 20
26.483101
 40
1.000000
 50
90.000000
 51
180.000000
  0
ARC
  8
0
  6
CONTINUOUS
 62
4
 10
-67.707901
 20
8.483080
 40
1.000000
 50
180.000000
 51
270.000000
  0
ARC
  8
0
  6
CONTINUOUS
 62
4
 10
-43.707901
 20
-53.258499
 40
13.000000
 50
24.763000
 51
247.380005
  0
ARC
  8
0
  6
CONTINUOUS
 62
4
 10
-43.707901
 20
-53.258499
 40
6.000000
 50
285.000000
 51
255.000000
  0
CIRCLE
  8
0
  6
CONTINUOUS
 62
4
 10
-43.707901
 20
-53.258499
 40
5.000000
  0
ARC
  8
0
  6
CONTINUOUS
 62
4
 10
50.292099
 20
-90.258499
 40
3.000000
 50
270.000000
 51
0.000000
  0
ARC
  8
0
  6
CONTINUOUS
 62
4
 10
28.292101
 20
-90.258499
 40
3.000000
 50
180.000000
 51
270.000000
  0
ARC
  8
0
  6
CONTINUOUS
 62
4
 10
132.341995
 20
15.741500
 40
5.500000
 50
111.323997
 51
248.675995
  0
CIRCLE
  8
0
  6
CONTINUOUS
 62
4
 10
167.341995
 20
15.741500
 40
5.500000
  0
ARC
  8
0
  6
DASHED
 62
1
 10
132.341995
 20
15.741500
 40
5.500000
 50
248.675995
 51
111.323997
  0
ARC
  8
0
  6
CONTINUOUS
 62
7
 10
135.341995
 20
-53.258499
 40
14.000000
 50
49.737801
 51
180.000000
  0
ARC
  8
0
  6
CONTINUOUS
 62
4
 10
135.341995
 20
-53.258499
 40
14.000000
 50
49.737801
 51
180.000000
  0
CIRCLE
  8
0
  6
CONTINUOUS
 62
4
 10
135.341995
 20
-53.258499
 40
5.000000
  0
ARC
  8
0
  6
CONTINUOUS
 62
4
 10
135.341995
 20
-53.258499
 40
6.000000
 50
285.000000
 51
255.000000
  0
CIRCLE
  8
0
  6
CONTINUOUS
 62
4
 10
135.341995
 20
-53.258499
 40
9.000000
  0
ARC
  8
0
  6
CONTINUOUS
 62
4
 10
214.341995
 20
-84.258499
 40
8.000000
 50
180.000000
 51
270.000000
  0
ARC
  8
0
  6
CONTINUOUS
 62
4
 10
214.341995
 20
-84.258499
 40
3.500000
 50
180.000000
 51
270.000000
  0
ARC
  8
0
  6
CONTINUOUS
 62
4
 10
236.341995
 20
-84.258499
 40
8.000000
 50
270.000000
 51
0.000000
  0
ARC
  8
0
  6
CONTINUOUS
 62
4
 10
236.341995
 20
-84.258499
 40
3.500000
 50
270.000000
 51
0.000000
  0
TEXT
  8
0
 62
7
 10
202.930283
 20
183.925003
 40
6.300000
  1
Ver.1.1
 50
0.000000
 41
1.010330
 51
0.000000
  7
STANDARD
  0
TEXT
  8
0
 62
7
 10
172.714691
 20
-187.250000
 40
9.000000
  1
KOGANEI CORP.
 50
0.000000
 41
0.771524
 51
0.000000
  7
STANDARD
  0
TEXT
  8
0
 62
7
 10
-253.340988
 20
103.366997
 40
6.300000
  1
BORE : 20,25
 50
0.000000
 41
0.872180
 51
0.000000
  7
STANDARD
  0
TEXT
  8
0
 62
7
 10
-65.565697
 20
103.366997
 40
6.300000
  1
BORE : 32,40
 50
0.000000
 41
0.857143
 51
0.000000
  7
STANDARD
  0
TEXT
  8
0
 62
7
 10
122.225998
 20
103.366997
 40
6.300000
  1
BORE : 50,63
 50
0.000000
 41
0.872180
 51
0.000000
  7
STANDARD
  0
TEXT
  8
0
 62
7
 10
-253.020004
 20
187.925003
 40
6.300000
  1
SLIM CLEVIS
 50
0.000000
 41
0.783251
 51
0.000000
  7
STANDARD
  0
TEXT
  8
0
 62
7
 10
-243.570007
 20
179.925003
 40
6.300000
  1
MOUNT,-7
 50
0.000000
 41
0.857143
 51
0.000000
  7
STANDARD
  0
ENDSEC
  0
EOF
