  0
SECTION
  2
HEADER
  9
$ACADVER
  1
AC1002
  9
$INSBASE
 10
0.0
 20
0.0
  9
$EXTMIN
 10
-185.4368
 20
-127.2792
  9
$EXTMAX
 10
185.4368
 20
127.2792
  9
$LIMMIN
 10
0.0
 20
0.0
  9
$LIMMAX
 10
12.0
 20
9.0
  9
$VIEWCTR
 10
14.30458208
 20
0.0
  9
$VIEWSIZE
 40
254.5584
  9
$SNAPMODE
 70
     0
  9
$SNAPUNIT
 10
1.0
 20
1.0
  9
$SNAPBASE
 10
0.0
 20
0.0
  9
$SNAPANG
 50
0.0
  9
$SNAPSTYLE
 70
     0
  9
$SNAPISOPAIR
 70
     0
  9
$GRIDMODE
 70
     0
  9
$GRIDUNIT
 10
0.0
 20
0.0
  9
$ORTHOMODE
 70
     0
  9
$REGENMODE
 70
     1
  9
$FILLMODE
 70
     1
  9
$QTEXTMODE
 70
     0
  9
$DRAGMODE
 70
     2
  9
$LTSCALE
 40
1.0
  9
$OSMODE
 70
     0
  9
$ATTMODE
 70
     1
  9
$TEXTSIZE
 40
0.2
  9
$TRACEWID
 40
0.05
  9
$TEXTSTYLE
  7
AAA
  9
$CLAYER
  8
0
  9
$CELTYPE
  6
BYLAYER
  9
$CECOLOR
 62
   256
  9
$DIMSCALE
 40
1.0
  9
$DIMASZ
 40
0.18
  9
$DIMEXO
 40
0.0625
  9
$DIMDLI
 40
0.38
  9
$DIMRND
 40
0.0
  9
$DIMDLE
 40
0.0
  9
$DIMEXE
 40
0.18
  9
$DIMTP
 40
0.0
  9
$DIMTM
 40
0.0
  9
$DIMTXT
 40
0.18
  9
$DIMCEN
 40
0.09
  9
$DIMTSZ
 40
0.0
  9
$DIMTOL
 70
     0
  9
$DIMLIM
 70
     0
  9
$DIMTIH
 70
     1
  9
$DIMTOH
 70
     1
  9
$DIMSE1
 70
     0
  9
$DIMSE2
 70
     0
  9
$DIMTAD
 70
     0
  9
$DIMZIN
 70
     0
  9
$DIMBLK
  1

  9
$LUNITS
 70
     2
  9
$LUPREC
 70
     4
  9
$AXISMODE
 70
     0
  9
$AXISUNIT
 10
0.0
 20
0.0
  9
$SKETCHINC
 40
0.1
  9
$FILLETRAD
 40
0.0
  9
$AUNITS
 70
     0
  9
$AUPREC
 70
     0
  9
$MENU
  1
ACAD
  9
$ELEVATION
 40
0.0
  9
$THICKNESS
 40
0.0
  9
$VIEWDIR
 10
0.0
 20
0.0
 30
1.0
  9
$LIMCHECK
 70
     0
  9
$BLIPMODE
 70
     1
  9
$CHAMFERA
 40
0.0
  9
$CHAMFERB
 40
0.0
  9
$FASTZOOM
 70
     1
  9
$SKPOLY
 70
     0
  9
$TDCREATE
 40
2447804.6257176417
  9
$TDUPDATE
 40
2447804.6257176417
  9
$TDINDWG
 40
0.0004629630
  9
$TDUSRTIMER
 40
0.0004629630
  9
$USRTIMER
 70
     1
  9
$ANGBASE
 50
0.0
  9
$ANGDIR
 70
     0
  9
$PDMODE
 70
     0
  9
$PDSIZE
 40
0.0
  9
$PLINEWID
 40
0.0
  9
$COORDS
 70
     0
  9
$USERI1
 70
     0
  9
$USERI2
 70
     0
  9
$USERI3
 70
     0
  9
$USERI4
 70
     0
  9
$USERI5
 70
     0
  9
$USERR1
 40
0.0
  9
$USERR2
 40
0.0
  9
$USERR3
 40
0.0
  9
$USERR4
 40
0.0
  9
$USERR5
 40
0.0
  0
ENDSEC
  0
SECTION
  2
TABLES
  0
TABLE
  2
LTYPE
 70
     5
  0
LTYPE
  2
CONTINUOUS
 70
    64
  3
SOLID
 72
    65
 73
     0
 40
0.0
  0
LTYPE
  2
DASHED
 70
    64
  3
DASHED
 72
    65
 73
     2
 40
0.75
 49
0.5
 49
-0.25
  0
LTYPE
  2
CENTER
 70
    64
  3
CENTER
 72
    65
 73
     4
 40
2.0
 49
1.25
 49
-0.25
 49
0.25
 49
-0.25
  0
LTYPE
  2
PHANTOM
 70
    64
  3
PHANTOM
 72
    65
 73
     6
 40
2.5
 49
1.25
 49
-0.25
 49
0.25
 49
-0.25
 49
0.25
 49
-0.25
  0
ENDTAB
  0
TABLE
  2
LAYER
 70
     1
  0
LAYER
  2
0
 70
    64
 62
     7
  6
CONTINUOUS
  0
ENDTAB
  0
TABLE
  2
STYLE
 70
     2
  0
STYLE
  2
AAA
 70
     0
 40
0.0
 41
1.0
 50
0.0
 71
     0
 42
0.2
  3
TXT
  4

  0
STYLE
  2
STANDARD
 70
    64
 40
0.0
 41
1.0
 50
0.0
 71
     0
 42
0.2
  3
TXT
  4
BIGFONT
  0
ENDTAB
  0
TABLE
  2
VIEW
 70
     0
  0
ENDTAB
  0
ENDSEC
  0
SECTION
  2
BLOCKS
  0
ENDSEC
  0
SECTION
  2
ENTITIES
  0
POINT
  8
0
  6
CONTINUOUS
 62
     7
 10
-45.5
 20
-52.5
  0
POINT
  8
0
  6
CONTINUOUS
 62
     7
 10
65.5
 20
-52.5
  0
POINT
  8
0
  6
CONTINUOUS
 62
     7
 10
65.5
 20
-52.5
  0
POINT
  8
0
  6
CONTINUOUS
 62
     7
 10
-45.5
 20
42.5
  0
LINE
  8
0
  6
CENTER
 62
     2
 10
-57.5
 20
52.0
 11
-57.5
 21
33.0
  0
LINE
  8
0
  6
CENTER
 62
     2
 10
-82.37085
 20
42.5
 11
-15.5
 21
42.5
  0
LINE
  8
0
  6
PHANTOM
 62
     2
 10
-70.5
 20
9.80001
 11
-70.5
 21
75.19998
  0
LINE
  8
0
  6
PHANTOM
 62
     2
 10
-45.5
 20
11.3
 11
-45.5
 21
73.69998
  0
LINE
  8
0
  6
PHANTOM
 62
     2
 10
-68.5
 20
75.19998
 11
-68.5
 21
9.80001
  0
LINE
  8
0
  6
PHANTOM
 62
     2
 10
-47.0
 20
75.19998
 11
-79.37085
 21
75.19998
  0
LINE
  8
0
  6
PHANTOM
 62
     2
 10
-52.52034
 20
-55.37498
 11
-52.52034
 21
-49.62498
  0
LINE
  8
0
  6
CENTER
 62
     2
 10
-82.37085
 20
-52.5
 11
-15.5
 21
-52.5
  0
LINE
  8
0
  6
PHANTOM
 62
     2
 10
-79.37085
 20
-19.8
 11
-47.0
 21
-19.8
  0
LINE
  8
0
  6
PHANTOM
 62
     2
 10
-62.47964
 20
-55.375
 11
-57.49997
 21
-58.25
  0
LINE
  8
0
  6
PHANTOM
 62
     2
 10
-60.45804
 20
-53.0
 11
-54.54195
 21
-53.0
  0
LINE
  8
0
  6
PHANTOM
 62
     2
 10
-57.49996
 20
-58.25001
 11
-52.52032
 21
-55.37499
  0
LINE
  8
0
  6
PHANTOM
 62
     2
 10
-45.5
 20
-21.29998
 11
-45.5
 21
-83.69994
  0
LINE
  8
0
  6
PHANTOM
 62
     2
 10
-47.00002
 20
-19.79997
 11
-45.50002
 21
-21.29997
  0
LINE
  8
0
  6
CENTER
 62
     2
 10
-57.5
 20
-42.5
 11
-57.5
 21
-62.5
  0
LINE
  8
0
  6
PHANTOM
 62
     2
 10
-70.5
 20
-85.2
 11
-70.5
 21
-19.8
  0
LINE
  8
0
  6
PHANTOM
 62
     2
 10
-68.5
 20
-85.2
 11
-68.5
 21
-19.8
  0
LINE
  8
0
  6
PHANTOM
 62
     2
 10
-62.47964
 20
-49.625
 11
-62.47964
 21
-55.375
  0
LINE
  8
0
  6
PHANTOM
 62
     2
 10
-57.50002
 20
-46.74999
 11
-62.47966
 21
-49.625
  0
LINE
  8
0
  6
PHANTOM
 62
     2
 10
-60.45804
 20
-52.0
 11
-54.54195
 21
-52.0
  0
LINE
  8
0
  6
CENTER
 62
     2
 10
-57.5
 20
-16.8
 11
-57.5
 21
-31.8
  0
LINE
  8
0
  6
PHANTOM
 62
     2
 10
-52.52031
 20
-49.62498
 11
-57.49996
 21
-46.74998
  0
LINE
  8
0
  6
PHANTOM
 62
     2
 10
-47.0
 20
75.2
 11
-45.50001
 21
73.7
  0
LINE
  8
0
  6
CONTINUOUS
 62
     7
 10
-44.5
 20
24.5
 11
-45.5
 21
24.5
  0
LINE
  8
0
  6
CENTER
 62
     2
 10
-30.5
 20
55.5
 11
-30.5
 21
29.5
  0
LINE
  8
0
  6
CONTINUOUS
 62
     7
 10
-18.5
 20
32.5
 11
-18.5
 21
52.5
  0
LINE
  8
0
  6
CONTINUOUS
 62
     7
 10
-44.5
 20
60.5
 11
-44.5
 21
24.5
  0
LINE
  8
0
  6
CONTINUOUS
 62
     7
 10
-44.5
 20
52.5
 11
-18.5
 21
52.5
  0
LINE
  8
0
  6
CONTINUOUS
 62
     7
 10
-44.5
 20
32.5
 11
-18.5
 21
32.5
  0
LINE
  8
0
  6
DASHED
 62
     7
 10
-25.5
 20
52.5
 11
-25.5
 21
32.5
  0
LINE
  8
0
  6
DASHED
 62
     7
 10
-35.5
 20
52.5
 11
-35.5
 21
32.5
  0
LINE
  8
0
  6
CONTINUOUS
 62
     7
 10
-45.5
 20
60.5
 11
-44.5
 21
60.5
  0
LINE
  8
0
  6
PHANTOM
 62
     2
 10
-57.49998
 20
5.3
 11
-57.49998
 21
9.3
  0
LINE
  8
0
  6
CONTINUOUS
 62
     7
 10
-45.5
 20
-34.5
 11
-30.5
 21
-34.5
  0
LINE
  8
0
  6
CONTINUOUS
 62
     7
 10
-18.5
 20
-52.5
 11
-18.5
 21
-39.08359
  0
LINE
  8
0
  6
CONTINUOUS
 62
     7
 10
-30.5
 20
-70.5
 11
-45.5
 21
-70.5
  0
LINE
  8
0
  6
CONTINUOUS
 62
     7
 10
-18.5
 20
-65.9164
 11
-18.5
 21
-52.5
  0
LINE
  8
0
  6
CENTER
 62
     2
 10
-30.5
 20
-31.5
 11
-30.5
 21
-73.5
  0
LINE
  8
0
  6
CONTINUOUS
 62
     7
 10
-30.5
 20
-67.46663
 11
-44.5
 21
-67.46661
  0
LINE
  8
0
  6
CONTINUOUS
 62
     7
 10
-30.5
 20
-37.53336
 11
-44.49999
 21
-37.53335
  0
LINE
  8
0
  6
CONTINUOUS
 62
     7
 10
-44.5
 20
-37.53334
 11
-44.5
 21
-67.46661
  0
LINE
  8
0
  6
CONTINUOUS
 62
     7
 10
55.5
 20
-37.53336
 11
55.5
 21
-67.46663
  0
LINE
  8
0
  6
CONTINUOUS
 62
     7
 10
75.5
 20
-37.53336
 11
75.5
 21
-67.46663
  0
LINE
  8
0
  6
CENTER
 62
     2
 10
-57.49998
 20
0.29998
 11
-57.49998
 21
20.97939
  0
LINE
  8
0
  6
PHANTOM
 62
     2
 10
-54.99998
 20
3.29998
 11
-59.99998
 21
3.29998
  0
LINE
  8
0
  6
PHANTOM
 62
     2
 10
-59.99998
 20
5.29998
 11
-59.99998
 21
3.29998
  0
LINE
  8
0
  6
PHANTOM
 62
     2
 10
-60.49998
 20
5.31895
 11
-60.49998
 21
3.79998
  0
LINE
  8
0
  6
PHANTOM
 62
     2
 10
-54.99998
 20
5.29998
 11
-54.99998
 21
3.29998
  0
LINE
  8
0
  6
PHANTOM
 62
     2
 10
-54.49998
 20
5.31895
 11
-54.49998
 21
3.79998
  0
LINE
  8
0
  6
PHANTOM
 62
     2
 10
-62.47965
 20
9.29998
 11
-62.47965
 21
5.73999
  0
LINE
  8
0
  6
PHANTOM
 62
     2
 10
-52.52035
 20
9.29998
 11
-52.52035
 21
5.73999
  0
LINE
  8
0
  6
PHANTOM
 62
     2
 10
-63.74998
 20
9.79998
 11
-63.74998
 21
9.29998
  0
LINE
  8
0
  6
PHANTOM
 62
     2
 10
-51.24998
 20
9.79998
 11
-51.24998
 21
9.29998
  0
LINE
  8
0
  6
PHANTOM
 62
     2
 10
-60.49998
 20
3.79996
 11
-59.99998
 21
3.29997
  0
LINE
  8
0
  6
PHANTOM
 62
     2
 10
-55.0
 20
3.29998
 11
-54.5
 21
3.79999
  0
LINE
  8
0
  6
PHANTOM
 62
     2
 10
-60.49998
 20
3.79998
 11
-54.49998
 21
3.79998
  0
LINE
  8
0
  6
PHANTOM
 62
     2
 10
-51.24998
 20
9.29998
 11
-63.74998
 21
9.29998
  0
LINE
  8
0
  6
PHANTOM
 62
     2
 10
-55.01016
 20
5.29998
 11
-59.98981
 21
5.29998
  0
LINE
  8
0
  6
PHANTOM
 62
     2
 10
-57.50002
 20
5.29998
 11
-57.50004
 21
9.29998
  0
LINE
  8
0
  6
PHANTOM
 62
     2
 10
-57.49998
 20
9.29998
 11
-57.49998
 21
5.73999
  0
LINE
  8
0
  6
PHANTOM
 62
     2
 10
-47.00005
 20
-85.2
 11
-79.37085
 21
-85.2
  0
LINE
  8
0
  6
PHANTOM
 62
     2
 10
-45.50006
 20
-83.69998
 11
-47.00007
 21
-85.2
  0
LINE
  8
0
  6
PHANTOM
 62
     2
 10
-79.37085
 20
9.80001
 11
-47.0
 21
9.80001
  0
LINE
  8
0
  6
PHANTOM
 62
     2
 10
-47.00002
 20
9.80001
 11
-45.50001
 21
11.30001
  0
LINE
  8
0
  6
CENTER
 62
     2
 10
65.5
 20
-88.2
 11
65.5
 21
-16.8
  0
LINE
  8
0
  6
CENTER
 62
     2
 10
101.2
 20
-52.5
 11
23.3
 21
-52.5
  0
LINE
  8
0
  6
PHANTOM
 62
     2
 10
33.55802
 20
-59.5
 11
32.29997
 21
-59.5
  0
LINE
  8
0
  6
PHANTOM
 62
     2
 10
33.55802
 20
-45.5
 11
32.29997
 21
-45.5
  0
LINE
  8
0
  6
PHANTOM
 62
     2
 10
32.29997
 20
-59.5
 11
32.29997
 21
-45.5
  0
LINE
  8
0
  6
PHANTOM
 62
     2
 10
32.29997
 20
-58.25002
 11
28.7447
 21
-58.25002
  0
LINE
  8
0
  6
PHANTOM
 62
     2
 10
32.29997
 20
-46.75002
 11
28.74473
 21
-46.75002
  0
LINE
  8
0
  6
PHANTOM
 62
     2
 10
28.29997
 20
-55.5
 11
26.79997
 21
-55.5
  0
LINE
  8
0
  6
PHANTOM
 62
     2
 10
28.29997
 20
-55.0
 11
26.3
 21
-55.0
  0
LINE
  8
0
  6
PHANTOM
 62
     2
 10
28.29997
 20
-50.0
 11
26.3
 21
-50.0
  0
LINE
  8
0
  6
PHANTOM
 62
     2
 10
28.29997
 20
-49.5
 11
26.8
 21
-49.5
  0
LINE
  8
0
  6
PHANTOM
 62
     2
 10
27.8
 20
-53.0
 11
26.3
 21
-53.0
  0
LINE
  8
0
  6
PHANTOM
 62
     2
 10
27.8
 20
-52.0
 11
26.3
 21
-52.0
  0
LINE
  8
0
  6
PHANTOM
 62
     2
 10
26.3
 20
-55.0
 11
26.3
 21
-53.0
  0
LINE
  8
0
  6
PHANTOM
 62
     2
 10
26.3
 20
-52.0
 11
26.3
 21
-50.0
  0
LINE
  8
0
  6
PHANTOM
 62
     2
 10
26.8
 20
-49.50002
 11
26.29995
 21
-50.00006
  0
LINE
  8
0
  6
PHANTOM
 62
     2
 10
26.79995
 20
-55.49997
 11
26.29994
 21
-54.99998
  0
LINE
  8
0
  6
PHANTOM
 62
     2
 10
27.8
 20
-53.0
 11
27.8
 21
-52.0
  0
LINE
  8
0
  6
PHANTOM
 62
     2
 10
26.79997
 20
-55.50001
 11
26.79997
 21
-53.00001
  0
LINE
  8
0
  6
PHANTOM
 62
     2
 10
26.8
 20
-49.50002
 11
26.8
 21
-52.00002
  0
LINE
  8
0
  6
PHANTOM
 62
     2
 10
28.29997
 20
-57.47966
 11
28.29997
 21
-47.52036
  0
LINE
  8
0
  6
PHANTOM
 62
     2
 10
28.29996
 20
-47.52035
 11
28.74473
 21
-46.75001
  0
LINE
  8
0
  6
PHANTOM
 62
     2
 10
28.29997
 20
-57.47968
 11
28.74474
 21
-58.25004
  0
LINE
  8
0
  6
PHANTOM
 62
     2
 10
32.29997
 20
-55.37502
 11
28.74473
 21
-55.37502
  0
LINE
  8
0
  6
PHANTOM
 62
     2
 10
32.29997
 20
-49.62502
 11
28.74473
 21
-49.62502
  0
LINE
  8
0
  6
CONTINUOUS
 62
     7
 10
-185.4368
 20
-127.2792
 11
-185.4368
 21
127.2792
  0
LINE
  8
0
  6
CONTINUOUS
 62
     7
 10
185.4368
 20
127.2792
 11
185.4368
 21
-127.2792
  0
LINE
  8
0
  6
CONTINUOUS
 62
     7
 10
-185.4368
 20
-127.2792
 11
185.4368
 21
-127.2792
  0
LINE
  8
0
  6
CONTINUOUS
 62
     7
 10
-185.4368
 20
127.2792
 11
185.4368
 21
127.2792
  0
LINE
  8
0
  6
CONTINUOUS
 62
     7
 10
-185.4368
 20
112.9782
 11
-79.37077
 21
112.9782
  0
LINE
  8
0
  6
CONTINUOUS
 62
     7
 10
-79.37077
 20
112.9782
 11
-79.37077
 21
127.2792
  0
LINE
  8
0
  6
CONTINUOUS
 62
     7
 10
109.1646
 20
-112.9782
 11
185.4368
 21
-112.9782
  0
LINE
  8
0
  6
CONTINUOUS
 62
     7
 10
129.1908
 20
-116.4169
 11
136.5177
 21
-116.4169
  0
LINE
  8
0
  6
CONTINUOUS
 62
     7
 10
129.1908
 20
-122.9143
 11
135.4118
 21
-122.9143
  0
LINE
  8
0
  6
CONTINUOUS
 62
     7
 10
129.1908
 20
-124.5732
 11
137.6237
 21
-124.5732
  0
LINE
  8
0
  6
CONTINUOUS
 62
     7
 10
129.1908
 20
-118.0758
 11
135.4118
 21
-118.0758
  0
LINE
  8
0
  6
CONTINUOUS
 62
     7
 10
129.1908
 20
-116.4169
 11
129.1908
 21
-118.0758
  0
LINE
  8
0
  6
CONTINUOUS
 62
     7
 10
137.6237
 20
-117.5228
 11
137.6237
 21
-124.5732
  0
LINE
  8
0
  6
CONTINUOUS
 62
     7
 10
135.4118
 20
-118.0758
 11
135.4118
 21
-122.9143
  0
LINE
  8
0
  6
CONTINUOUS
 62
     7
 10
138.8678
 20
-116.4169
 11
138.8678
 21
-118.0758
  0
LINE
  8
0
  6
CONTINUOUS
 62
     7
 10
146.7477
 20
-118.0758
 11
146.7477
 21
-123.4673
  0
LINE
  8
0
  6
CONTINUOUS
 62
     7
 10
144.5358
 20
-118.0758
 11
144.5358
 21
-122.9143
  0
LINE
  8
0
  6
CONTINUOUS
 62
     7
 10
129.1908
 20
-122.9143
 11
129.1908
 21
-124.5732
  0
LINE
  8
0
  6
CONTINUOUS
 62
     7
 10
138.8678
 20
-116.4169
 11
141.0533
 21
-116.4169
  0
LINE
  8
0
  6
CONTINUOUS
 62
     7
 10
138.8678
 20
-124.5732
 11
140.5853
 21
-124.5732
  0
LINE
  8
0
  6
CONTINUOUS
 62
     7
 10
138.8677
 20
-124.5732
 11
140.6088
 21
-118.0757
  0
LINE
  8
0
  6
CONTINUOUS
 62
     7
 10
138.8678
 20
-118.0758
 11
140.6088
 21
-118.0758
  0
LINE
  8
0
  6
CONTINUOUS
 62
     7
 10
140.5854
 20
-124.5734
 11
142.3264
 21
-118.0759
  0
LINE
  8
0
  6
CONTINUOUS
 62
     7
 10
142.8769
 20
-122.9143
 11
144.5358
 21
-122.9143
  0
LINE
  8
0
  6
CONTINUOUS
 62
     7
 10
142.8769
 20
-122.9143
 11
143.3214
 21
-124.5732
  0
LINE
  8
0
  6
CONTINUOUS
 62
     7
 10
143.3214
 20
-124.5732
 11
145.6418
 21
-124.5732
  0
LINE
  8
0
  6
CONTINUOUS
 62
     7
 10
142.3263
 20
-118.0758
 11
144.5358
 21
-118.0758
  0
LINE
  8
0
  6
CONTINUOUS
 62
     7
 10
142.7708
 20
-116.4169
 11
145.0888
 21
-116.4169
  0
LINE
  8
0
  6
CONTINUOUS
 62
     7
 10
141.0534
 20
-116.4169
 11
141.383
 21
-115.1865
  0
LINE
  8
0
  6
CONTINUOUS
 62
     7
 10
142.7707
 20
-116.4168
 11
143.1003
 21
-115.1864
  0
LINE
  8
0
  6
CONTINUOUS
 62
     7
 10
148.1301
 20
-116.4169
 11
150.7568
 21
-116.4169
  0
LINE
  8
0
  6
CONTINUOUS
 62
     7
 10
148.1301
 20
-118.0758
 11
154.581
 21
-118.0758
  0
LINE
  8
0
  6
CONTINUOUS
 62
     7
 10
150.7568
 20
-124.5732
 11
152.9686
 21
-124.5732
  0
LINE
  8
0
  6
CONTINUOUS
 62
     7
 10
148.1301
 20
-116.4169
 11
148.1301
 21
-118.0758
  0
LINE
  8
0
  6
CONTINUOUS
 62
     7
 10
156.2865
 20
-121.0839
 11
156.2865
 21
-122.9143
  0
LINE
  8
0
  6
CONTINUOUS
 62
     7
 10
148.13
 20
-122.9143
 11
150.7567
 21
-121.6894
  0
LINE
  8
0
  6
CONTINUOUS
 62
     7
 10
148.1303
 20
-121.0841
 11
154.5812
 21
-118.0759
  0
LINE
  8
0
  6
CONTINUOUS
 62
     7
 10
148.1301
 20
-121.0839
 11
148.1301
 21
-122.9143
  0
LINE
  8
0
  6
CONTINUOUS
 62
     7
 10
152.9686
 20
-121.3671
 11
156.2865
 21
-122.9143
  0
LINE
  8
0
  6
CONTINUOUS
 62
     7
 10
154.1712
 20
-120.0975
 11
156.2867
 21
-121.084
  0
LINE
  8
0
  6
CONTINUOUS
 62
     7
 10
156.2865
 20
-117.5228
 11
156.2865
 21
-118.4064
  0
LINE
  8
0
  6
CONTINUOUS
 62
     7
 10
150.7568
 20
-115.1865
 11
150.7568
 21
-116.4169
  0
LINE
  8
0
  6
CONTINUOUS
 62
     7
 10
152.9686
 20
-115.1865
 11
152.9686
 21
-116.4169
  0
LINE
  8
0
  6
CONTINUOUS
 62
     7
 10
152.9686
 20
-116.4169
 11
155.1806
 21
-116.4169
  0
LINE
  8
0
  6
CONTINUOUS
 62
     7
 10
150.7568
 20
-121.6895
 11
150.7568
 21
-124.5732
  0
LINE
  8
0
  6
CONTINUOUS
 62
     7
 10
152.9686
 20
-121.3672
 11
152.9686
 21
-124.5732
  0
LINE
  8
0
  6
CONTINUOUS
 62
     7
 10
154.1712
 20
-120.0975
 11
155.6481
 21
-119.4088
  0
LINE
  8
0
  6
CONTINUOUS
 62
     7
 10
163.7517
 20
-115.6842
 11
165.4106
 21
-115.6842
  0
LINE
  8
0
  6
CONTINUOUS
 62
     7
 10
156.9777
 20
-119.1109
 11
156.9777
 21
-120.8962
  0
LINE
  8
0
  6
CONTINUOUS
 62
     7
 10
165.4106
 20
-115.6842
 11
165.4106
 21
-116.4169
  0
LINE
  8
0
  6
CONTINUOUS
 62
     7
 10
163.7517
 20
-115.6842
 11
163.7517
 21
-116.0417
  0
LINE
  8
0
  6
CONTINUOUS
 62
     7
 10
161.5397
 20
-119.0819
 11
161.5397
 21
-124.5732
  0
LINE
  8
0
  6
CONTINUOUS
 62
     7
 10
156.9778
 20
-119.111
 11
163.4031
 21
-116.5556
  0
LINE
  8
0
  6
CONTINUOUS
 62
     7
 10
156.9778
 20
-120.8963
 11
161.5398
 21
-119.0819
  0
LINE
  8
0
  6
CONTINUOUS
 62
     7
 10
161.5397
 20
-124.5732
 11
163.7517
 21
-124.5732
  0
LINE
  8
0
  6
CONTINUOUS
 62
     7
 10
163.7517
 20
-118.2022
 11
163.7517
 21
-124.5732
  0
LINE
  8
0
  6
CONTINUOUS
 62
     7
 10
163.7518
 20
-118.2023
 11
164.3649
 21
-117.9584
  0
LINE
  8
0
  6
CONTINUOUS
 62
     7
 10
141.2497
 20
-115.1865
 11
143.1004
 21
-115.1865
  0
LINE
  8
0
  6
CONTINUOUS
 62
     7
 10
145.8491
 20
-115.1865
 11
146.5541
 21
-115.1865
  0
LINE
  8
0
  6
CONTINUOUS
 62
     7
 10
150.7568
 20
-115.1865
 11
152.9686
 21
-115.1865
  0
LINE
  8
0
  6
CONTINUOUS
 62
     7
 10
145.8491
 20
-116.2925
 11
146.5541
 21
-116.2925
  0
LINE
  8
0
  6
CONTINUOUS
 62
     7
 10
145.8491
 20
-115.1865
 11
145.8491
 21
-116.2925
  0
LINE
  8
0
  6
CONTINUOUS
 62
     7
 10
146.5541
 20
-115.1865
 11
146.5541
 21
-116.2925
  0
LINE
  8
0
  6
CONTINUOUS
 62
     7
 10
146.9689
 20
-115.1865
 11
146.9689
 21
-116.2925
  0
LINE
  8
0
  6
CONTINUOUS
 62
     7
 10
147.7569
 20
-115.1865
 11
147.7569
 21
-116.2925
  0
LINE
  8
0
  6
CONTINUOUS
 62
     7
 10
146.9689
 20
-115.1865
 11
147.7569
 21
-115.1865
  0
LINE
  8
0
  6
CONTINUOUS
 62
     7
 10
146.9689
 20
-116.2925
 11
147.7569
 21
-116.2925
  0
LINE
  8
0
  6
CONTINUOUS
 62
     7
 10
109.1646
 20
112.9782
 11
185.4368
 21
112.9782
  0
LINE
  8
0
  6
CONTINUOUS
 62
     7
 10
109.1646
 20
127.2792
 11
109.1646
 21
112.9782
  0
LINE
  8
0
  6
CONTINUOUS
 62
     7
 10
109.1646
 20
-112.9782
 11
109.1646
 21
-127.2792
  0
CIRCLE
  8
0
  6
PHANTOM
 62
     2
 10
-57.5
 20
42.5
 40
6.5
  0
CIRCLE
  8
0
  6
PHANTOM
 62
     2
 10
-57.5
 20
42.5
 40
4.6
  0
CIRCLE
  8
0
  6
PHANTOM
 62
     2
 10
-57.5
 20
-52.5
 40
7.0
  0
CIRCLE
  8
0
  6
PHANTOM
 62
     2
 10
-57.5
 20
-52.5
 40
2.5
  0
CIRCLE
  8
0
  6
PHANTOM
 62
     2
 10
-57.5
 20
-52.5
 40
3.0
  0
CIRCLE
  8
0
  6
PHANTOM
 62
     2
 10
-57.49998
 20
-52.5
 40
4.97965
  0
CIRCLE
  8
0
  6
PHANTOM
 62
     2
 10
-57.5
 20
-52.5
 40
6.25
  0
CIRCLE
  8
0
  6
CONTINUOUS
 62
     7
 10
65.5
 20
-52.5
 40
18.0
  0
CIRCLE
  8
0
  6
CONTINUOUS
 62
     7
 10
-30.5
 20
-52.5
 40
5.0
  0
ARC
  8
0
  6
CONTINUOUS
 62
     7
 10
-30.5
 20
-52.5
 40
18.0
 50
48.18969
 51
89.99998
  0
ARC
  8
0
  6
CONTINUOUS
 62
     7
 10
-30.5
 20
-52.5
 40
18.0
 50
270.0001
 51
311.8103
  0
ARC
  8
0
  6
CONTINUOUS
 62
     7
 10
-30.5
 20
-52.5
 40
14.96664
 50
36.69928
 51
89.99998
  0
ARC
  8
0
  6
CONTINUOUS
 62
     7
 10
-30.5
 20
-52.5
 40
14.96664
 50
270.0
 51
323.3007
  0
ARC
  8
0
  6
CONTINUOUS
 62
     7
 10
65.5
 20
-52.5
 40
13.41641
 50
41.81034
 51
138.1896
  0
ARC
  8
0
  6
CONTINUOUS
 62
     7
 10
65.5
 20
-52.5
 40
13.41641
 50
221.8103
 51
318.1897
  0
CIRCLE
  8
0
  6
PHANTOM
 62
     2
 10
65.5
 20
-52.5
 40
32.7
  0
ARC
  8
0
  6
PHANTOM
 62
     2
 10
30.84547
 20
-56.81252
 40
2.54549
 50
145.6166
 51
214.3833
  0
ARC
  8
0
  6
PHANTOM
 62
     2
 10
37.81483
 20
-52.50002
 40
9.51486
 50
162.4126
 51
197.5873
  0
ARC
  8
0
  6
PHANTOM
 62
     2
 10
30.84547
 20
-48.18748
 40
2.54549
 50
145.6166
 51
214.3833
  0
CIRCLE
  8
0
  6
PHANTOM
 62
     2
 10
65.5
 20
-52.5
 40
31.2
  0
ARC
  8
0
  6
CONTINUOUS
 62
     7
 10
136.5177
 20
-117.5228
 40
1.10594
 50
0.0
 51
89.99999
  0
ARC
  8
0
  6
CONTINUOUS
 62
     7
 10
145.6418
 20
-123.4673
 40
1.10595
 50
270.0
 51
0.0
  0
ARC
  8
0
  6
CONTINUOUS
 62
     7
 10
145.0888
 20
-118.0758
 40
1.65892
 50
0.0
 51
89.99999
  0
ARC
  8
0
  6
CONTINUOUS
 62
     7
 10
155.1806
 20
-117.5228
 40
1.10594
 50
0.0
 51
89.99999
  0
ARC
  8
0
  6
CONTINUOUS
 62
     7
 10
155.1806
 20
-118.4064
 40
1.10595
 50
295.0
 51
0.0
  0
ARC
  8
0
  6
CONTINUOUS
 62
     7
 10
163.7517
 20
-116.4169
 40
1.65892
 50
291.6884
 51
0.0
  0
ARC
  8
0
  6
CONTINUOUS
 62
     7
 10
163.1987
 20
-116.0417
 40
0.55297
 50
291.689
 51
0.0
  0
ARC
  8
0
  6
PHANTOM
 62
     2
 10
-59.98981
 20
12.56461
 40
7.26462
 50
249.9564
 51
290.0436
  0
ARC
  8
0
  6
PHANTOM
 62
     2
 10
-55.01016
 20
12.56447
 40
7.26449
 50
249.9562
 51
290.0438
  0
TEXT
  8
0
  6
CONTINUOUS
 62
     7
 10
114.5353
 20
118.1347
 40
4.24264
  1
DATE : MAR ,1987
 41
0.8
  7
STANDARD
  0
TEXT
  8
0
  6
CONTINUOUS
 62
     7
 10
-162.1176
 20
90.25626
 40
5.0
  1
BORE : 50,63
 41
0.8
  7
STANDARD
  0
TEXT
  8
0
  6
CONTINUOUS
 62
     7
 10
-181.5681
 20
117.7787
 40
5.0
  1
SLIM CLEVIS HEAD , C
 41
0.8
  7
STANDARD
  0
ENDSEC
  0
EOF
