  0
SECTION
  2
HEADER
  9
$ACADVER
  1
AC1002
  9
$INSBASE
 10
0.0
 20
0.0
  9
$EXTMIN
 10
-262.2472
 20
-180.0
  9
$EXTMAX
 10
262.2472
 20
180.0
  9
$LIMMIN
 10
0.0
 20
0.0
  9
$LIMMAX
 10
12.0
 20
9.0
  9
$VIEWCTR
 10
20.22981726
 20
0.0
  9
$VIEWSIZE
 40
360.0
  9
$SNAPMODE
 70
     0
  9
$SNAPUNIT
 10
1.0
 20
1.0
  9
$SNAPBASE
 10
0.0
 20
0.0
  9
$SNAPANG
 50
0.0
  9
$SNAPSTYLE
 70
     0
  9
$SNAPISOPAIR
 70
     0
  9
$GRIDMODE
 70
     0
  9
$GRIDUNIT
 10
0.0
 20
0.0
  9
$ORTHOMODE
 70
     0
  9
$REGENMODE
 70
     1
  9
$FILLMODE
 70
     1
  9
$QTEXTMODE
 70
     0
  9
$DRAGMODE
 70
     2
  9
$LTSCALE
 40
1.0
  9
$OSMODE
 70
     0
  9
$ATTMODE
 70
     1
  9
$TEXTSIZE
 40
0.2
  9
$TRACEWID
 40
0.05
  9
$TEXTSTYLE
  7
AAA
  9
$CLAYER
  8
0
  9
$CELTYPE
  6
BYLAYER
  9
$CECOLOR
 62
   256
  9
$DIMSCALE
 40
1.0
  9
$DIMASZ
 40
0.18
  9
$DIMEXO
 40
0.0625
  9
$DIMDLI
 40
0.38
  9
$DIMRND
 40
0.0
  9
$DIMDLE
 40
0.0
  9
$DIMEXE
 40
0.18
  9
$DIMTP
 40
0.0
  9
$DIMTM
 40
0.0
  9
$DIMTXT
 40
0.18
  9
$DIMCEN
 40
0.09
  9
$DIMTSZ
 40
0.0
  9
$DIMTOL
 70
     0
  9
$DIMLIM
 70
     0
  9
$DIMTIH
 70
     1
  9
$DIMTOH
 70
     1
  9
$DIMSE1
 70
     0
  9
$DIMSE2
 70
     0
  9
$DIMTAD
 70
     0
  9
$DIMZIN
 70
     0
  9
$DIMBLK
  1

  9
$LUNITS
 70
     2
  9
$LUPREC
 70
     4
  9
$AXISMODE
 70
     0
  9
$AXISUNIT
 10
0.0
 20
0.0
  9
$SKETCHINC
 40
0.1
  9
$FILLETRAD
 40
0.0
  9
$AUNITS
 70
     0
  9
$AUPREC
 70
     0
  9
$MENU
  1
ACAD
  9
$ELEVATION
 40
0.0
  9
$THICKNESS
 40
0.0
  9
$VIEWDIR
 10
0.0
 20
0.0
 30
1.0
  9
$LIMCHECK
 70
     0
  9
$BLIPMODE
 70
     1
  9
$CHAMFERA
 40
0.0
  9
$CHAMFERB
 40
0.0
  9
$FASTZOOM
 70
     1
  9
$SKPOLY
 70
     0
  9
$TDCREATE
 40
2447816.7995255124
  9
$TDUPDATE
 40
2447816.7995255124
  9
$TDINDWG
 40
0.0031018519
  9
$TDUSRTIMER
 40
0.0031018519
  9
$USRTIMER
 70
     1
  9
$ANGBASE
 50
0.0
  9
$ANGDIR
 70
     0
  9
$PDMODE
 70
     0
  9
$PDSIZE
 40
0.0
  9
$PLINEWID
 40
0.0
  9
$COORDS
 70
     0
  9
$USERI1
 70
     0
  9
$USERI2
 70
     0
  9
$USERI3
 70
     0
  9
$USERI4
 70
     0
  9
$USERI5
 70
     0
  9
$USERR1
 40
0.0
  9
$USERR2
 40
0.0
  9
$USERR3
 40
0.0
  9
$USERR4
 40
0.0
  9
$USERR5
 40
0.0
  0
ENDSEC
  0
SECTION
  2
TABLES
  0
TABLE
  2
LTYPE
 70
     3
  0
LTYPE
  2
CONTINUOUS
 70
    64
  3
SOLID
 72
    65
 73
     0
 40
0.0
  0
LTYPE
  2
CENTER
 70
    64
  3
CENTER
 72
    65
 73
     4
 40
2.0
 49
1.25
 49
-0.25
 49
0.25
 49
-0.25
  0
LTYPE
  2
PHANTOM
 70
    64
  3
PHANTOM
 72
    65
 73
     6
 40
2.5
 49
1.25
 49
-0.25
 49
0.25
 49
-0.25
 49
0.25
 49
-0.25
  0
ENDTAB
  0
TABLE
  2
LAYER
 70
     1
  0
LAYER
  2
0
 70
    64
 62
     7
  6
CONTINUOUS
  0
ENDTAB
  0
TABLE
  2
STYLE
 70
     2
  0
STYLE
  2
AAA
 70
     0
 40
0.0
 41
1.0
 50
0.0
 71
     0
 42
0.2
  3
TXT
  4

  0
STYLE
  2
STANDARD
 70
    64
 40
0.0
 41
1.0
 50
0.0
 71
     0
 42
0.2
  3
TXT
  4
BIGFONT
  0
ENDTAB
  0
TABLE
  2
VIEW
 70
     0
  0
ENDTAB
  0
ENDSEC
  0
SECTION
  2
BLOCKS
  0
ENDSEC
  0
SECTION
  2
ENTITIES
  0
POINT
  8
0
  6
CONTINUOUS
 62
     7
 10
-171.9591
 20
70.19691
  0
POINT
  8
0
  6
CONTINUOUS
 62
     7
 10
-48.95909
 20
70.19691
  0
POINT
  8
0
  6
CONTINUOUS
 62
     7
 10
-230.459
 20
14.69689
  0
POINT
  8
0
  6
CONTINUOUS
 62
     7
 10
-171.9591
 20
14.69689
  0
POINT
  8
0
  6
CONTINUOUS
 62
     7
 10
-48.95909
 20
14.69689
  0
POINT
  8
0
  6
CONTINUOUS
 62
     7
 10
-171.959
 20
-79.80312
  0
POINT
  8
0
  6
CONTINUOUS
 62
     7
 10
-48.95905
 20
-79.80312
  0
POINT
  8
0
  6
CONTINUOUS
 62
     7
 10
33.54095
 20
14.69689
  0
POINT
  8
0
  6
CONTINUOUS
 62
     7
 10
91.04091
 20
68.19691
  0
POINT
  8
0
  6
CONTINUOUS
 62
     7
 10
91.04095
 20
14.69689
  0
POINT
  8
0
  6
CONTINUOUS
 62
     7
 10
214.0409
 20
68.19691
  0
POINT
  8
0
  6
CONTINUOUS
 62
     7
 10
214.041
 20
14.69689
  0
LINE
  8
0
  6
PHANTOM
 62
     2
 10
83.54095
 20
75.19691
 11
93.54095
 21
75.19691
  0
LINE
  8
0
  6
PHANTOM
 62
     2
 10
83.54095
 20
75.19691
 11
83.54095
 21
59.19691
  0
LINE
  8
0
  6
PHANTOM
 62
     2
 10
83.54095
 20
59.19691
 11
93.54095
 21
59.19691
  0
LINE
  8
0
  6
PHANTOM
 62
     2
 10
103.541
 20
57.19691
 11
184.541
 21
57.19691
  0
LINE
  8
0
  6
PHANTOM
 62
     2
 10
93.54095
 20
75.19691
 11
93.54095
 21
59.19691
  0
LINE
  8
0
  6
PHANTOM
 62
     2
 10
185.041
 20
68.69691
 11
185.041
 21
67.69691
  0
LINE
  8
0
  6
PHANTOM
 62
     2
 10
185.0409
 20
67.69688
 11
184.5409
 21
67.19689
  0
LINE
  8
0
  6
PHANTOM
 62
     2
 10
185.0408
 20
71.69688
 11
184.5408
 21
72.19688
  0
LINE
  8
0
  6
PHANTOM
 62
     2
 10
184.541
 20
73.19691
 11
184.541
 21
57.19691
  0
LINE
  8
0
  6
PHANTOM
 62
     2
 10
103.541
 20
73.19691
 11
184.541
 21
73.19691
  0
LINE
  8
0
  6
PHANTOM
 62
     2
 10
103.541
 20
58.19691
 11
184.541
 21
58.19691
  0
LINE
  8
0
  6
PHANTOM
 62
     2
 10
103.541
 20
73.19691
 11
103.541
 21
57.19691
  0
LINE
  8
0
  6
PHANTOM
 62
     2
 10
185.041
 20
71.69691
 11
185.041
 21
68.69691
  0
LINE
  8
0
  6
PHANTOM
 62
     2
 10
79.54095
 20
71.69691
 11
79.54095
 21
67.69691
  0
LINE
  8
0
  6
PHANTOM
 62
     2
 10
80.04095
 20
73.69691
 11
83.04095
 21
73.69691
  0
LINE
  8
0
  6
PHANTOM
 62
     2
 10
80.04095
 20
65.69691
 11
83.04095
 21
65.69691
  0
LINE
  8
0
  6
PHANTOM
 62
     2
 10
80.04095
 20
69.69691
 11
83.04095
 21
69.69691
  0
LINE
  8
0
  6
PHANTOM
 62
     2
 10
103.0409
 20
71.69691
 11
103.541
 21
72.19694
  0
LINE
  8
0
  6
PHANTOM
 62
     2
 10
184.541
 20
62.69691
 11
211.541
 21
62.69691
  0
LINE
  8
0
  6
PHANTOM
 62
     2
 10
184.541
 20
68.69691
 11
211.541
 21
68.69691
  0
LINE
  8
0
  6
PHANTOM
 62
     2
 10
103.041
 20
71.69691
 11
103.041
 21
68.69691
  0
LINE
  8
0
  6
PHANTOM
 62
     2
 10
93.54095
 20
62.69691
 11
103.541
 21
62.69691
  0
LINE
  8
0
  6
PHANTOM
 62
     2
 10
93.54095
 20
68.69691
 11
103.541
 21
68.69691
  0
LINE
  8
0
  6
PHANTOM
 62
     2
 10
97.64096
 20
72.19691
 11
97.64096
 21
68.69691
  0
LINE
  8
0
  6
PHANTOM
 62
     2
 10
74.04095
 20
72.19691
 11
79.57047
 21
72.19691
  0
LINE
  8
0
  6
PHANTOM
 62
     2
 10
73.54095
 20
71.33088
 11
73.54095
 21
68.06293
  0
LINE
  8
0
  6
PHANTOM
 62
     2
 10
74.04095
 20
67.19691
 11
79.57047
 21
67.19691
  0
LINE
  8
0
  6
PHANTOM
 62
     2
 10
98.07596
 20
71.76191
 11
93.54095
 21
71.76191
  0
LINE
  8
0
  6
PHANTOM
 62
     2
 10
98.54095
 20
71.29691
 11
98.54095
 21
68.69691
  0
LINE
  8
0
  6
PHANTOM
 62
     2
 10
97.6409
 20
72.19688
 11
98.54089
 21
71.29688
  0
LINE
  8
0
  6
PHANTOM
 62
     2
 10
73.54099
 20
68.06298
 11
74.04099
 21
67.19694
  0
LINE
  8
0
  6
PHANTOM
 62
     2
 10
73.54089
 20
71.33086
 11
74.0409
 21
72.19689
  0
LINE
  8
0
  6
PHANTOM
 62
     2
 10
225.541
 20
71.69691
 11
225.541
 21
67.69691
  0
LINE
  8
0
  6
PHANTOM
 62
     2
 10
225.041
 20
73.69691
 11
222.041
 21
73.69691
  0
LINE
  8
0
  6
PHANTOM
 62
     2
 10
225.041
 20
65.69691
 11
222.041
 21
65.69691
  0
LINE
  8
0
  6
PHANTOM
 62
     2
 10
225.041
 20
69.69691
 11
222.041
 21
69.69691
  0
LINE
  8
0
  6
PHANTOM
 62
     2
 10
221.541
 20
75.19691
 11
211.541
 21
75.19691
  0
LINE
  8
0
  6
PHANTOM
 62
     2
 10
221.541
 20
59.19691
 11
211.541
 21
59.19691
  0
LINE
  8
0
  6
PHANTOM
 62
     2
 10
221.541
 20
75.19691
 11
221.541
 21
59.19691
  0
LINE
  8
0
  6
PHANTOM
 62
     2
 10
211.541
 20
75.19691
 11
211.541
 21
59.19691
  0
LINE
  8
0
  6
PHANTOM
 62
     2
 10
231.041
 20
72.19691
 11
225.5114
 21
72.19691
  0
LINE
  8
0
  6
PHANTOM
 62
     2
 10
231.541
 20
71.33088
 11
231.541
 21
68.06293
  0
LINE
  8
0
  6
PHANTOM
 62
     2
 10
231.041
 20
67.19691
 11
225.5114
 21
67.19691
  0
LINE
  8
0
  6
PHANTOM
 62
     2
 10
207.4409
 20
72.19691
 11
211.541
 21
72.19691
  0
LINE
  8
0
  6
PHANTOM
 62
     2
 10
206.541
 20
71.29691
 11
206.541
 21
68.69691
  0
LINE
  8
0
  6
PHANTOM
 62
     2
 10
207.441
 20
72.19692
 11
206.541
 21
71.29696
  0
LINE
  8
0
  6
PHANTOM
 62
     2
 10
231.5409
 20
68.06292
 11
231.0409
 21
67.19688
  0
LINE
  8
0
  6
PHANTOM
 62
     2
 10
231.5408
 20
71.33083
 11
231.0408
 21
72.19685
  0
LINE
  8
0
  6
PHANTOM
 62
     2
 10
-189.4591
 20
-5.66915
 11
-188.9591
 21
-4.80312
  0
LINE
  8
0
  6
PHANTOM
 62
     2
 10
-189.459
 20
-8.93708
 11
-188.959
 21
-9.80311
  0
LINE
  8
0
  6
PHANTOM
 62
     2
 10
-188.959
 20
-9.80311
 11
-183.4295
 21
-9.80311
  0
LINE
  8
0
  6
PHANTOM
 62
     2
 10
-159.459
 20
10.84689
 11
-78.45905
 21
10.84689
  0
LINE
  8
0
  6
PHANTOM
 62
     2
 10
-159.459
 20
7.54689
 11
-78.45905
 21
7.54689
  0
LINE
  8
0
  6
PHANTOM
 62
     2
 10
-159.459
 20
-27.30311
 11
-78.45905
 21
-27.30311
  0
LINE
  8
0
  6
PHANTOM
 62
     2
 10
-169.459
 20
-13.30311
 11
-159.459
 21
-13.30311
  0
LINE
  8
0
  6
PHANTOM
 62
     2
 10
-169.459
 20
-19.30311
 11
-159.459
 21
-19.30311
  0
LINE
  8
0
  6
PHANTOM
 62
     2
 10
-78.45905
 20
-13.30311
 11
-51.45905
 21
-13.30311
  0
LINE
  8
0
  6
PHANTOM
 62
     2
 10
-78.45905
 20
-19.30311
 11
-51.45905
 21
-19.30311
  0
LINE
  8
0
  6
PHANTOM
 62
     2
 10
-77.95904
 20
-5.3031
 11
-77.95904
 21
-9.3031
  0
LINE
  8
0
  6
PHANTOM
 62
     2
 10
-77.95907
 20
-5.30313
 11
-78.45907
 21
-4.80314
  0
LINE
  8
0
  6
PHANTOM
 62
     2
 10
-77.95901
 20
-9.30309
 11
-78.45902
 21
-9.80309
  0
LINE
  8
0
  6
PHANTOM
 62
     2
 10
-189.459
 20
-5.66914
 11
-189.459
 21
-8.93708
  0
LINE
  8
0
  6
PHANTOM
 62
     2
 10
-183.459
 20
-3.839
 11
-183.459
 21
-10.76721
  0
LINE
  8
0
  6
PHANTOM
 62
     2
 10
-159.959
 20
-5.30311
 11
-159.959
 21
-9.30311
  0
LINE
  8
0
  6
PHANTOM
 62
     2
 10
-159.959
 20
-5.30312
 11
-159.459
 21
-4.80312
  0
LINE
  8
0
  6
PHANTOM
 62
     2
 10
-159.9591
 20
-9.30312
 11
-159.4591
 21
-9.80312
  0
LINE
  8
0
  6
PHANTOM
 62
     2
 10
-169.459
 20
-1.30311
 11
-159.459
 21
-1.30311
  0
LINE
  8
0
  6
PHANTOM
 62
     2
 10
-169.459
 20
4.69689
 11
-159.459
 21
4.69689
  0
LINE
  8
0
  6
PHANTOM
 62
     2
 10
-78.45905
 20
4.69689
 11
-51.45905
 21
4.69689
  0
LINE
  8
0
  6
PHANTOM
 62
     2
 10
-78.45905
 20
-1.30311
 11
-51.45905
 21
-1.30311
  0
LINE
  8
0
  6
PHANTOM
 62
     2
 10
-179.459
 20
14.69689
 11
-179.459
 21
-29.30311
  0
LINE
  8
0
  6
PHANTOM
 62
     2
 10
-169.459
 20
14.69689
 11
-169.459
 21
-29.30311
  0
LINE
  8
0
  6
PHANTOM
 62
     2
 10
-159.459
 20
12.69689
 11
-159.459
 21
-27.30311
  0
LINE
  8
0
  6
PHANTOM
 62
     2
 10
-78.45905
 20
12.69689
 11
-78.45905
 21
-27.30311
  0
LINE
  8
0
  6
PHANTOM
 62
     2
 10
-179.459
 20
-29.30311
 11
-169.459
 21
-29.30311
  0
LINE
  8
0
  6
PHANTOM
 62
     2
 10
-182.959
 20
-2.68431
 11
-179.959
 21
-2.68431
  0
LINE
  8
0
  6
PHANTOM
 62
     2
 10
-182.9591
 20
-4.9937
 11
-179.959
 21
-4.9937
  0
LINE
  8
0
  6
PHANTOM
 62
     2
 10
-182.9591
 20
-9.61251
 11
-179.959
 21
-9.61251
  0
LINE
  8
0
  6
PHANTOM
 62
     2
 10
-182.959
 20
-11.92192
 11
-179.959
 21
-11.92192
  0
LINE
  8
0
  6
PHANTOM
 62
     2
 10
-159.459
 20
12.69689
 11
-78.45905
 21
12.69689
  0
LINE
  8
0
  6
PHANTOM
 62
     2
 10
-55.55904
 20
-9.80311
 11
-51.45905
 21
-9.80311
  0
LINE
  8
0
  6
PHANTOM
 62
     2
 10
-55.55906
 20
-9.80311
 11
-56.45905
 21
-8.90311
  0
LINE
  8
0
  6
PHANTOM
 62
     2
 10
-56.45905
 20
-5.70311
 11
-56.45905
 21
-8.90311
  0
LINE
  8
0
  6
PHANTOM
 62
     2
 10
-55.55907
 20
-4.80312
 11
-56.45906
 21
-5.70312
  0
LINE
  8
0
  6
PHANTOM
 62
     2
 10
-55.55904
 20
-4.80311
 11
-51.45905
 21
-4.80311
  0
LINE
  8
0
  6
PHANTOM
 62
     2
 10
-31.95905
 20
-4.80311
 11
-37.48856
 21
-4.80311
  0
LINE
  8
0
  6
PHANTOM
 62
     2
 10
-31.95905
 20
-9.80311
 11
-37.48856
 21
-9.80311
  0
LINE
  8
0
  6
PHANTOM
 62
     2
 10
-31.45904
 20
-8.93709
 11
-31.95904
 21
-9.80312
  0
LINE
  8
0
  6
PHANTOM
 62
     2
 10
-31.45907
 20
-5.66914
 11
-31.95905
 21
-4.80311
  0
LINE
  8
0
  6
PHANTOM
 62
     2
 10
-31.45905
 20
-5.66914
 11
-31.45905
 21
-8.93708
  0
LINE
  8
0
  6
PHANTOM
 62
     2
 10
-37.95905
 20
-11.92192
 11
-40.95905
 21
-11.92192
  0
LINE
  8
0
  6
PHANTOM
 62
     2
 10
-37.95905
 20
-9.61251
 11
-40.95905
 21
-9.61251
  0
LINE
  8
0
  6
PHANTOM
 62
     2
 10
-37.95904
 20
-4.9937
 11
-40.95905
 21
-4.9937
  0
LINE
  8
0
  6
PHANTOM
 62
     2
 10
-37.95905
 20
-2.68431
 11
-40.95907
 21
-2.68431
  0
LINE
  8
0
  6
PHANTOM
 62
     2
 10
-41.45905
 20
-29.30311
 11
-51.45905
 21
-29.30311
  0
LINE
  8
0
  6
PHANTOM
 62
     2
 10
-51.45905
 20
14.69689
 11
-51.45905
 21
-29.30311
  0
LINE
  8
0
  6
PHANTOM
 62
     2
 10
-41.45905
 20
14.69689
 11
-41.45905
 21
-29.30311
  0
LINE
  8
0
  6
PHANTOM
 62
     2
 10
-37.45905
 20
-3.839
 11
-37.45905
 21
-10.76721
  0
LINE
  8
0
  6
PHANTOM
 62
     2
 10
-165.3591
 20
-9.80311
 11
-169.459
 21
-9.80311
  0
LINE
  8
0
  6
PHANTOM
 62
     2
 10
-165.3591
 20
-9.80312
 11
-164.4591
 21
-8.90312
  0
LINE
  8
0
  6
PHANTOM
 62
     2
 10
-164.459
 20
-5.70311
 11
-164.459
 21
-8.90311
  0
LINE
  8
0
  6
PHANTOM
 62
     2
 10
-165.3591
 20
-4.80312
 11
-164.4591
 21
-5.70312
  0
LINE
  8
0
  6
PHANTOM
 62
     2
 10
-165.3591
 20
-4.80311
 11
-169.459
 21
-4.80311
  0
LINE
  8
0
  6
PHANTOM
 62
     2
 10
-188.959
 20
-4.80311
 11
-183.4295
 21
-4.80311
  0
LINE
  8
0
  6
PHANTOM
 62
     2
 10
42.54095
 20
14.69689
 11
26.54095
 21
14.69689
  0
LINE
  8
0
  6
PHANTOM
 62
     2
 10
28.04095
 20
-4.9937
 11
28.04095
 21
-9.61251
  0
LINE
  8
0
  6
PHANTOM
 62
     2
 10
42.54095
 20
14.69689
 11
42.54095
 21
-29.30311
  0
LINE
  8
0
  6
PHANTOM
 62
     2
 10
28.04097
 20
-4.99368
 11
32.04097
 21
-2.68427
  0
LINE
  8
0
  6
PHANTOM
 62
     2
 10
26.54095
 20
-29.30311
 11
26.54095
 21
14.69689
  0
LINE
  8
0
  6
PHANTOM
 62
     2
 10
32.04095
 20
-11.92189
 11
28.04093
 21
-9.61248
  0
LINE
  8
0
  6
PHANTOM
 62
     2
 10
36.04092
 20
-9.61254
 11
32.04092
 21
-11.92193
  0
LINE
  8
0
  6
PHANTOM
 62
     2
 10
36.04095
 20
-4.9937
 11
36.04095
 21
-9.61251
  0
LINE
  8
0
  6
PHANTOM
 62
     2
 10
32.04094
 20
-2.6843
 11
36.04096
 21
-4.99369
  0
LINE
  8
0
  6
PHANTOM
 62
     2
 10
44.54095
 20
-26.30311
 11
44.54095
 21
-20.30311
  0
LINE
  8
0
  6
PHANTOM
 62
     2
 10
42.54095
 20
12.69689
 11
43.54095
 21
12.69689
  0
LINE
  8
0
  6
PHANTOM
 62
     2
 10
42.54095
 20
-27.30311
 11
43.54095
 21
-27.30311
  0
LINE
  8
0
  6
PHANTOM
 62
     2
 10
44.54089
 20
-26.30309
 11
43.54089
 21
-27.30307
  0
LINE
  8
0
  6
PHANTOM
 62
     2
 10
43.54097
 20
12.6969
 11
44.54094
 21
11.6969
  0
LINE
  8
0
  6
PHANTOM
 62
     2
 10
43.54095
 20
-19.30311
 11
43.54095
 21
-12.30311
  0
LINE
  8
0
  6
PHANTOM
 62
     2
 10
44.54095
 20
-11.30311
 11
44.54095
 21
-3.30311
  0
LINE
  8
0
  6
PHANTOM
 62
     2
 10
43.54095
 20
-2.30311
 11
43.54095
 21
4.69689
  0
LINE
  8
0
  6
PHANTOM
 62
     2
 10
44.54095
 20
5.69689
 11
44.54095
 21
11.69689
  0
LINE
  8
0
  6
PHANTOM
 62
     2
 10
44.54094
 20
-20.30305
 11
43.54092
 21
-19.30306
  0
LINE
  8
0
  6
PHANTOM
 62
     2
 10
44.54097
 20
-11.30308
 11
43.54103
 21
-12.30306
  0
LINE
  8
0
  6
PHANTOM
 62
     2
 10
43.54093
 20
-2.30309
 11
44.54092
 21
-3.30307
  0
LINE
  8
0
  6
PHANTOM
 62
     2
 10
44.54097
 20
5.69694
 11
43.541
 21
4.69692
  0
LINE
  8
0
  6
PHANTOM
 62
     2
 10
-179.459
 20
14.69689
 11
-169.459
 21
14.69689
  0
LINE
  8
0
  6
PHANTOM
 62
     2
 10
-51.45905
 20
14.69689
 11
-41.45905
 21
14.69689
  0
LINE
  8
0
  6
PHANTOM
 62
     2
 10
-179.459
 20
58.19691
 11
-169.459
 21
58.19691
  0
LINE
  8
0
  6
PHANTOM
 62
     2
 10
-179.459
 20
58.19691
 11
-179.459
 21
74.19691
  0
LINE
  8
0
  6
PHANTOM
 62
     2
 10
-179.459
 20
74.19691
 11
-169.459
 21
74.19691
  0
LINE
  8
0
  6
PHANTOM
 62
     2
 10
-159.459
 20
76.19691
 11
-78.45905
 21
76.19691
  0
LINE
  8
0
  6
PHANTOM
 62
     2
 10
-169.459
 20
58.19691
 11
-169.459
 21
74.19691
  0
LINE
  8
0
  6
PHANTOM
 62
     2
 10
-77.95905
 20
64.69691
 11
-77.95905
 21
65.69691
  0
LINE
  8
0
  6
PHANTOM
 62
     2
 10
-77.95905
 20
65.69684
 11
-78.45906
 21
66.19685
  0
LINE
  8
0
  6
PHANTOM
 62
     2
 10
-77.95914
 20
61.6969
 11
-78.45914
 21
61.1969
  0
LINE
  8
0
  6
PHANTOM
 62
     2
 10
-78.45905
 20
60.19691
 11
-78.45905
 21
76.19691
  0
LINE
  8
0
  6
PHANTOM
 62
     2
 10
-159.459
 20
60.19691
 11
-78.45905
 21
60.19691
  0
LINE
  8
0
  6
PHANTOM
 62
     2
 10
-159.459
 20
75.19691
 11
-78.45905
 21
75.19691
  0
LINE
  8
0
  6
PHANTOM
 62
     2
 10
-159.459
 20
60.19691
 11
-159.459
 21
76.19691
  0
LINE
  8
0
  6
PHANTOM
 62
     2
 10
-77.95905
 20
61.69691
 11
-77.95905
 21
64.69691
  0
LINE
  8
0
  6
PHANTOM
 62
     2
 10
-183.459
 20
61.69691
 11
-183.459
 21
65.69691
  0
LINE
  8
0
  6
PHANTOM
 62
     2
 10
-182.959
 20
59.69691
 11
-179.959
 21
59.69691
  0
LINE
  8
0
  6
PHANTOM
 62
     2
 10
-182.959
 20
67.69691
 11
-179.959
 21
67.69691
  0
LINE
  8
0
  6
PHANTOM
 62
     2
 10
-182.959
 20
63.69691
 11
-179.959
 21
63.69691
  0
LINE
  8
0
  6
PHANTOM
 62
     2
 10
-159.959
 20
61.69687
 11
-159.459
 21
61.19687
  0
LINE
  8
0
  6
PHANTOM
 62
     2
 10
-78.45905
 20
70.69691
 11
-51.45905
 21
70.69691
  0
LINE
  8
0
  6
PHANTOM
 62
     2
 10
-78.45905
 20
64.69691
 11
-51.45905
 21
64.69691
  0
LINE
  8
0
  6
PHANTOM
 62
     2
 10
-159.959
 20
61.69691
 11
-159.959
 21
64.69691
  0
LINE
  8
0
  6
PHANTOM
 62
     2
 10
-169.459
 20
70.69691
 11
-159.459
 21
70.69691
  0
LINE
  8
0
  6
PHANTOM
 62
     2
 10
-169.459
 20
64.69691
 11
-159.459
 21
64.69691
  0
LINE
  8
0
  6
PHANTOM
 62
     2
 10
-188.959
 20
61.19691
 11
-183.4295
 21
61.19691
  0
LINE
  8
0
  6
PHANTOM
 62
     2
 10
-189.459
 20
62.06293
 11
-189.459
 21
65.33088
  0
LINE
  8
0
  6
PHANTOM
 62
     2
 10
-188.959
 20
66.19691
 11
-183.4295
 21
66.19691
  0
LINE
  8
0
  6
PHANTOM
 62
     2
 10
-165.3591
 20
61.19691
 11
-169.459
 21
61.19691
  0
LINE
  8
0
  6
PHANTOM
 62
     2
 10
-164.459
 20
62.0969
 11
-164.459
 21
64.69691
  0
LINE
  8
0
  6
PHANTOM
 62
     2
 10
-165.3591
 20
61.19693
 11
-164.4591
 21
62.09692
  0
LINE
  8
0
  6
PHANTOM
 62
     2
 10
-189.4592
 20
65.33096
 11
-188.9592
 21
66.197
  0
LINE
  8
0
  6
PHANTOM
 62
     2
 10
-189.459
 20
62.06288
 11
-188.959
 21
61.19686
  0
LINE
  8
0
  6
PHANTOM
 62
     2
 10
-37.45905
 20
61.69691
 11
-37.45905
 21
65.69691
  0
LINE
  8
0
  6
PHANTOM
 62
     2
 10
-37.95905
 20
59.69691
 11
-40.95905
 21
59.69691
  0
LINE
  8
0
  6
PHANTOM
 62
     2
 10
-37.95905
 20
67.69691
 11
-40.95905
 21
67.69691
  0
LINE
  8
0
  6
PHANTOM
 62
     2
 10
-37.95905
 20
63.69691
 11
-40.95905
 21
63.69691
  0
LINE
  8
0
  6
PHANTOM
 62
     2
 10
-41.45905
 20
58.19691
 11
-51.45905
 21
58.19691
  0
LINE
  8
0
  6
PHANTOM
 62
     2
 10
-41.45905
 20
74.19691
 11
-51.45905
 21
74.19691
  0
LINE
  8
0
  6
PHANTOM
 62
     2
 10
-41.45905
 20
58.19691
 11
-41.45905
 21
74.19691
  0
LINE
  8
0
  6
PHANTOM
 62
     2
 10
-51.45905
 20
58.19691
 11
-51.45905
 21
74.19691
  0
LINE
  8
0
  6
PHANTOM
 62
     2
 10
-31.95905
 20
61.19691
 11
-37.48856
 21
61.19691
  0
LINE
  8
0
  6
PHANTOM
 62
     2
 10
-31.45905
 20
62.06293
 11
-31.45905
 21
65.33088
  0
LINE
  8
0
  6
PHANTOM
 62
     2
 10
-31.95905
 20
66.19691
 11
-37.48856
 21
66.19691
  0
LINE
  8
0
  6
PHANTOM
 62
     2
 10
-55.55905
 20
61.19691
 11
-51.45905
 21
61.19691
  0
LINE
  8
0
  6
PHANTOM
 62
     2
 10
-56.45905
 20
62.0969
 11
-56.45905
 21
64.69691
  0
LINE
  8
0
  6
PHANTOM
 62
     2
 10
-55.55908
 20
61.1969
 11
-56.45906
 21
62.0969
  0
LINE
  8
0
  6
PHANTOM
 62
     2
 10
-31.45907
 20
65.33085
 11
-31.95906
 21
66.19688
  0
LINE
  8
0
  6
PHANTOM
 62
     2
 10
-31.45908
 20
62.0629
 11
-31.95908
 21
61.19688
  0
LINE
  8
0
  6
PHANTOM
 62
     2
 10
221.541
 20
-29.30311
 11
221.541
 21
14.69689
  0
LINE
  8
0
  6
PHANTOM
 62
     2
 10
74.04095
 20
-4.80311
 11
79.57047
 21
-4.80311
  0
LINE
  8
0
  6
PHANTOM
 62
     2
 10
73.78983
 20
-5.23811
 11
79.54144
 21
-5.23811
  0
LINE
  8
0
  6
PHANTOM
 62
     2
 10
73.54095
 20
-5.66914
 11
73.54095
 21
-8.93708
  0
LINE
  8
0
  6
PHANTOM
 62
     2
 10
73.78979
 20
-9.36811
 11
79.54144
 21
-9.36811
  0
LINE
  8
0
  6
PHANTOM
 62
     2
 10
74.04095
 20
-9.80311
 11
79.57047
 21
-9.80311
  0
LINE
  8
0
  6
PHANTOM
 62
     2
 10
97.64096
 20
-4.80311
 11
93.54095
 21
-4.80311
  0
LINE
  8
0
  6
PHANTOM
 62
     2
 10
98.07596
 20
-5.23811
 11
93.54095
 21
-5.23811
  0
LINE
  8
0
  6
PHANTOM
 62
     2
 10
98.54095
 20
-5.70311
 11
98.54095
 21
-8.90311
  0
LINE
  8
0
  6
PHANTOM
 62
     2
 10
98.07596
 20
-9.36811
 11
93.54095
 21
-9.36811
  0
LINE
  8
0
  6
PHANTOM
 62
     2
 10
97.64096
 20
-9.80311
 11
93.54095
 21
-9.80311
  0
LINE
  8
0
  6
PHANTOM
 62
     2
 10
79.54095
 20
-10.76721
 11
79.54095
 21
-3.839
  0
LINE
  8
0
  6
PHANTOM
 62
     2
 10
103.041
 20
-9.3031
 11
103.041
 21
-5.30311
  0
LINE
  8
0
  6
PHANTOM
 62
     2
 10
103.0409
 20
-9.3031
 11
103.5409
 21
-9.80308
  0
LINE
  8
0
  6
PHANTOM
 62
     2
 10
103.0408
 20
-5.3031
 11
103.5409
 21
-4.80311
  0
LINE
  8
0
  6
PHANTOM
 62
     2
 10
93.54095
 20
-13.30311
 11
103.541
 21
-13.30311
  0
LINE
  8
0
  6
PHANTOM
 62
     2
 10
93.54095
 20
-19.30311
 11
103.541
 21
-19.30311
  0
LINE
  8
0
  6
PHANTOM
 62
     2
 10
184.541
 20
-19.30311
 11
211.541
 21
-19.30311
  0
LINE
  8
0
  6
PHANTOM
 62
     2
 10
184.541
 20
-13.30311
 11
211.541
 21
-13.30311
  0
LINE
  8
0
  6
PHANTOM
 62
     2
 10
83.54095
 20
-29.30311
 11
83.54095
 21
14.69689
  0
LINE
  8
0
  6
PHANTOM
 62
     2
 10
93.54095
 20
-29.30311
 11
93.54095
 21
14.69689
  0
LINE
  8
0
  6
PHANTOM
 62
     2
 10
103.541
 20
-27.30311
 11
103.541
 21
12.69689
  0
LINE
  8
0
  6
PHANTOM
 62
     2
 10
184.541
 20
-27.30311
 11
184.541
 21
12.69689
  0
LINE
  8
0
  6
PHANTOM
 62
     2
 10
83.54095
 20
14.69689
 11
93.54095
 21
14.69689
  0
LINE
  8
0
  6
PHANTOM
 62
     2
 10
83.54095
 20
-29.30311
 11
93.54095
 21
-29.30311
  0
LINE
  8
0
  6
PHANTOM
 62
     2
 10
80.04095
 20
-11.92191
 11
83.04095
 21
-11.92191
  0
LINE
  8
0
  6
PHANTOM
 62
     2
 10
80.04095
 20
-9.61251
 11
83.04095
 21
-9.61251
  0
LINE
  8
0
  6
PHANTOM
 62
     2
 10
80.04095
 20
-4.99371
 11
83.04095
 21
-4.99371
  0
LINE
  8
0
  6
PHANTOM
 62
     2
 10
80.04095
 20
-2.6843
 11
83.04095
 21
-2.6843
  0
LINE
  8
0
  6
PHANTOM
 62
     2
 10
103.541
 20
-27.30311
 11
184.541
 21
-27.30311
  0
LINE
  8
0
  6
PHANTOM
 62
     2
 10
103.541
 20
12.69689
 11
184.541
 21
12.69689
  0
LINE
  8
0
  6
PHANTOM
 62
     2
 10
93.54095
 20
-1.30311
 11
103.541
 21
-1.30311
  0
LINE
  8
0
  6
PHANTOM
 62
     2
 10
93.54095
 20
4.69689
 11
103.541
 21
4.69689
  0
LINE
  8
0
  6
PHANTOM
 62
     2
 10
184.541
 20
-1.30311
 11
211.541
 21
-1.30311
  0
LINE
  8
0
  6
PHANTOM
 62
     2
 10
184.541
 20
4.69689
 11
211.541
 21
4.69689
  0
LINE
  8
0
  6
PHANTOM
 62
     2
 10
185.041
 20
-9.30311
 11
185.041
 21
-5.30312
  0
LINE
  8
0
  6
PHANTOM
 62
     2
 10
185.0409
 20
-9.30308
 11
184.5409
 21
-9.80306
  0
LINE
  8
0
  6
PHANTOM
 62
     2
 10
185.041
 20
-5.30309
 11
184.541
 21
-4.80311
  0
LINE
  8
0
  6
PHANTOM
 62
     2
 10
103.541
 20
11.69689
 11
184.541
 21
11.69689
  0
LINE
  8
0
  6
PHANTOM
 62
     2
 10
103.541
 20
5.69689
 11
184.541
 21
5.69689
  0
LINE
  8
0
  6
PHANTOM
 62
     2
 10
103.541
 20
4.69689
 11
184.541
 21
4.69689
  0
LINE
  8
0
  6
PHANTOM
 62
     2
 10
103.541
 20
-2.30311
 11
184.541
 21
-2.30311
  0
LINE
  8
0
  6
PHANTOM
 62
     2
 10
103.541
 20
-3.30311
 11
184.541
 21
-3.30311
  0
LINE
  8
0
  6
PHANTOM
 62
     2
 10
103.541
 20
-11.30311
 11
184.541
 21
-11.30311
  0
LINE
  8
0
  6
PHANTOM
 62
     2
 10
103.541
 20
-12.30311
 11
184.541
 21
-12.30311
  0
LINE
  8
0
  6
PHANTOM
 62
     2
 10
103.541
 20
-19.30311
 11
184.541
 21
-19.30311
  0
LINE
  8
0
  6
PHANTOM
 62
     2
 10
103.541
 20
-20.30311
 11
184.541
 21
-20.30311
  0
LINE
  8
0
  6
PHANTOM
 62
     2
 10
103.541
 20
-26.30311
 11
184.541
 21
-26.30311
  0
LINE
  8
0
  6
PHANTOM
 62
     2
 10
175.541
 20
-9.30311
 11
177.541
 21
-9.30311
  0
LINE
  8
0
  6
PHANTOM
 62
     2
 10
175.541
 20
-5.30311
 11
177.541
 21
-5.30311
  0
LINE
  8
0
  6
PHANTOM
 62
     2
 10
73.54095
 20
-5.66914
 11
74.04095
 21
-4.80311
  0
LINE
  8
0
  6
PHANTOM
 62
     2
 10
73.54087
 20
-8.93709
 11
74.04089
 21
-9.80312
  0
LINE
  8
0
  6
PHANTOM
 62
     2
 10
74.04095
 20
-4.80311
 11
74.04095
 21
-9.80311
  0
LINE
  8
0
  6
PHANTOM
 62
     2
 10
97.64094
 20
-4.80312
 11
98.54093
 21
-5.70312
  0
LINE
  8
0
  6
PHANTOM
 62
     2
 10
97.64097
 20
-9.80311
 11
98.54099
 21
-8.90311
  0
LINE
  8
0
  6
PHANTOM
 62
     2
 10
97.64096
 20
-4.80311
 11
97.64096
 21
-9.80311
  0
LINE
  8
0
  6
PHANTOM
 62
     2
 10
231.041
 20
-4.80311
 11
225.5114
 21
-4.80311
  0
LINE
  8
0
  6
PHANTOM
 62
     2
 10
231.2921
 20
-5.23811
 11
225.5405
 21
-5.23811
  0
LINE
  8
0
  6
PHANTOM
 62
     2
 10
231.541
 20
-5.66914
 11
231.541
 21
-8.93708
  0
LINE
  8
0
  6
PHANTOM
 62
     2
 10
231.2921
 20
-9.36811
 11
225.5405
 21
-9.36811
  0
LINE
  8
0
  6
PHANTOM
 62
     2
 10
231.041
 20
-9.80311
 11
225.5114
 21
-9.80311
  0
LINE
  8
0
  6
PHANTOM
 62
     2
 10
207.441
 20
-4.80311
 11
211.541
 21
-4.80311
  0
LINE
  8
0
  6
PHANTOM
 62
     2
 10
207.006
 20
-5.23811
 11
211.541
 21
-5.23811
  0
LINE
  8
0
  6
PHANTOM
 62
     2
 10
206.541
 20
-5.70311
 11
206.541
 21
-8.90311
  0
LINE
  8
0
  6
PHANTOM
 62
     2
 10
207.006
 20
-9.36811
 11
211.541
 21
-9.36811
  0
LINE
  8
0
  6
PHANTOM
 62
     2
 10
207.441
 20
-9.80311
 11
211.541
 21
-9.80311
  0
LINE
  8
0
  6
PHANTOM
 62
     2
 10
225.541
 20
-10.76721
 11
225.541
 21
-3.839
  0
LINE
  8
0
  6
PHANTOM
 62
     2
 10
211.541
 20
-29.30311
 11
211.541
 21
14.69689
  0
LINE
  8
0
  6
PHANTOM
 62
     2
 10
221.541
 20
14.69689
 11
211.541
 21
14.69689
  0
LINE
  8
0
  6
PHANTOM
 62
     2
 10
221.541
 20
-29.30311
 11
211.541
 21
-29.30311
  0
LINE
  8
0
  6
PHANTOM
 62
     2
 10
225.041
 20
-11.92191
 11
222.041
 21
-11.92191
  0
LINE
  8
0
  6
PHANTOM
 62
     2
 10
225.041
 20
-9.61251
 11
222.041
 21
-9.61251
  0
LINE
  8
0
  6
PHANTOM
 62
     2
 10
225.041
 20
-4.99371
 11
222.041
 21
-4.99371
  0
LINE
  8
0
  6
PHANTOM
 62
     2
 10
231.5409
 20
-5.66916
 11
231.0409
 21
-4.80311
  0
LINE
  8
0
  6
PHANTOM
 62
     2
 10
231.5408
 20
-8.93707
 11
231.0408
 21
-9.8031
  0
LINE
  8
0
  6
PHANTOM
 62
     2
 10
231.041
 20
-4.80311
 11
231.041
 21
-9.80311
  0
LINE
  8
0
  6
PHANTOM
 62
     2
 10
207.4409
 20
-4.80311
 11
206.541
 21
-5.70311
  0
LINE
  8
0
  6
PHANTOM
 62
     2
 10
207.441
 20
-9.80308
 11
206.5411
 21
-8.90311
  0
LINE
  8
0
  6
PHANTOM
 62
     2
 10
207.441
 20
-4.80311
 11
207.441
 21
-9.80311
  0
LINE
  8
0
  6
PHANTOM
 62
     2
 10
229.041
 20
-6.05311
 11
228.3193
 21
-7.30312
  0
LINE
  8
0
  6
PHANTOM
 62
     2
 10
229.041
 20
-6.05311
 11
229.041
 21
-8.55311
  0
LINE
  8
0
  6
PHANTOM
 62
     2
 10
229.0412
 20
-8.5531
 11
228.3195
 21
-7.3031
  0
LINE
  8
0
  6
PHANTOM
 62
     2
 10
231.541
 20
-8.55311
 11
229.041
 21
-8.55311
  0
LINE
  8
0
  6
PHANTOM
 62
     2
 10
231.541
 20
-6.05311
 11
229.041
 21
-6.05311
  0
LINE
  8
0
  6
PHANTOM
 62
     2
 10
116.9995
 20
-30.00311
 11
116.9995
 21
-27.30311
  0
LINE
  8
0
  6
PHANTOM
 62
     2
 10
119.0202
 20
-30.00311
 11
119.0202
 21
-27.50311
  0
LINE
  8
0
  6
PHANTOM
 62
     2
 10
123.0617
 20
-30.00311
 11
123.0617
 21
-27.50311
  0
LINE
  8
0
  6
PHANTOM
 62
     2
 10
125.0824
 20
-30.0031
 11
125.0824
 21
-27.30311
  0
LINE
  8
0
  6
PHANTOM
 62
     2
 10
118.0099
 20
-30.50311
 11
120.541
 21
-30.50311
  0
LINE
  8
0
  6
PHANTOM
 62
     2
 10
116.9995
 20
-27.50311
 11
125.0824
 21
-27.50311
  0
LINE
  8
0
  6
PHANTOM
 62
     2
 10
120.541
 20
-30.50311
 11
120.541
 21
-28.50311
  0
LINE
  8
0
  6
PHANTOM
 62
     2
 10
120.541
 20
-28.50311
 11
121.541
 21
-28.50311
  0
LINE
  8
0
  6
PHANTOM
 62
     2
 10
121.541
 20
-28.50311
 11
121.541
 21
-30.50311
  0
LINE
  8
0
  6
PHANTOM
 62
     2
 10
121.541
 20
-30.50311
 11
124.0721
 21
-30.50311
  0
LINE
  8
0
  6
PHANTOM
 62
     2
 10
116.9995
 20
-27.30311
 11
125.0824
 21
-27.30311
  0
LINE
  8
0
  6
PHANTOM
 62
     2
 10
162.9995
 20
-30.00311
 11
162.9995
 21
-27.30311
  0
LINE
  8
0
  6
PHANTOM
 62
     2
 10
165.0202
 20
-30.00311
 11
165.0202
 21
-27.50311
  0
LINE
  8
0
  6
PHANTOM
 62
     2
 10
169.0617
 20
-30.00311
 11
169.0617
 21
-27.50311
  0
LINE
  8
0
  6
PHANTOM
 62
     2
 10
171.0824
 20
-30.0031
 11
171.0824
 21
-27.30311
  0
LINE
  8
0
  6
PHANTOM
 62
     2
 10
164.0099
 20
-30.50311
 11
166.541
 21
-30.50311
  0
LINE
  8
0
  6
PHANTOM
 62
     2
 10
162.9995
 20
-27.50311
 11
171.0824
 21
-27.50311
  0
LINE
  8
0
  6
PHANTOM
 62
     2
 10
166.541
 20
-30.50311
 11
166.541
 21
-28.50311
  0
LINE
  8
0
  6
PHANTOM
 62
     2
 10
166.541
 20
-28.50311
 11
167.541
 21
-28.50311
  0
LINE
  8
0
  6
PHANTOM
 62
     2
 10
167.541
 20
-28.50311
 11
167.541
 21
-30.50311
  0
LINE
  8
0
  6
PHANTOM
 62
     2
 10
167.541
 20
-30.50311
 11
170.072
 21
-30.50311
  0
LINE
  8
0
  6
PHANTOM
 62
     2
 10
162.9995
 20
-27.30311
 11
171.0824
 21
-27.30311
  0
LINE
  8
0
  6
PHANTOM
 62
     2
 10
81.74097
 20
5.87907
 11
73.34094
 21
5.87906
  0
LINE
  8
0
  6
PHANTOM
 62
     2
 10
81.74097
 20
4.44292
 11
73.34094
 21
4.44292
  0
LINE
  8
0
  6
PHANTOM
 62
     2
 10
81.74097
 20
3.13303
 11
73.34094
 21
3.13303
  0
LINE
  8
0
  6
PHANTOM
 62
     2
 10
73.04095
 20
5.16099
 11
73.04095
 21
-1.76721
  0
LINE
  8
0
  6
PHANTOM
 62
     2
 10
81.74097
 20
0.26075
 11
73.34094
 21
0.26075
  0
LINE
  8
0
  6
PHANTOM
 62
     2
 10
81.74097
 20
-1.04914
 11
73.34097
 21
-1.04915
  0
LINE
  8
0
  6
PHANTOM
 62
     2
 10
81.74097
 20
-2.48528
 11
73.34097
 21
-2.48528
  0
LINE
  8
0
  6
PHANTOM
 62
     2
 10
73.34094
 20
4.44292
 11
73.34094
 21
3.13303
  0
LINE
  8
0
  6
PHANTOM
 62
     2
 10
73.34097
 20
-1.04914
 11
73.34094
 21
0.26075
  0
LINE
  8
0
  6
PHANTOM
 62
     2
 10
81.74097
 20
4.44292
 11
81.74097
 21
3.13303
  0
LINE
  8
0
  6
PHANTOM
 62
     2
 10
82.04095
 20
5.161
 11
82.04095
 21
-1.76721
  0
LINE
  8
0
  6
PHANTOM
 62
     2
 10
81.74097
 20
-1.04914
 11
81.74097
 21
0.26076
  0
LINE
  8
0
  6
PHANTOM
 62
     2
 10
82.04095
 20
4.69689
 11
83.54095
 21
4.69689
  0
LINE
  8
0
  6
PHANTOM
 62
     2
 10
83.54095
 20
4.69689
 11
83.54095
 21
-1.30311
  0
LINE
  8
0
  6
PHANTOM
 62
     2
 10
83.54095
 20
-1.30311
 11
82.04095
 21
-1.30311
  0
LINE
  8
0
  6
PHANTOM
 62
     2
 10
81.74097
 20
-12.12094
 11
73.34094
 21
-12.12094
  0
LINE
  8
0
  6
PHANTOM
 62
     2
 10
81.74097
 20
-13.55708
 11
73.34094
 21
-13.55708
  0
LINE
  8
0
  6
PHANTOM
 62
     2
 10
81.74097
 20
-14.86697
 11
73.34094
 21
-14.86697
  0
LINE
  8
0
  6
PHANTOM
 62
     2
 10
73.04095
 20
-12.83901
 11
73.04095
 21
-19.76721
  0
LINE
  8
0
  6
PHANTOM
 62
     2
 10
81.74097
 20
-17.73925
 11
73.34094
 21
-17.73925
  0
LINE
  8
0
  6
PHANTOM
 62
     2
 10
81.74097
 20
-19.04914
 11
73.34097
 21
-19.04915
  0
LINE
  8
0
  6
PHANTOM
 62
     2
 10
81.74097
 20
-20.48528
 11
73.34097
 21
-20.48528
  0
LINE
  8
0
  6
PHANTOM
 62
     2
 10
73.34094
 20
-13.55708
 11
73.34094
 21
-14.86697
  0
LINE
  8
0
  6
PHANTOM
 62
     2
 10
73.34097
 20
-19.04914
 11
73.34094
 21
-17.73925
  0
LINE
  8
0
  6
PHANTOM
 62
     2
 10
81.74097
 20
-13.55708
 11
81.74097
 21
-14.86697
  0
LINE
  8
0
  6
PHANTOM
 62
     2
 10
82.04095
 20
-12.83901
 11
82.04095
 21
-19.76721
  0
LINE
  8
0
  6
PHANTOM
 62
     2
 10
81.74097
 20
-19.04914
 11
81.74097
 21
-17.73924
  0
LINE
  8
0
  6
PHANTOM
 62
     2
 10
82.04095
 20
-13.30311
 11
83.54095
 21
-13.30311
  0
LINE
  8
0
  6
PHANTOM
 62
     2
 10
83.54095
 20
-13.30311
 11
83.54095
 21
-19.30311
  0
LINE
  8
0
  6
PHANTOM
 62
     2
 10
83.54095
 20
-19.30311
 11
82.04095
 21
-19.30311
  0
LINE
  8
0
  6
PHANTOM
 62
     2
 10
221.541
 20
-1.30311
 11
221.541
 21
4.69689
  0
LINE
  8
0
  6
PHANTOM
 62
     2
 10
221.541
 20
-19.30311
 11
221.541
 21
-13.30311
  0
LINE
  8
0
  6
PHANTOM
 62
     2
 10
-234.459
 20
14.69689
 11
-218.459
 21
14.69689
  0
LINE
  8
0
  6
PHANTOM
 62
     2
 10
-219.959
 20
-9.61251
 11
-219.959
 21
-4.99371
  0
LINE
  8
0
  6
PHANTOM
 62
     2
 10
-234.459
 20
-29.30311
 11
-234.459
 21
14.69689
  0
LINE
  8
0
  6
PHANTOM
 62
     2
 10
-234.459
 20
-29.30311
 11
-218.459
 21
-29.30311
  0
LINE
  8
0
  6
PHANTOM
 62
     2
 10
-219.959
 20
-9.61252
 11
-223.959
 21
-11.92192
  0
LINE
  8
0
  6
PHANTOM
 62
     2
 10
-218.459
 20
14.69689
 11
-218.459
 21
-29.30311
  0
LINE
  8
0
  6
PHANTOM
 62
     2
 10
-223.959
 20
-2.68435
 11
-219.959
 21
-4.99375
  0
LINE
  8
0
  6
PHANTOM
 62
     2
 10
-227.9591
 20
-4.99369
 11
-223.9591
 21
-2.6843
  0
LINE
  8
0
  6
PHANTOM
 62
     2
 10
-227.959
 20
-9.61251
 11
-227.959
 21
-4.99371
  0
LINE
  8
0
  6
PHANTOM
 62
     2
 10
-223.959
 20
-11.92192
 11
-227.959
 21
-9.61253
  0
LINE
  8
0
  6
PHANTOM
 62
     2
 10
-236.459
 20
11.69689
 11
-236.459
 21
5.69689
  0
LINE
  8
0
  6
PHANTOM
 62
     2
 10
-234.459
 20
-27.30311
 11
-235.459
 21
-27.30311
  0
LINE
  8
0
  6
PHANTOM
 62
     2
 10
-234.459
 20
12.69689
 11
-235.459
 21
12.69689
  0
LINE
  8
0
  6
PHANTOM
 62
     2
 10
-236.459
 20
11.69687
 11
-235.459
 21
12.69685
  0
LINE
  8
0
  6
PHANTOM
 62
     2
 10
-235.459
 20
-27.30313
 11
-236.4591
 21
-26.30311
  0
LINE
  8
0
  6
PHANTOM
 62
     2
 10
-235.459
 20
4.69689
 11
-235.459
 21
-2.30311
  0
LINE
  8
0
  6
PHANTOM
 62
     2
 10
-236.459
 20
-3.30311
 11
-236.459
 21
-11.30311
  0
LINE
  8
0
  6
PHANTOM
 62
     2
 10
-235.459
 20
-12.30311
 11
-235.459
 21
-19.30311
  0
LINE
  8
0
  6
PHANTOM
 62
     2
 10
-236.459
 20
-20.30311
 11
-236.459
 21
-26.30311
  0
LINE
  8
0
  6
PHANTOM
 62
     2
 10
-236.459
 20
5.69686
 11
-235.459
 21
4.69688
  0
LINE
  8
0
  6
PHANTOM
 62
     2
 10
-236.459
 20
-3.30313
 11
-235.459
 21
-2.30313
  0
LINE
  8
0
  6
PHANTOM
 62
     2
 10
-235.4591
 20
-12.30314
 11
-236.459
 21
-11.30316
  0
LINE
  8
0
  6
PHANTOM
 62
     2
 10
-236.4589
 20
-20.30314
 11
-235.4589
 21
-19.30313
  0
LINE
  8
0
  6
PHANTOM
 62
     2
 10
-230.459
 20
17.69689
 11
-230.459
 21
9.69689
  0
LINE
  8
0
  6
PHANTOM
 62
     2
 10
-179.459
 20
-67.80312
 11
-169.459
 21
-67.80312
  0
LINE
  8
0
  6
PHANTOM
 62
     2
 10
-179.459
 20
-67.80312
 11
-179.459
 21
-83.80312
  0
LINE
  8
0
  6
PHANTOM
 62
     2
 10
-179.459
 20
-83.80312
 11
-169.459
 21
-83.80312
  0
LINE
  8
0
  6
PHANTOM
 62
     2
 10
-159.459
 20
-85.80312
 11
-78.45905
 21
-85.80312
  0
LINE
  8
0
  6
PHANTOM
 62
     2
 10
-169.459
 20
-67.80312
 11
-169.459
 21
-83.80312
  0
LINE
  8
0
  6
PHANTOM
 62
     2
 10
-77.95905
 20
-74.30312
 11
-77.95905
 21
-75.30312
  0
LINE
  8
0
  6
PHANTOM
 62
     2
 10
-77.95907
 20
-75.30309
 11
-78.45906
 21
-75.80309
  0
LINE
  8
0
  6
PHANTOM
 62
     2
 10
-77.95914
 20
-71.30314
 11
-78.45914
 21
-70.80314
  0
LINE
  8
0
  6
PHANTOM
 62
     2
 10
-78.45905
 20
-69.80312
 11
-78.45905
 21
-85.80312
  0
LINE
  8
0
  6
PHANTOM
 62
     2
 10
-159.459
 20
-69.80312
 11
-78.45905
 21
-69.80312
  0
LINE
  8
0
  6
PHANTOM
 62
     2
 10
-159.459
 20
-84.80312
 11
-78.45905
 21
-84.80312
  0
LINE
  8
0
  6
PHANTOM
 62
     2
 10
-159.459
 20
-69.80312
 11
-159.459
 21
-85.80312
  0
LINE
  8
0
  6
PHANTOM
 62
     2
 10
-77.95905
 20
-71.30312
 11
-77.95905
 21
-74.30312
  0
LINE
  8
0
  6
PHANTOM
 62
     2
 10
-183.459
 20
-71.30312
 11
-183.459
 21
-75.30312
  0
LINE
  8
0
  6
PHANTOM
 62
     2
 10
-182.959
 20
-69.30312
 11
-179.959
 21
-69.30312
  0
LINE
  8
0
  6
PHANTOM
 62
     2
 10
-182.959
 20
-77.30312
 11
-179.959
 21
-77.30312
  0
LINE
  8
0
  6
PHANTOM
 62
     2
 10
-182.959
 20
-73.30312
 11
-179.959
 21
-73.30312
  0
LINE
  8
0
  6
PHANTOM
 62
     2
 10
-159.959
 20
-71.30309
 11
-159.459
 21
-70.80307
  0
LINE
  8
0
  6
PHANTOM
 62
     2
 10
-78.45905
 20
-80.30312
 11
-51.45905
 21
-80.30312
  0
LINE
  8
0
  6
PHANTOM
 62
     2
 10
-78.45905
 20
-74.30312
 11
-51.45905
 21
-74.30312
  0
LINE
  8
0
  6
PHANTOM
 62
     2
 10
-159.959
 20
-71.30312
 11
-159.959
 21
-74.30312
  0
LINE
  8
0
  6
PHANTOM
 62
     2
 10
-169.459
 20
-80.30312
 11
-159.459
 21
-80.30312
  0
LINE
  8
0
  6
PHANTOM
 62
     2
 10
-169.459
 20
-74.30312
 11
-159.459
 21
-74.30312
  0
LINE
  8
0
  6
PHANTOM
 62
     2
 10
-165.3591
 20
-70.80312
 11
-165.3591
 21
-74.30312
  0
LINE
  8
0
  6
PHANTOM
 62
     2
 10
-188.959
 20
-70.80312
 11
-183.4295
 21
-70.80312
  0
LINE
  8
0
  6
PHANTOM
 62
     2
 10
-189.459
 20
-71.66915
 11
-189.459
 21
-74.9371
  0
LINE
  8
0
  6
PHANTOM
 62
     2
 10
-188.959
 20
-75.80312
 11
-183.4295
 21
-75.80312
  0
LINE
  8
0
  6
PHANTOM
 62
     2
 10
-165.3591
 20
-70.80312
 11
-169.459
 21
-70.80312
  0
LINE
  8
0
  6
PHANTOM
 62
     2
 10
-164.924
 20
-71.23812
 11
-169.459
 21
-71.23812
  0
LINE
  8
0
  6
PHANTOM
 62
     2
 10
-164.459
 20
-71.70313
 11
-164.459
 21
-74.30312
  0
LINE
  8
0
  6
PHANTOM
 62
     2
 10
-165.3591
 20
-70.80315
 11
-164.4591
 21
-71.70315
  0
LINE
  8
0
  6
PHANTOM
 62
     2
 10
-189.459
 20
-74.93708
 11
-188.959
 21
-75.80312
  0
LINE
  8
0
  6
PHANTOM
 62
     2
 10
-189.4591
 20
-71.66918
 11
-188.9591
 21
-70.80316
  0
LINE
  8
0
  6
PHANTOM
 62
     2
 10
-37.45905
 20
-71.30312
 11
-37.45905
 21
-75.30312
  0
LINE
  8
0
  6
PHANTOM
 62
     2
 10
-37.95905
 20
-69.30312
 11
-40.95905
 21
-69.30312
  0
LINE
  8
0
  6
PHANTOM
 62
     2
 10
-37.95905
 20
-77.30312
 11
-40.95905
 21
-77.30312
  0
LINE
  8
0
  6
PHANTOM
 62
     2
 10
-37.95905
 20
-73.30312
 11
-40.95905
 21
-73.30312
  0
LINE
  8
0
  6
PHANTOM
 62
     2
 10
-41.45905
 20
-67.80312
 11
-51.45905
 21
-67.80312
  0
LINE
  8
0
  6
PHANTOM
 62
     2
 10
-41.45905
 20
-83.80312
 11
-51.45905
 21
-83.80312
  0
LINE
  8
0
  6
PHANTOM
 62
     2
 10
-41.45905
 20
-67.80312
 11
-41.45905
 21
-83.80312
  0
LINE
  8
0
  6
PHANTOM
 62
     2
 10
-51.45905
 20
-67.80312
 11
-51.45905
 21
-83.80312
  0
LINE
  8
0
  6
PHANTOM
 62
     2
 10
-31.95905
 20
-70.80312
 11
-37.48856
 21
-70.80312
  0
LINE
  8
0
  6
PHANTOM
 62
     2
 10
-31.45905
 20
-71.66915
 11
-31.45905
 21
-74.9371
  0
LINE
  8
0
  6
PHANTOM
 62
     2
 10
-31.95905
 20
-75.80312
 11
-37.48856
 21
-75.80312
  0
LINE
  8
0
  6
PHANTOM
 62
     2
 10
-55.55905
 20
-70.80312
 11
-51.45905
 21
-70.80312
  0
LINE
  8
0
  6
PHANTOM
 62
     2
 10
-56.45905
 20
-71.70313
 11
-56.45905
 21
-74.30312
  0
LINE
  8
0
  6
PHANTOM
 62
     2
 10
-55.55908
 20
-70.80312
 11
-56.45907
 21
-71.70311
  0
LINE
  8
0
  6
PHANTOM
 62
     2
 10
-31.45907
 20
-74.93716
 11
-31.95907
 21
-75.80316
  0
LINE
  8
0
  6
PHANTOM
 62
     2
 10
-31.45905
 20
-71.6691
 11
-31.95905
 21
-70.80307
  0
LINE
  8
0
  6
PHANTOM
 62
     2
 10
42.54095
 20
-29.30311
 11
26.54095
 21
-29.30311
  0
LINE
  8
0
  6
CONTINUOUS
 62
     7
 10
191.5011
 20
-166.9844
 11
191.5011
 21
-173.8271
  0
LINE
  8
0
  6
CONTINUOUS
 62
     7
 10
194.6292
 20
-166.2024
 11
194.6292
 21
-176.1731
  0
LINE
  8
0
  6
CONTINUOUS
 62
     7
 10
182.7034
 20
-164.6383
 11
182.7034
 21
-166.9844
  0
LINE
  8
0
  6
CONTINUOUS
 62
     7
 10
182.7034
 20
-166.9844
 11
191.5011
 21
-166.9844
  0
LINE
  8
0
  6
CONTINUOUS
 62
     7
 10
182.7034
 20
-176.1731
 11
194.6292
 21
-176.1731
  0
LINE
  8
0
  6
CONTINUOUS
 62
     7
 10
182.7034
 20
-173.8271
 11
191.5011
 21
-173.8271
  0
LINE
  8
0
  6
CONTINUOUS
 62
     7
 10
182.7034
 20
-164.6383
 11
193.0652
 21
-164.6383
  0
LINE
  8
0
  6
CONTINUOUS
 62
     7
 10
154.382
 20
-159.7753
 11
262.2472
 21
-159.7753
  0
LINE
  8
0
  6
CONTINUOUS
 62
     7
 10
-134.382
 20
159.7753
 11
-134.382
 21
180.0
  0
LINE
  8
0
  6
CONTINUOUS
 62
     7
 10
-262.2472
 20
159.7753
 11
-134.382
 21
159.7753
  0
LINE
  8
0
  6
CONTINUOUS
 62
     7
 10
-262.2472
 20
180.0
 11
262.2472
 21
180.0
  0
LINE
  8
0
  6
CONTINUOUS
 62
     7
 10
-262.2472
 20
-180.0
 11
262.2472
 21
-180.0
  0
LINE
  8
0
  6
CONTINUOUS
 62
     7
 10
262.2472
 20
180.0
 11
262.2472
 21
-180.0
  0
LINE
  8
0
  6
CONTINUOUS
 62
     7
 10
-262.2472
 20
-180.0
 11
-262.2472
 21
180.0
  0
LINE
  8
0
  6
CONTINUOUS
 62
     7
 10
196.3887
 20
-164.6383
 11
196.3887
 21
-166.9844
  0
LINE
  8
0
  6
CONTINUOUS
 62
     7
 10
207.5326
 20
-166.9844
 11
207.5326
 21
-174.6091
  0
LINE
  8
0
  6
CONTINUOUS
 62
     7
 10
154.382
 20
-159.7753
 11
154.382
 21
-180.0
  0
LINE
  8
0
  6
CONTINUOUS
 62
     7
 10
154.382
 20
180.0
 11
154.382
 21
159.7753
  0
LINE
  8
0
  6
CONTINUOUS
 62
     7
 10
154.382
 20
159.7753
 11
262.2472
 21
159.7753
  0
LINE
  8
0
  6
CONTINUOUS
 62
     7
 10
207.8454
 20
-164.4624
 11
208.9598
 21
-164.4624
  0
LINE
  8
0
  6
CONTINUOUS
 62
     7
 10
207.8454
 20
-162.8983
 11
208.9598
 21
-162.8983
  0
LINE
  8
0
  6
CONTINUOUS
 62
     7
 10
208.9598
 20
-162.8983
 11
208.9598
 21
-164.4624
  0
LINE
  8
0
  6
CONTINUOUS
 62
     7
 10
207.8454
 20
-162.8983
 11
207.8454
 21
-164.4624
  0
LINE
  8
0
  6
CONTINUOUS
 62
     7
 10
207.2588
 20
-162.8983
 11
207.2588
 21
-164.4624
  0
LINE
  8
0
  6
CONTINUOUS
 62
     7
 10
206.2618
 20
-162.8983
 11
206.2618
 21
-164.4624
  0
LINE
  8
0
  6
CONTINUOUS
 62
     7
 10
206.2618
 20
-164.4624
 11
207.2588
 21
-164.4624
  0
LINE
  8
0
  6
CONTINUOUS
 62
     7
 10
213.2023
 20
-162.8983
 11
216.3303
 21
-162.8983
  0
LINE
  8
0
  6
CONTINUOUS
 62
     7
 10
206.2618
 20
-162.8983
 11
207.2588
 21
-162.8983
  0
LINE
  8
0
  6
CONTINUOUS
 62
     7
 10
199.7572
 20
-162.8983
 11
202.3746
 21
-162.8983
  0
LINE
  8
0
  6
CONTINUOUS
 62
     7
 10
231.5801
 20
-167.1633
 11
232.4471
 21
-166.8185
  0
LINE
  8
0
  6
CONTINUOUS
 62
     7
 10
231.5798
 20
-167.1631
 11
231.5798
 21
-176.1731
  0
LINE
  8
0
  6
CONTINUOUS
 62
     7
 10
228.4517
 20
-176.1731
 11
231.5798
 21
-176.1731
  0
LINE
  8
0
  6
CONTINUOUS
 62
     7
 10
222.0
 20
-170.9732
 11
228.4517
 21
-168.4072
  0
LINE
  8
0
  6
CONTINUOUS
 62
     7
 10
222.0002
 20
-168.4484
 11
231.0869
 21
-164.8345
  0
LINE
  8
0
  6
CONTINUOUS
 62
     7
 10
228.4517
 20
-168.4072
 11
228.4517
 21
-176.1731
  0
LINE
  8
0
  6
CONTINUOUS
 62
     7
 10
231.5798
 20
-163.6022
 11
231.5798
 21
-164.1077
  0
LINE
  8
0
  6
CONTINUOUS
 62
     7
 10
233.9258
 20
-163.6022
 11
233.9258
 21
-164.6383
  0
LINE
  8
0
  6
CONTINUOUS
 62
     7
 10
222.0
 20
-168.4483
 11
222.0
 21
-170.9731
  0
LINE
  8
0
  6
CONTINUOUS
 62
     7
 10
231.5798
 20
-163.6022
 11
233.9258
 21
-163.6022
  0
LINE
  8
0
  6
CONTINUOUS
 62
     7
 10
218.0309
 20
-169.8435
 11
220.1196
 21
-168.8695
  0
LINE
  8
0
  6
CONTINUOUS
 62
     7
 10
216.3303
 20
-171.6391
 11
216.3303
 21
-176.1731
  0
LINE
  8
0
  6
CONTINUOUS
 62
     7
 10
213.2023
 20
-172.095
 11
213.2023
 21
-176.1731
  0
LINE
  8
0
  6
CONTINUOUS
 62
     7
 10
216.3303
 20
-164.6383
 11
219.4584
 21
-164.6383
  0
LINE
  8
0
  6
CONTINUOUS
 62
     7
 10
216.3303
 20
-162.8983
 11
216.3303
 21
-164.6383
  0
LINE
  8
0
  6
CONTINUOUS
 62
     7
 10
213.2023
 20
-162.8983
 11
213.2023
 21
-164.6383
  0
LINE
  8
0
  6
CONTINUOUS
 62
     7
 10
221.0225
 20
-166.2024
 11
221.0225
 21
-167.4519
  0
LINE
  8
0
  6
CONTINUOUS
 62
     7
 10
218.031
 20
-169.8436
 11
221.0228
 21
-171.2387
  0
LINE
  8
0
  6
CONTINUOUS
 62
     7
 10
216.3303
 20
-171.6391
 11
221.0225
 21
-173.8271
  0
LINE
  8
0
  6
CONTINUOUS
 62
     7
 10
209.4876
 20
-171.2385
 11
209.4876
 21
-173.8271
  0
LINE
  8
0
  6
CONTINUOUS
 62
     7
 10
209.4878
 20
-171.2386
 11
218.6108
 21
-166.9845
  0
LINE
  8
0
  6
CONTINUOUS
 62
     7
 10
209.4875
 20
-173.827
 11
213.2022
 21
-172.0949
  0
LINE
  8
0
  6
CONTINUOUS
 62
     7
 10
221.0225
 20
-171.2385
 11
221.0225
 21
-173.8271
  0
LINE
  8
0
  6
CONTINUOUS
 62
     7
 10
209.4876
 20
-164.6383
 11
209.4876
 21
-166.9844
  0
LINE
  8
0
  6
CONTINUOUS
 62
     7
 10
213.2023
 20
-176.1731
 11
216.3303
 21
-176.1731
  0
LINE
  8
0
  6
CONTINUOUS
 62
     7
 10
209.4876
 20
-166.9844
 11
218.6106
 21
-166.9844
  0
LINE
  8
0
  6
CONTINUOUS
 62
     7
 10
209.4876
 20
-164.6383
 11
213.2023
 21
-164.6383
  0
LINE
  8
0
  6
CONTINUOUS
 62
     7
 10
201.9082
 20
-164.6382
 11
202.3744
 21
-162.8982
  0
LINE
  8
0
  6
CONTINUOUS
 62
     7
 10
199.4795
 20
-164.6383
 11
199.9457
 21
-162.8983
  0
LINE
  8
0
  6
CONTINUOUS
 62
     7
 10
201.9084
 20
-164.6383
 11
205.1865
 21
-164.6383
  0
LINE
  8
0
  6
CONTINUOUS
 62
     7
 10
201.2797
 20
-166.9844
 11
204.4045
 21
-166.9844
  0
LINE
  8
0
  6
CONTINUOUS
 62
     7
 10
202.6871
 20
-176.1731
 11
205.9686
 21
-176.1731
  0
LINE
  8
0
  6
CONTINUOUS
 62
     7
 10
202.0583
 20
-173.8271
 11
202.687
 21
-176.1731
  0
LINE
  8
0
  6
CONTINUOUS
 62
     7
 10
202.0584
 20
-173.8271
 11
204.4045
 21
-173.8271
  0
LINE
  8
0
  6
CONTINUOUS
 62
     7
 10
198.8178
 20
-176.1733
 11
201.2799
 21
-166.9845
  0
LINE
  8
0
  6
CONTINUOUS
 62
     7
 10
196.3887
 20
-166.9844
 11
198.8509
 21
-166.9844
  0
LINE
  8
0
  6
CONTINUOUS
 62
     7
 10
196.3887
 20
-176.173
 11
198.8509
 21
-166.9843
  0
LINE
  8
0
  6
CONTINUOUS
 62
     7
 10
196.3887
 20
-176.1731
 11
198.8176
 21
-176.1731
  0
LINE
  8
0
  6
CONTINUOUS
 62
     7
 10
196.3887
 20
-164.6383
 11
199.4795
 21
-164.6383
  0
LINE
  8
0
  6
CONTINUOUS
 62
     7
 10
182.7034
 20
-173.8271
 11
182.7034
 21
-176.1731
  0
LINE
  8
0
  6
CONTINUOUS
 62
     7
 10
204.4045
 20
-166.9844
 11
204.4045
 21
-173.8271
  0
LINE
  8
0
  6
CONTINUOUS
 62
     7
 10
-3.54095
 20
-180.0
 11
-3.54095
 21
180.0
  0
LINE
  8
0
  6
CONTINUOUS
 62
     7
 10
-178.459
 20
-75.80312
 11
-178.459
 21
-83.80312
  0
LINE
  8
0
  6
CONTINUOUS
 62
     7
 10
-178.459
 20
-75.80312
 11
-42.45905
 21
-75.80312
  0
LINE
  8
0
  6
CONTINUOUS
 62
     7
 10
-178.459
 20
-83.80312
 11
-42.45905
 21
-83.80312
  0
LINE
  8
0
  6
CENTER
 62
     2
 10
-176.459
 20
-79.80312
 11
-167.459
 21
-79.80312
  0
LINE
  8
0
  6
CENTER
 62
     2
 10
-44.45905
 20
-79.80312
 11
-53.45905
 21
-79.80312
  0
LINE
  8
0
  6
CENTER
 62
     2
 10
-171.959
 20
-84.30312
 11
-171.959
 21
-75.30312
  0
LINE
  8
0
  6
CONTINUOUS
 62
     7
 10
-42.45905
 20
-75.80312
 11
-42.45905
 21
-78.10313
  0
LINE
  8
0
  6
CENTER
 62
     2
 10
-48.95905
 20
-84.30312
 11
-48.95905
 21
-75.30312
  0
LINE
  8
0
  6
CONTINUOUS
 62
     7
 10
-49.95905
 20
-78.10313
 11
-42.45905
 21
-78.10313
  0
LINE
  8
0
  6
CONTINUOUS
 62
     7
 10
-49.95905
 20
-81.50312
 11
-42.45905
 21
-81.50312
  0
LINE
  8
0
  6
CONTINUOUS
 62
     7
 10
-42.45905
 20
-81.50312
 11
-42.45905
 21
-83.80312
  0
LINE
  8
0
  6
CONTINUOUS
 62
     7
 10
-130.459
 20
-61.80312
 11
-125.459
 21
-61.80312
  0
LINE
  8
0
  6
CONTINUOUS
 62
     7
 10
-130.459
 20
-61.80312
 11
-130.459
 21
-63.80312
  0
LINE
  8
0
  6
CONTINUOUS
 62
     7
 10
-125.459
 20
-61.80312
 11
-125.459
 21
-63.80312
  0
LINE
  8
0
  6
CONTINUOUS
 62
     7
 10
-136.959
 20
-64.30312
 11
-130.959
 21
-64.30312
  0
LINE
  8
0
  6
CONTINUOUS
 62
     7
 10
-134.209
 20
-62.30312
 11
-133.709
 21
-62.30312
  0
LINE
  8
0
  6
CONTINUOUS
 62
     7
 10
-135.709
 20
-62.80312
 11
-134.959
 21
-62.80312
  0
LINE
  8
0
  6
CONTINUOUS
 62
     7
 10
-134.459
 20
-63.30312
 11
-134.459
 21
-63.70313
  0
LINE
  8
0
  6
CONTINUOUS
 62
     7
 10
-133.459
 20
-63.30312
 11
-133.459
 21
-63.70313
  0
LINE
  8
0
  6
CONTINUOUS
 62
     7
 10
-132.959
 20
-62.80312
 11
-132.209
 21
-62.80312
  0
LINE
  8
0
  6
CONTINUOUS
 62
     7
 10
-134.459
 20
-63.70313
 11
-133.459
 21
-63.70313
  0
LINE
  8
0
  6
CONTINUOUS
 62
     7
 10
-144.959
 20
-63.80312
 11
-136.5003
 21
-63.80312
  0
LINE
  8
0
  6
CONTINUOUS
 62
     7
 10
-144.959
 20
-63.80312
 11
-144.959
 21
-74.80312
  0
LINE
  8
0
  6
CONTINUOUS
 62
     7
 10
-122.959
 20
-63.80312
 11
-122.959
 21
-74.80312
  0
LINE
  8
0
  6
CONTINUOUS
 62
     7
 10
-144.959
 20
-64.80312
 11
-122.959
 21
-64.80312
  0
LINE
  8
0
  6
CONTINUOUS
 62
     7
 10
-138.459
 20
-64.80312
 11
-138.459
 21
-71.80312
  0
LINE
  8
0
  6
CONTINUOUS
 62
     7
 10
-129.459
 20
-64.80312
 11
-129.459
 21
-71.80312
  0
LINE
  8
0
  6
CONTINUOUS
 62
     7
 10
-131.4178
 20
-63.80312
 11
-122.959
 21
-63.80312
  0
LINE
  8
0
  6
CENTER
 62
     2
 10
-133.959
 20
-60.5587
 11
-133.959
 21
-75.35313
  0
LINE
  8
0
  6
CONTINUOUS
 62
     7
 10
-129.659
 20
-58.50312
 11
-129.659
 21
-61.80312
  0
LINE
  8
0
  6
CENTER
 62
     2
 10
-127.959
 20
-54.94794
 11
-127.959
 21
-65.30215
  0
LINE
  8
0
  6
CENTER
 62
     2
 10
-131.1329
 20
-58.50312
 11
-125.0145
 21
-58.50312
  0
LINE
  8
0
  6
CONTINUOUS
 62
     7
 10
-126.259
 20
-58.50312
 11
-126.259
 21
-61.80312
  0
LINE
  8
0
  6
CONTINUOUS
 62
     7
 10
-144.959
 20
-74.80312
 11
-122.959
 21
-74.80312
  0
LINE
  8
0
  6
CONTINUOUS
 62
     7
 10
-138.459
 20
-69.80312
 11
-129.459
 21
-69.80312
  0
LINE
  8
0
  6
CONTINUOUS
 62
     7
 10
-138.459
 20
-71.80312
 11
-137.359
 21
-71.80312
  0
LINE
  8
0
  6
CONTINUOUS
 62
     7
 10
-137.359
 20
-71.80312
 11
-137.359
 21
-69.80312
  0
LINE
  8
0
  6
CONTINUOUS
 62
     7
 10
-130.5591
 20
-71.80312
 11
-130.5591
 21
-69.80312
  0
LINE
  8
0
  6
CONTINUOUS
 62
     7
 10
-129.459
 20
-71.80312
 11
-130.5591
 21
-71.80312
  0
LINE
  8
0
  6
CONTINUOUS
 62
     7
 10
-130.959
 20
-64.30312
 11
-130.959
 21
-64.80312
  0
LINE
  8
0
  6
CONTINUOUS
 62
     7
 10
-136.959
 20
-64.30312
 11
-136.959
 21
-64.80312
  0
LINE
  8
0
  6
CONTINUOUS
 62
     7
 10
-136.459
 20
-70.90312
 11
-131.459
 21
-70.90312
  0
LINE
  8
0
  6
CONTINUOUS
 62
     7
 10
-131.459
 20
-70.90312
 11
-131.459
 21
-72.40312
  0
LINE
  8
0
  6
CONTINUOUS
 62
     7
 10
-131.459
 20
-72.40312
 11
-136.459
 21
-72.40312
  0
LINE
  8
0
  6
CONTINUOUS
 62
     7
 10
-136.459
 20
-72.40312
 11
-136.459
 21
-70.90312
  0
LINE
  8
0
  6
CONTINUOUS
 62
     7
 10
-135.459
 20
-70.90312
 11
-135.459
 21
-69.80312
  0
LINE
  8
0
  6
CONTINUOUS
 62
     7
 10
-134.959
 20
-69.80312
 11
-134.959
 21
-70.90312
  0
LINE
  8
0
  6
CONTINUOUS
 62
     7
 10
-132.959
 20
-70.90312
 11
-132.959
 21
-69.80312
  0
LINE
  8
0
  6
CONTINUOUS
 62
     7
 10
-132.459
 20
-69.80312
 11
-132.459
 21
-70.90312
  0
LINE
  8
0
  6
CONTINUOUS
 62
     7
 10
-105.459
 20
-61.80312
 11
-100.459
 21
-61.80312
  0
LINE
  8
0
  6
CONTINUOUS
 62
     7
 10
-105.459
 20
-61.80312
 11
-105.459
 21
-63.80312
  0
LINE
  8
0
  6
CONTINUOUS
 62
     7
 10
-100.459
 20
-61.80312
 11
-100.459
 21
-63.80312
  0
LINE
  8
0
  6
CONTINUOUS
 62
     7
 10
-111.959
 20
-64.30312
 11
-105.959
 21
-64.30312
  0
LINE
  8
0
  6
CONTINUOUS
 62
     7
 10
-109.209
 20
-62.30312
 11
-108.709
 21
-62.30312
  0
LINE
  8
0
  6
CONTINUOUS
 62
     7
 10
-110.709
 20
-62.80312
 11
-109.959
 21
-62.80312
  0
LINE
  8
0
  6
CONTINUOUS
 62
     7
 10
-109.459
 20
-63.30312
 11
-109.459
 21
-63.70313
  0
LINE
  8
0
  6
CONTINUOUS
 62
     7
 10
-108.459
 20
-63.30312
 11
-108.459
 21
-63.70313
  0
LINE
  8
0
  6
CONTINUOUS
 62
     7
 10
-107.959
 20
-62.80312
 11
-107.209
 21
-62.80312
  0
LINE
  8
0
  6
CONTINUOUS
 62
     7
 10
-109.459
 20
-63.70313
 11
-108.459
 21
-63.70313
  0
LINE
  8
0
  6
CONTINUOUS
 62
     7
 10
-119.959
 20
-63.80312
 11
-111.5003
 21
-63.80312
  0
LINE
  8
0
  6
CONTINUOUS
 62
     7
 10
-119.959
 20
-63.80312
 11
-119.959
 21
-74.80312
  0
LINE
  8
0
  6
CONTINUOUS
 62
     7
 10
-97.95904
 20
-63.80312
 11
-97.95904
 21
-74.80312
  0
LINE
  8
0
  6
CONTINUOUS
 62
     7
 10
-119.959
 20
-64.80312
 11
-97.95904
 21
-64.80312
  0
LINE
  8
0
  6
CONTINUOUS
 62
     7
 10
-113.459
 20
-64.80312
 11
-113.459
 21
-71.80312
  0
LINE
  8
0
  6
CONTINUOUS
 62
     7
 10
-104.459
 20
-64.80312
 11
-104.459
 21
-71.80312
  0
LINE
  8
0
  6
CONTINUOUS
 62
     7
 10
-106.4177
 20
-63.80312
 11
-97.95904
 21
-63.80312
  0
LINE
  8
0
  6
CENTER
 62
     2
 10
-108.959
 20
-60.5587
 11
-108.959
 21
-75.35313
  0
LINE
  8
0
  6
CONTINUOUS
 62
     7
 10
-104.659
 20
-58.50312
 11
-104.659
 21
-61.80312
  0
LINE
  8
0
  6
CENTER
 62
     2
 10
-102.959
 20
-54.94794
 11
-102.959
 21
-65.30215
  0
LINE
  8
0
  6
CENTER
 62
     2
 10
-106.1329
 20
-58.50312
 11
-100.0145
 21
-58.50312
  0
LINE
  8
0
  6
CONTINUOUS
 62
     7
 10
-101.259
 20
-58.50312
 11
-101.259
 21
-61.80312
  0
LINE
  8
0
  6
CONTINUOUS
 62
     7
 10
-119.959
 20
-74.80312
 11
-97.95903
 21
-74.80312
  0
LINE
  8
0
  6
CONTINUOUS
 62
     7
 10
-113.459
 20
-69.80312
 11
-104.459
 21
-69.80312
  0
LINE
  8
0
  6
CONTINUOUS
 62
     7
 10
-113.459
 20
-71.80312
 11
-112.359
 21
-71.80312
  0
LINE
  8
0
  6
CONTINUOUS
 62
     7
 10
-112.359
 20
-71.80312
 11
-112.359
 21
-69.80312
  0
LINE
  8
0
  6
CONTINUOUS
 62
     7
 10
-105.559
 20
-71.80312
 11
-105.559
 21
-69.80312
  0
LINE
  8
0
  6
CONTINUOUS
 62
     7
 10
-104.459
 20
-71.80312
 11
-105.559
 21
-71.80312
  0
LINE
  8
0
  6
CONTINUOUS
 62
     7
 10
-105.959
 20
-64.30312
 11
-105.959
 21
-64.80312
  0
LINE
  8
0
  6
CONTINUOUS
 62
     7
 10
-111.959
 20
-64.30312
 11
-111.959
 21
-64.80312
  0
LINE
  8
0
  6
CONTINUOUS
 62
     7
 10
-111.459
 20
-70.90312
 11
-106.459
 21
-70.90312
  0
LINE
  8
0
  6
CONTINUOUS
 62
     7
 10
-106.459
 20
-70.90312
 11
-106.459
 21
-72.40312
  0
LINE
  8
0
  6
CONTINUOUS
 62
     7
 10
-106.459
 20
-72.40312
 11
-111.459
 21
-72.40312
  0
LINE
  8
0
  6
CONTINUOUS
 62
     7
 10
-111.459
 20
-72.40312
 11
-111.459
 21
-70.90312
  0
LINE
  8
0
  6
CONTINUOUS
 62
     7
 10
-110.459
 20
-70.90312
 11
-110.459
 21
-69.80312
  0
LINE
  8
0
  6
CONTINUOUS
 62
     7
 10
-109.959
 20
-69.80312
 11
-109.959
 21
-70.90312
  0
LINE
  8
0
  6
CONTINUOUS
 62
     7
 10
-107.959
 20
-70.90312
 11
-107.959
 21
-69.80312
  0
LINE
  8
0
  6
CONTINUOUS
 62
     7
 10
-107.459
 20
-69.80312
 11
-107.459
 21
-70.90312
  0
LINE
  8
0
  6
CONTINUOUS
 62
     7
 10
-178.4591
 20
19.69689
 11
-178.4591
 21
14.69689
  0
LINE
  8
0
  6
CONTINUOUS
 62
     7
 10
-178.4591
 20
14.69689
 11
-144.9591
 21
14.69689
  0
LINE
  8
0
  6
CONTINUOUS
 62
     7
 10
-178.4591
 20
19.69689
 11
-144.9591
 21
19.69689
  0
LINE
  8
0
  6
CONTINUOUS
 62
     7
 10
-42.45909
 20
19.69689
 11
-42.45909
 21
14.69689
  0
LINE
  8
0
  6
CENTER
 62
     2
 10
-171.9591
 20
22.69689
 11
-171.9591
 21
11.69689
  0
LINE
  8
0
  6
CENTER
 62
     2
 10
-48.95909
 20
22.69689
 11
-48.95909
 21
11.69689
  0
LINE
  8
0
  6
CONTINUOUS
 62
     7
 10
-122.9591
 20
14.69689
 11
-119.9591
 21
14.69689
  0
LINE
  8
0
  6
CONTINUOUS
 62
     7
 10
-97.95909
 20
14.69689
 11
-42.45909
 21
14.69689
  0
LINE
  8
0
  6
CONTINUOUS
 62
     7
 10
-122.9591
 20
19.69689
 11
-119.9591
 21
19.69689
  0
LINE
  8
0
  6
CONTINUOUS
 62
     7
 10
-97.95909
 20
19.69689
 11
-42.45909
 21
19.69689
  0
LINE
  8
0
  6
CONTINUOUS
 62
     7
 10
-144.9591
 20
13.19689
 11
-122.9591
 21
13.19689
  0
LINE
  8
0
  6
CONTINUOUS
 62
     7
 10
-144.9591
 20
20.19689
 11
-144.9591
 21
13.19689
  0
LINE
  8
0
  6
CENTER
 62
     2
 10
-133.9591
 20
23.1323
 11
-133.9591
 21
2.94689
  0
LINE
  8
0
  6
CONTINUOUS
 62
     7
 10
-122.9591
 20
20.19689
 11
-122.9591
 21
13.19689
  0
LINE
  8
0
  6
CENTER
 62
     2
 10
-141.2786
 20
9.19689
 11
-127.2786
 21
9.19689
  0
LINE
  8
0
  6
CONTINUOUS
 62
     7
 10
-138.4591
 20
13.19689
 11
-138.4591
 21
6.69689
  0
LINE
  8
0
  6
CONTINUOUS
 62
     7
 10
-129.4591
 20
13.19689
 11
-129.4591
 21
6.69689
  0
LINE
  8
0
  6
CONTINUOUS
 62
     7
 10
-135.8956
 20
9.69689
 11
-134.4591
 21
9.69689
  0
LINE
  8
0
  6
CONTINUOUS
 62
     7
 10
-135.8956
 20
8.69689
 11
-134.4591
 21
8.69689
  0
LINE
  8
0
  6
CONTINUOUS
 62
     7
 10
-133.4591
 20
11.13339
 11
-133.4591
 21
9.69689
  0
LINE
  8
0
  6
CONTINUOUS
 62
     7
 10
-134.4591
 20
11.13339
 11
-134.4591
 21
9.69689
  0
LINE
  8
0
  6
CONTINUOUS
 62
     7
 10
-134.4591
 20
8.69689
 11
-134.4591
 21
7.2604
  0
LINE
  8
0
  6
CONTINUOUS
 62
     7
 10
-133.4591
 20
9.69689
 11
-132.0226
 21
9.69689
  0
LINE
  8
0
  6
CONTINUOUS
 62
     7
 10
-133.4591
 20
8.69689
 11
-133.4591
 21
7.2604
  0
LINE
  8
0
  6
CONTINUOUS
 62
     7
 10
-133.4591
 20
8.69689
 11
-132.0226
 21
8.69689
  0
LINE
  8
0
  6
CENTER
 62
     2
 10
-127.9591
 20
26.07189
 11
-127.9591
 21
11.07189
  0
LINE
  8
0
  6
CENTER
 62
     2
 10
-133.4591
 20
16.69689
 11
-122.4591
 21
16.69689
  0
LINE
  8
0
  6
CONTINUOUS
 62
     7
 10
-129.6591
 20
22.53034
 11
-129.6591
 21
16.69689
  0
LINE
  8
0
  6
CONTINUOUS
 62
     7
 10
-126.2591
 20
23.44137
 11
-126.2591
 21
16.69689
  0
LINE
  8
0
  6
CONTINUOUS
 62
     7
 10
-131.0888
 20
22.14724
 11
-124.2932
 21
23.96812
  0
LINE
  8
0
  6
CONTINUOUS
 62
     7
 10
-136.4591
 20
4.69689
 11
-131.4591
 21
4.69689
  0
LINE
  8
0
  6
CONTINUOUS
 62
     7
 10
-144.9591
 20
20.19689
 11
-129.6591
 21
20.19689
  0
LINE
  8
0
  6
CONTINUOUS
 62
     7
 10
-126.2591
 20
20.19689
 11
-122.9591
 21
20.19689
  0
LINE
  8
0
  6
CONTINUOUS
 62
     7
 10
-119.9591
 20
13.19689
 11
-97.95909
 21
13.19689
  0
LINE
  8
0
  6
CONTINUOUS
 62
     7
 10
-119.9591
 20
20.19689
 11
-119.9591
 21
13.19689
  0
LINE
  8
0
  6
CENTER
 62
     2
 10
-108.9591
 20
23.1323
 11
-108.9591
 21
2.94689
  0
LINE
  8
0
  6
CONTINUOUS
 62
     7
 10
-97.95909
 20
20.19689
 11
-97.95909
 21
13.19689
  0
LINE
  8
0
  6
CENTER
 62
     2
 10
-116.2786
 20
9.19689
 11
-102.2786
 21
9.19689
  0
LINE
  8
0
  6
CONTINUOUS
 62
     7
 10
-113.4591
 20
13.19689
 11
-113.4591
 21
6.69689
  0
LINE
  8
0
  6
CONTINUOUS
 62
     7
 10
-104.4591
 20
13.19689
 11
-104.4591
 21
6.69689
  0
LINE
  8
0
  6
CONTINUOUS
 62
     7
 10
-110.8956
 20
9.69689
 11
-109.4591
 21
9.69689
  0
LINE
  8
0
  6
CONTINUOUS
 62
     7
 10
-110.8956
 20
8.69689
 11
-109.4591
 21
8.69689
  0
LINE
  8
0
  6
CONTINUOUS
 62
     7
 10
-108.4591
 20
11.13339
 11
-108.4591
 21
9.69689
  0
LINE
  8
0
  6
CONTINUOUS
 62
     7
 10
-109.4591
 20
11.13339
 11
-109.4591
 21
9.69689
  0
LINE
  8
0
  6
CONTINUOUS
 62
     7
 10
-109.4591
 20
8.69689
 11
-109.4591
 21
7.2604
  0
LINE
  8
0
  6
CONTINUOUS
 62
     7
 10
-108.4591
 20
9.69689
 11
-107.0226
 21
9.69689
  0
LINE
  8
0
  6
CONTINUOUS
 62
     7
 10
-108.4591
 20
8.69689
 11
-108.4591
 21
7.2604
  0
LINE
  8
0
  6
CONTINUOUS
 62
     7
 10
-108.4591
 20
8.69689
 11
-107.0226
 21
8.69689
  0
LINE
  8
0
  6
CENTER
 62
     2
 10
-102.9591
 20
26.07189
 11
-102.9591
 21
11.07189
  0
LINE
  8
0
  6
CENTER
 62
     2
 10
-108.4591
 20
16.69689
 11
-97.45909
 21
16.69689
  0
LINE
  8
0
  6
CONTINUOUS
 62
     7
 10
-104.6591
 20
22.53034
 11
-104.6591
 21
16.69689
  0
LINE
  8
0
  6
CONTINUOUS
 62
     7
 10
-101.2591
 20
23.44137
 11
-101.2591
 21
16.69689
  0
LINE
  8
0
  6
CONTINUOUS
 62
     7
 10
-106.0888
 20
22.14724
 11
-99.29321
 21
23.96811
  0
LINE
  8
0
  6
CONTINUOUS
 62
     7
 10
-111.4591
 20
4.69689
 11
-106.4591
 21
4.69689
  0
LINE
  8
0
  6
CONTINUOUS
 62
     7
 10
-119.9591
 20
20.19689
 11
-104.6591
 21
20.19689
  0
LINE
  8
0
  6
CONTINUOUS
 62
     7
 10
-101.2591
 20
20.19689
 11
-97.95909
 21
20.19689
  0
LINE
  8
0
  6
CONTINUOUS
 62
     7
 10
-178.4591
 20
74.19691
 11
-178.4591
 21
66.19691
  0
LINE
  8
0
  6
CONTINUOUS
 62
     7
 10
-178.4591
 20
71.84692
 11
-174.2213
 21
71.84692
  0
LINE
  8
0
  6
CONTINUOUS
 62
     7
 10
-178.4591
 20
66.19691
 11
-42.45909
 21
66.19696
  0
LINE
  8
0
  6
CENTER
 62
     2
 10
-176.4591
 20
70.19691
 11
-167.4591
 21
70.19691
  0
LINE
  8
0
  6
CENTER
 62
     2
 10
-44.45909
 20
70.19695
 11
-53.45909
 21
70.19695
  0
LINE
  8
0
  6
CENTER
 62
     2
 10
-171.9591
 20
65.69691
 11
-171.9591
 21
74.69691
  0
LINE
  8
0
  6
CONTINUOUS
 62
     7
 10
-42.45909
 20
74.19696
 11
-42.45909
 21
71.89696
  0
LINE
  8
0
  6
CENTER
 62
     2
 10
-48.95909
 20
65.69695
 11
-48.95909
 21
74.69695
  0
LINE
  8
0
  6
CONTINUOUS
 62
     7
 10
-46.73423
 20
71.89696
 11
-42.45909
 21
71.89696
  0
LINE
  8
0
  6
CONTINUOUS
 62
     7
 10
-46.73423
 20
68.49696
 11
-42.45909
 21
68.49696
  0
LINE
  8
0
  6
CONTINUOUS
 62
     7
 10
-42.45909
 20
68.49696
 11
-42.45909
 21
66.19696
  0
LINE
  8
0
  6
CONTINUOUS
 62
     7
 10
-178.4591
 20
74.19691
 11
-42.45909
 21
74.19696
  0
LINE
  8
0
  6
CONTINUOUS
 62
     7
 10
-178.4591
 20
68.54691
 11
-174.2213
 21
68.54691
  0
LINE
  8
0
  6
CONTINUOUS
 62
     7
 10
-169.6969
 20
71.84692
 11
-52.22128
 21
71.84695
  0
LINE
  8
0
  6
CONTINUOUS
 62
     7
 10
-169.6969
 20
68.54691
 11
-52.22128
 21
68.54695
  0
LINE
  8
0
  6
CONTINUOUS
 62
     7
 10
-49.95909
 20
72.99696
 11
-42.45909
 21
72.99696
  0
LINE
  8
0
  6
CONTINUOUS
 62
     7
 10
-49.95909
 20
67.39696
 11
-42.45909
 21
67.39696
  0
LINE
  8
0
  6
CONTINUOUS
 62
     7
 10
-172.4591
 20
72.13341
 11
-172.4591
 21
70.69691
  0
LINE
  8
0
  6
CONTINUOUS
 62
     7
 10
-171.4591
 20
72.13341
 11
-171.4591
 21
70.69691
  0
LINE
  8
0
  6
CONTINUOUS
 62
     7
 10
-171.4591
 20
70.69691
 11
-170.0226
 21
70.69691
  0
LINE
  8
0
  6
CONTINUOUS
 62
     7
 10
-171.4591
 20
69.69691
 11
-170.0226
 21
69.69691
  0
LINE
  8
0
  6
CONTINUOUS
 62
     7
 10
-171.4591
 20
69.69691
 11
-171.4591
 21
68.26043
  0
LINE
  8
0
  6
CONTINUOUS
 62
     7
 10
-172.4591
 20
69.69691
 11
-172.4591
 21
68.26042
  0
LINE
  8
0
  6
CONTINUOUS
 62
     7
 10
-173.8956
 20
69.69691
 11
-172.4591
 21
69.69691
  0
LINE
  8
0
  6
CONTINUOUS
 62
     7
 10
-173.8956
 20
70.69691
 11
-172.4591
 21
70.69691
  0
LINE
  8
0
  6
CONTINUOUS
 62
     7
 10
-49.45909
 20
72.13345
 11
-49.45909
 21
70.69695
  0
LINE
  8
0
  6
CONTINUOUS
 62
     7
 10
-48.45909
 20
72.13345
 11
-48.45909
 21
70.69695
  0
LINE
  8
0
  6
CONTINUOUS
 62
     7
 10
-48.45909
 20
70.69695
 11
-47.0226
 21
70.69695
  0
LINE
  8
0
  6
CONTINUOUS
 62
     7
 10
-48.45909
 20
69.69695
 11
-47.0226
 21
69.69695
  0
LINE
  8
0
  6
CONTINUOUS
 62
     7
 10
-48.45909
 20
69.69695
 11
-48.45909
 21
68.26047
  0
LINE
  8
0
  6
CONTINUOUS
 62
     7
 10
-49.45909
 20
69.69695
 11
-49.45909
 21
68.26047
  0
LINE
  8
0
  6
CONTINUOUS
 62
     7
 10
-50.89558
 20
69.69695
 11
-49.45909
 21
69.69695
  0
LINE
  8
0
  6
CONTINUOUS
 62
     7
 10
-50.89558
 20
70.69695
 11
-49.45909
 21
70.69695
  0
LINE
  8
0
  6
CONTINUOUS
 62
     7
 10
-100.4591
 20
52.19693
 11
-105.4591
 21
52.19693
  0
LINE
  8
0
  6
CONTINUOUS
 62
     7
 10
-100.4591
 20
52.19693
 11
-100.4591
 21
54.19693
  0
LINE
  8
0
  6
CONTINUOUS
 62
     7
 10
-105.4591
 20
52.19693
 11
-105.4591
 21
54.19693
  0
LINE
  8
0
  6
CONTINUOUS
 62
     7
 10
-97.95908
 20
54.19693
 11
-119.9591
 21
54.19693
  0
LINE
  8
0
  6
CONTINUOUS
 62
     7
 10
-97.95908
 20
54.19693
 11
-97.95908
 21
65.19693
  0
LINE
  8
0
  6
CONTINUOUS
 62
     7
 10
-97.95908
 20
62.19693
 11
-119.9591
 21
62.19693
  0
LINE
  8
0
  6
CONTINUOUS
 62
     7
 10
-119.9591
 20
54.19693
 11
-119.9591
 21
65.19693
  0
LINE
  8
0
  6
CENTER
 62
     2
 10
-99.78521
 20
48.89693
 11
-105.9036
 21
48.89693
  0
LINE
  8
0
  6
CENTER
 62
     2
 10
-102.9591
 20
45.34174
 11
-102.9591
 21
55.69595
  0
LINE
  8
0
  6
CONTINUOUS
 62
     7
 10
-101.2591
 20
48.89693
 11
-101.2591
 21
52.19693
  0
LINE
  8
0
  6
CONTINUOUS
 62
     7
 10
-104.6591
 20
48.89693
 11
-104.6591
 21
52.19693
  0
LINE
  8
0
  6
CONTINUOUS
 62
     7
 10
-97.95908
 20
65.19693
 11
-119.9591
 21
65.19693
  0
LINE
  8
0
  6
CONTINUOUS
 62
     7
 10
-109.2091
 20
52.69693
 11
-108.7091
 21
52.69693
  0
LINE
  8
0
  6
CONTINUOUS
 62
     7
 10
-110.7091
 20
53.19693
 11
-109.9591
 21
53.19693
  0
LINE
  8
0
  6
CONTINUOUS
 62
     7
 10
-109.4591
 20
53.69693
 11
-109.4591
 21
54.09693
  0
LINE
  8
0
  6
CONTINUOUS
 62
     7
 10
-108.4591
 20
53.69693
 11
-108.4591
 21
54.09693
  0
LINE
  8
0
  6
CONTINUOUS
 62
     7
 10
-107.9591
 20
53.19693
 11
-107.2091
 21
53.19693
  0
LINE
  8
0
  6
CONTINUOUS
 62
     7
 10
-109.4591
 20
54.09693
 11
-108.4591
 21
54.09693
  0
LINE
  8
0
  6
CENTER
 62
     2
 10
-108.9591
 20
50.95251
 11
-108.9591
 21
65.74693
  0
LINE
  8
0
  6
CONTINUOUS
 62
     7
 10
-125.4591
 20
52.19692
 11
-130.4591
 21
52.19692
  0
LINE
  8
0
  6
CONTINUOUS
 62
     7
 10
-125.4591
 20
52.19692
 11
-125.4591
 21
54.19692
  0
LINE
  8
0
  6
CONTINUOUS
 62
     7
 10
-130.4591
 20
52.19692
 11
-130.4591
 21
54.19692
  0
LINE
  8
0
  6
CONTINUOUS
 62
     7
 10
-122.9591
 20
54.19692
 11
-144.9591
 21
54.19692
  0
LINE
  8
0
  6
CONTINUOUS
 62
     7
 10
-122.9591
 20
54.19692
 11
-122.9591
 21
65.19692
  0
LINE
  8
0
  6
CONTINUOUS
 62
     7
 10
-122.9591
 20
62.19692
 11
-144.9591
 21
62.19692
  0
LINE
  8
0
  6
CONTINUOUS
 62
     7
 10
-144.9591
 20
54.19692
 11
-144.9591
 21
65.19692
  0
LINE
  8
0
  6
CENTER
 62
     2
 10
-124.7852
 20
48.89692
 11
-130.9036
 21
48.89693
  0
LINE
  8
0
  6
CENTER
 62
     2
 10
-127.9591
 20
45.34174
 11
-127.9591
 21
55.69595
  0
LINE
  8
0
  6
CONTINUOUS
 62
     7
 10
-126.2591
 20
48.89692
 11
-126.2591
 21
52.19692
  0
LINE
  8
0
  6
CONTINUOUS
 62
     7
 10
-129.6591
 20
48.89692
 11
-129.6591
 21
52.19692
  0
LINE
  8
0
  6
CONTINUOUS
 62
     7
 10
-122.9591
 20
65.19692
 11
-144.9591
 21
65.19692
  0
LINE
  8
0
  6
CONTINUOUS
 62
     7
 10
-134.2091
 20
52.69692
 11
-133.7091
 21
52.69692
  0
LINE
  8
0
  6
CONTINUOUS
 62
     7
 10
-135.7091
 20
53.19692
 11
-134.9591
 21
53.19692
  0
LINE
  8
0
  6
CONTINUOUS
 62
     7
 10
-134.4591
 20
53.69692
 11
-134.4591
 21
54.09692
  0
LINE
  8
0
  6
CONTINUOUS
 62
     7
 10
-133.4591
 20
53.69692
 11
-133.4591
 21
54.09692
  0
LINE
  8
0
  6
CONTINUOUS
 62
     7
 10
-132.9591
 20
53.19692
 11
-132.2091
 21
53.19692
  0
LINE
  8
0
  6
CONTINUOUS
 62
     7
 10
-134.4591
 20
54.09692
 11
-133.4591
 21
54.09692
  0
LINE
  8
0
  6
CENTER
 62
     2
 10
-133.9591
 20
50.9525
 11
-133.9591
 21
65.74693
  0
LINE
  8
0
  6
CONTINUOUS
 62
     7
 10
-230.209
 20
18.29689
 11
-230.709
 21
18.29689
  0
LINE
  8
0
  6
CONTINUOUS
 62
     7
 10
-227.7596
 20
16.29689
 11
-233.1585
 21
16.29689
  0
LINE
  8
0
  6
CONTINUOUS
 62
     7
 10
-232.109
 20
19.69689
 11
-234.459
 21
19.69689
  0
LINE
  8
0
  6
CONTINUOUS
 62
     7
 10
-227.5591
 20
18.59689
 11
-227.5591
 21
15.79689
  0
LINE
  8
0
  6
CONTINUOUS
 62
     7
 10
-228.709
 20
17.79689
 11
-229.459
 21
17.79689
  0
LINE
  8
0
  6
CONTINUOUS
 62
     7
 10
-229.959
 20
17.29689
 11
-229.959
 21
16.89689
  0
LINE
  8
0
  6
CONTINUOUS
 62
     7
 10
-230.959
 20
17.29689
 11
-230.959
 21
16.89689
  0
LINE
  8
0
  6
CONTINUOUS
 62
     7
 10
-231.459
 20
17.79689
 11
-232.209
 21
17.79689
  0
LINE
  8
0
  6
CONTINUOUS
 62
     7
 10
-229.959
 20
16.89689
 11
-230.959
 21
16.89689
  0
LINE
  8
0
  6
CENTER
 62
     2
 10
-230.459
 20
20.12199
 11
-230.459
 21
11.69689
  0
LINE
  8
0
  6
CONTINUOUS
 62
     7
 10
-227.7596
 20
16.29689
 11
-227.7596
 21
15.79689
  0
LINE
  8
0
  6
CONTINUOUS
 62
     7
 10
-233.1585
 20
16.29689
 11
-233.1585
 21
15.79689
  0
LINE
  8
0
  6
CONTINUOUS
 62
     7
 10
-227.5591
 20
15.79689
 11
-233.359
 21
15.79689
  0
LINE
  8
0
  6
CONTINUOUS
 62
     7
 10
-233.359
 20
18.59689
 11
-232.109
 21
18.59689
  0
LINE
  8
0
  6
CONTINUOUS
 62
     7
 10
-233.359
 20
15.79689
 11
-233.359
 21
18.59689
  0
LINE
  8
0
  6
CONTINUOUS
 62
     7
 10
-232.109
 20
18.59689
 11
-232.109
 21
19.69689
  0
LINE
  8
0
  6
CONTINUOUS
 62
     7
 10
-234.459
 20
14.69689
 11
-226.459
 21
14.69689
  0
LINE
  8
0
  6
CONTINUOUS
 62
     7
 10
-226.459
 20
14.69689
 11
-226.459
 21
19.69689
  0
LINE
  8
0
  6
CONTINUOUS
 62
     7
 10
-226.459
 20
19.69689
 11
-228.8091
 21
19.69689
  0
LINE
  8
0
  6
CONTINUOUS
 62
     7
 10
-234.459
 20
19.69689
 11
-234.459
 21
14.69689
  0
LINE
  8
0
  6
CONTINUOUS
 62
     7
 10
-228.8091
 20
19.69689
 11
-228.8091
 21
18.59689
  0
LINE
  8
0
  6
CONTINUOUS
 62
     7
 10
-228.8091
 20
18.59689
 11
-227.5591
 21
18.59689
  0
LINE
  8
0
  6
CONTINUOUS
 62
     7
 10
-214.459
 20
13.19689
 11
-214.459
 21
20.19689
  0
LINE
  8
0
  6
CONTINUOUS
 62
     7
 10
-214.459
 20
13.19689
 11
-225.459
 21
13.19689
  0
LINE
  8
0
  6
CONTINUOUS
 62
     7
 10
-214.459
 20
20.19689
 11
-222.459
 21
20.19689
  0
LINE
  8
0
  6
CONTINUOUS
 62
     7
 10
-225.459
 20
13.19689
 11
-225.459
 21
19.19689
  0
LINE
  8
0
  6
CONTINUOUS
 62
     7
 10
-222.459
 20
19.19689
 11
-222.459
 21
20.19689
  0
LINE
  8
0
  6
CONTINUOUS
 62
     7
 10
-222.459
 20
19.19689
 11
-225.459
 21
19.19689
  0
LINE
  8
0
  6
CONTINUOUS
 62
     7
 10
-215.459
 20
4.69689
 11
-215.459
 21
20.19689
  0
LINE
  8
0
  6
CONTINUOUS
 62
     7
 10
-215.459
 20
4.69689
 11
-220.459
 21
4.69689
  0
LINE
  8
0
  6
CONTINUOUS
 62
     7
 10
-220.459
 20
4.69689
 11
-220.459
 21
7.69689
  0
LINE
  8
0
  6
CONTINUOUS
 62
     7
 10
-222.459
 20
7.69689
 11
-222.459
 21
10.69689
  0
LINE
  8
0
  6
CONTINUOUS
 62
     7
 10
-220.459
 20
7.69689
 11
-222.459
 21
7.69689
  0
LINE
  8
0
  6
CONTINUOUS
 62
     7
 10
-220.459
 20
10.69689
 11
-222.459
 21
10.69689
  0
LINE
  8
0
  6
CONTINUOUS
 62
     7
 10
-220.459
 20
10.69689
 11
-220.459
 21
13.19689
  0
LINE
  8
0
  6
CONTINUOUS
 62
     7
 10
-211.0591
 20
14.99689
 11
-212.459
 21
14.99689
  0
LINE
  8
0
  6
CONTINUOUS
 62
     7
 10
-211.859
 20
18.39689
 11
-212.459
 21
18.39689
  0
LINE
  8
0
  6
CONTINUOUS
 62
     7
 10
-207.459
 20
18.5969
 11
-207.459
 21
23.78765
  0
LINE
  8
0
  6
CONTINUOUS
 62
     7
 10
-210.859
 20
19.39689
 11
-210.859
 21
22.87662
  0
LINE
  8
0
  6
CONTINUOUS
 62
     7
 10
-212.459
 20
14.19689
 11
-212.459
 21
19.19689
  0
LINE
  8
0
  6
CONTINUOUS
 62
     7
 10
-212.459
 20
14.19689
 11
-214.459
 21
14.19689
  0
LINE
  8
0
  6
CONTINUOUS
 62
     7
 10
-212.459
 20
19.19689
 11
-214.459
 21
19.19689
  0
LINE
  8
0
  6
CONTINUOUS
 62
     7
 10
-214.959
 20
5.69689
 11
-214.959
 21
12.69689
  0
LINE
  8
0
  6
CONTINUOUS
 62
     7
 10
-214.959
 20
5.69689
 11
-215.459
 21
5.69689
  0
LINE
  8
0
  6
CONTINUOUS
 62
     7
 10
-214.959
 20
12.69689
 11
-215.459
 21
12.69689
  0
LINE
  8
0
  6
CONTINUOUS
 62
     7
 10
-212.959
 20
8.94689
 11
-212.959
 21
9.44689
  0
LINE
  8
0
  6
CONTINUOUS
 62
     7
 10
-213.459
 20
7.44689
 11
-213.459
 21
8.19689
  0
LINE
  8
0
  6
CONTINUOUS
 62
     7
 10
-213.959
 20
8.69689
 11
-214.359
 21
8.69689
  0
LINE
  8
0
  6
CONTINUOUS
 62
     7
 10
-213.959
 20
9.69689
 11
-214.359
 21
9.69689
  0
LINE
  8
0
  6
CONTINUOUS
 62
     7
 10
-213.459
 20
10.19689
 11
-213.459
 21
10.94689
  0
LINE
  8
0
  6
CONTINUOUS
 62
     7
 10
-214.359
 20
8.69689
 11
-214.359
 21
9.69689
  0
LINE
  8
0
  6
CENTER
 62
     2
 10
-211.1339
 20
9.19689
 11
-224.0767
 21
9.19689
  0
LINE
  8
0
  6
CENTER
 62
     2
 10
-209.159
 20
18.6969
 11
-209.159
 21
26.33213
  0
LINE
  8
0
  6
CENTER
 62
     2
 10
-211.159
 20
16.6969
 11
-227.9595
 21
16.69689
  0
LINE
  8
0
  6
CONTINUOUS
 62
     7
 10
-212.3421
 20
22.47923
 11
-205.3571
 21
24.35085
  0
LINE
  8
0
  6
CONTINUOUS
 62
     7
 10
84.54095
 20
19.69689
 11
84.54095
 21
14.69689
  0
LINE
  8
0
  6
CONTINUOUS
 62
     7
 10
84.54095
 20
14.69689
 11
163.541
 21
14.69689
  0
LINE
  8
0
  6
CONTINUOUS
 62
     7
 10
84.54095
 20
19.69689
 11
163.541
 21
19.69689
  0
LINE
  8
0
  6
CONTINUOUS
 62
     7
 10
220.541
 20
19.69689
 11
220.541
 21
14.69689
  0
LINE
  8
0
  6
CENTER
 62
     2
 10
91.04095
 20
22.69689
 11
91.04095
 21
11.69689
  0
LINE
  8
0
  6
CENTER
 62
     2
 10
214.041
 20
22.69689
 11
214.041
 21
11.69689
  0
LINE
  8
0
  6
CONTINUOUS
 62
     7
 10
210.541
 20
14.69689
 11
220.541
 21
14.69689
  0
LINE
  8
0
  6
CONTINUOUS
 62
     7
 10
210.541
 20
19.69689
 11
220.541
 21
19.69689
  0
LINE
  8
0
  6
CONTINUOUS
 62
     7
 10
185.541
 20
19.69689
 11
188.541
 21
19.69689
  0
LINE
  8
0
  6
CONTINUOUS
 62
     7
 10
185.541
 20
14.69689
 11
188.541
 21
14.69689
  0
LINE
  8
0
  6
CONTINUOUS
 62
     7
 10
166.041
 20
27.69689
 11
171.041
 21
27.69689
  0
LINE
  8
0
  6
CONTINUOUS
 62
     7
 10
166.041
 20
27.69689
 11
166.041
 21
25.69689
  0
LINE
  8
0
  6
CONTINUOUS
 62
     7
 10
171.041
 20
27.69689
 11
171.041
 21
25.69689
  0
LINE
  8
0
  6
CONTINUOUS
 62
     7
 10
163.541
 20
25.69689
 11
185.541
 21
25.69688
  0
LINE
  8
0
  6
CONTINUOUS
 62
     7
 10
163.541
 20
25.69689
 11
163.541
 21
14.69689
  0
LINE
  8
0
  6
CONTINUOUS
 62
     7
 10
163.541
 20
17.69689
 11
185.541
 21
17.69688
  0
LINE
  8
0
  6
CONTINUOUS
 62
     7
 10
185.541
 20
25.69688
 11
185.541
 21
14.69688
  0
LINE
  8
0
  6
CENTER
 62
     2
 10
165.3671
 20
30.99689
 11
171.4855
 21
30.99688
  0
LINE
  8
0
  6
CENTER
 62
     2
 10
168.541
 20
34.55207
 11
168.541
 21
24.19787
  0
LINE
  8
0
  6
CONTINUOUS
 62
     7
 10
166.841
 20
30.99689
 11
166.841
 21
27.69689
  0
LINE
  8
0
  6
CONTINUOUS
 62
     7
 10
170.241
 20
30.99689
 11
170.241
 21
27.69689
  0
LINE
  8
0
  6
CONTINUOUS
 62
     7
 10
163.541
 20
14.69689
 11
185.541
 21
14.69688
  0
LINE
  8
0
  6
CONTINUOUS
 62
     7
 10
174.791
 20
27.19688
 11
174.291
 21
27.19688
  0
LINE
  8
0
  6
CONTINUOUS
 62
     7
 10
176.291
 20
26.69688
 11
175.541
 21
26.69688
  0
LINE
  8
0
  6
CONTINUOUS
 62
     7
 10
175.041
 20
26.19688
 11
175.041
 21
25.79689
  0
LINE
  8
0
  6
CONTINUOUS
 62
     7
 10
174.041
 20
26.19688
 11
174.041
 21
25.79689
  0
LINE
  8
0
  6
CONTINUOUS
 62
     7
 10
173.541
 20
26.69688
 11
172.791
 21
26.69688
  0
LINE
  8
0
  6
CONTINUOUS
 62
     7
 10
175.041
 20
25.79689
 11
174.041
 21
25.79689
  0
LINE
  8
0
  6
CENTER
 62
     2
 10
174.541
 20
28.94131
 11
174.541
 21
14.14688
  0
LINE
  8
0
  6
CONTINUOUS
 62
     7
 10
191.041
 20
27.69689
 11
196.041
 21
27.69689
  0
LINE
  8
0
  6
CONTINUOUS
 62
     7
 10
191.041
 20
27.69689
 11
191.041
 21
25.69689
  0
LINE
  8
0
  6
CONTINUOUS
 62
     7
 10
196.041
 20
27.69689
 11
196.041
 21
25.69689
  0
LINE
  8
0
  6
CONTINUOUS
 62
     7
 10
188.541
 20
25.69689
 11
210.541
 21
25.69688
  0
LINE
  8
0
  6
CONTINUOUS
 62
     7
 10
188.541
 20
25.69689
 11
188.541
 21
14.69689
  0
LINE
  8
0
  6
CONTINUOUS
 62
     7
 10
188.541
 20
17.69689
 11
210.541
 21
17.69688
  0
LINE
  8
0
  6
CONTINUOUS
 62
     7
 10
210.541
 20
25.69688
 11
210.541
 21
14.69688
  0
LINE
  8
0
  6
CENTER
 62
     2
 10
190.3671
 20
30.99689
 11
196.4855
 21
30.99688
  0
LINE
  8
0
  6
CENTER
 62
     2
 10
193.541
 20
34.55207
 11
193.541
 21
24.19787
  0
LINE
  8
0
  6
CONTINUOUS
 62
     7
 10
191.841
 20
30.99689
 11
191.841
 21
27.69689
  0
LINE
  8
0
  6
CONTINUOUS
 62
     7
 10
195.241
 20
30.99689
 11
195.241
 21
27.69689
  0
LINE
  8
0
  6
CONTINUOUS
 62
     7
 10
188.541
 20
14.69689
 11
210.541
 21
14.69688
  0
LINE
  8
0
  6
CONTINUOUS
 62
     7
 10
199.791
 20
27.19688
 11
199.291
 21
27.19688
  0
LINE
  8
0
  6
CONTINUOUS
 62
     7
 10
201.291
 20
26.69688
 11
200.541
 21
26.69688
  0
LINE
  8
0
  6
CONTINUOUS
 62
     7
 10
200.041
 20
26.19688
 11
200.041
 21
25.79689
  0
LINE
  8
0
  6
CONTINUOUS
 62
     7
 10
199.041
 20
26.19688
 11
199.041
 21
25.79689
  0
LINE
  8
0
  6
CONTINUOUS
 62
     7
 10
198.541
 20
26.69688
 11
197.791
 21
26.69688
  0
LINE
  8
0
  6
CONTINUOUS
 62
     7
 10
200.041
 20
25.79689
 11
199.041
 21
25.79689
  0
LINE
  8
0
  6
CENTER
 62
     2
 10
199.541
 20
28.94131
 11
199.541
 21
14.14688
  0
LINE
  8
0
  6
CONTINUOUS
 62
     7
 10
84.54091
 20
69.8469
 11
88.77873
 21
69.8469
  0
LINE
  8
0
  6
CONTINUOUS
 62
     7
 10
84.54091
 20
72.19691
 11
84.54091
 21
64.19691
  0
LINE
  8
0
  6
CONTINUOUS
 62
     7
 10
214.5409
 20
67.69691
 11
214.5409
 21
66.26041
  0
LINE
  8
0
  6
CONTINUOUS
 62
     7
 10
93.30309
 20
69.8469
 11
170.0409
 21
69.8469
  0
LINE
  8
0
  6
CONTINUOUS
 62
     7
 10
212.1044
 20
68.69691
 11
213.5409
 21
68.69691
  0
LINE
  8
0
  6
CONTINUOUS
 62
     7
 10
212.1044
 20
67.69691
 11
213.5409
 21
67.69691
  0
LINE
  8
0
  6
CONTINUOUS
 62
     7
 10
84.54091
 20
64.19691
 11
163.5409
 21
64.19691
  0
LINE
  8
0
  6
CONTINUOUS
 62
     7
 10
213.5409
 20
67.69691
 11
213.5409
 21
66.26041
  0
LINE
  8
0
  6
CONTINUOUS
 62
     7
 10
214.5409
 20
67.69691
 11
215.9774
 21
67.69691
  0
LINE
  8
0
  6
PHANTOM
 62
     2
 10
97.64091
 20
72.19691
 11
93.54091
 21
72.19691
  0
LINE
  8
0
  6
CONTINUOUS
 62
     7
 10
214.5409
 20
68.69691
 11
215.9774
 21
68.69691
  0
LINE
  8
0
  6
CONTINUOUS
 62
     7
 10
214.5409
 20
70.1334
 11
214.5409
 21
68.69691
  0
LINE
  8
0
  6
CONTINUOUS
 62
     7
 10
89.10442
 20
68.69691
 11
90.54091
 21
68.69691
  0
LINE
  8
0
  6
CONTINUOUS
 62
     7
 10
213.5409
 20
70.1334
 11
213.5409
 21
68.69691
  0
LINE
  8
0
  6
CONTINUOUS
 62
     7
 10
90.54091
 20
67.69691
 11
90.54091
 21
66.26041
  0
LINE
  8
0
  6
CONTINUOUS
 62
     7
 10
91.54091
 20
67.69691
 11
91.54091
 21
66.26041
  0
LINE
  8
0
  6
CENTER
 62
     2
 10
86.54091
 20
68.19691
 11
95.54091
 21
68.19691
  0
LINE
  8
0
  6
CENTER
 62
     2
 10
218.5409
 20
68.19691
 11
209.5409
 21
68.19691
  0
LINE
  8
0
  6
CENTER
 62
     2
 10
91.04091
 20
63.69691
 11
91.04091
 21
72.69691
  0
LINE
  8
0
  6
CONTINUOUS
 62
     7
 10
220.5409
 20
72.19691
 11
220.5409
 21
69.8969
  0
LINE
  8
0
  6
CENTER
 62
     2
 10
214.0409
 20
63.69691
 11
214.0409
 21
72.69691
  0
LINE
  8
0
  6
CONTINUOUS
 62
     7
 10
216.2658
 20
69.8969
 11
220.5409
 21
69.8969
  0
LINE
  8
0
  6
CONTINUOUS
 62
     7
 10
216.2658
 20
66.49691
 11
220.5409
 21
66.49691
  0
LINE
  8
0
  6
CONTINUOUS
 62
     7
 10
220.5409
 20
66.49691
 11
220.5409
 21
64.19691
  0
LINE
  8
0
  6
CONTINUOUS
 62
     7
 10
84.54091
 20
72.19691
 11
170.718
 21
72.19691
  0
LINE
  8
0
  6
CONTINUOUS
 62
     7
 10
84.54091
 20
66.54691
 11
88.77873
 21
66.54691
  0
LINE
  8
0
  6
CONTINUOUS
 62
     7
 10
89.10442
 20
67.69691
 11
90.54091
 21
67.69691
  0
LINE
  8
0
  6
CONTINUOUS
 62
     7
 10
93.30309
 20
66.54691
 11
170.0409
 21
66.54691
  0
LINE
  8
0
  6
CONTINUOUS
 62
     7
 10
213.0409
 20
70.99691
 11
220.5409
 21
70.99691
  0
LINE
  8
0
  6
CONTINUOUS
 62
     7
 10
213.0409
 20
65.3969
 11
220.5409
 21
65.3969
  0
LINE
  8
0
  6
CONTINUOUS
 62
     7
 10
90.54091
 20
70.1334
 11
90.54091
 21
68.69691
  0
LINE
  8
0
  6
CONTINUOUS
 62
     7
 10
91.54091
 20
70.1334
 11
91.54091
 21
68.69691
  0
LINE
  8
0
  6
CONTINUOUS
 62
     7
 10
91.54091
 20
68.69691
 11
92.9774
 21
68.69691
  0
LINE
  8
0
  6
CONTINUOUS
 62
     7
 10
91.54091
 20
67.69691
 11
92.9774
 21
67.69691
  0
LINE
  8
0
  6
CONTINUOUS
 62
     7
 10
178.3638
 20
72.19691
 11
195.718
 21
72.19691
  0
LINE
  8
0
  6
CONTINUOUS
 62
     7
 10
203.3638
 20
72.19691
 11
220.5409
 21
72.19691
  0
LINE
  8
0
  6
CONTINUOUS
 62
     7
 10
204.0409
 20
69.8469
 11
210.7787
 21
69.8469
  0
LINE
  8
0
  6
CONTINUOUS
 62
     7
 10
204.0409
 20
66.54691
 11
210.7787
 21
66.54691
  0
LINE
  8
0
  6
CONTINUOUS
 62
     7
 10
210.5409
 20
64.19691
 11
220.5409
 21
64.19691
  0
LINE
  8
0
  6
CONTINUOUS
 62
     7
 10
185.5409
 20
64.19691
 11
188.5409
 21
64.19691
  0
LINE
  8
0
  6
CONTINUOUS
 62
     7
 10
179.0409
 20
66.54691
 11
195.0409
 21
66.54691
  0
LINE
  8
0
  6
CONTINUOUS
 62
     7
 10
179.0409
 20
69.8469
 11
195.0409
 21
69.8469
  0
LINE
  8
0
  6
CONTINUOUS
 62
     7
 10
185.5409
 20
64.1969
 11
163.5409
 21
64.19691
  0
LINE
  8
0
  6
CONTINUOUS
 62
     7
 10
185.5409
 20
57.1969
 11
185.5409
 21
64.1969
  0
LINE
  8
0
  6
CENTER
 62
     2
 10
174.5409
 20
54.26151
 11
174.5409
 21
74.44691
  0
LINE
  8
0
  6
CONTINUOUS
 62
     7
 10
163.5409
 20
57.19691
 11
163.5409
 21
64.19691
  0
LINE
  8
0
  6
CENTER
 62
     2
 10
181.8604
 20
68.19691
 11
167.8604
 21
68.19691
  0
LINE
  8
0
  6
CONTINUOUS
 62
     7
 10
179.0409
 20
64.19691
 11
179.0409
 21
70.69691
  0
LINE
  8
0
  6
CONTINUOUS
 62
     7
 10
170.0409
 20
64.19691
 11
170.0409
 21
70.69691
  0
LINE
  8
0
  6
CONTINUOUS
 62
     7
 10
176.4774
 20
67.69691
 11
175.0409
 21
67.69691
  0
LINE
  8
0
  6
CONTINUOUS
 62
     7
 10
176.4774
 20
68.69691
 11
175.0409
 21
68.69691
  0
LINE
  8
0
  6
CONTINUOUS
 62
     7
 10
174.0409
 20
66.26041
 11
174.0409
 21
67.69691
  0
LINE
  8
0
  6
CONTINUOUS
 62
     7
 10
175.0409
 20
66.26041
 11
175.0409
 21
67.69691
  0
LINE
  8
0
  6
CONTINUOUS
 62
     7
 10
175.0409
 20
68.69691
 11
175.0409
 21
70.13339
  0
LINE
  8
0
  6
CONTINUOUS
 62
     7
 10
174.0409
 20
67.69691
 11
172.6044
 21
67.69691
  0
LINE
  8
0
  6
CONTINUOUS
 62
     7
 10
174.0409
 20
68.69691
 11
174.0409
 21
70.1334
  0
LINE
  8
0
  6
CONTINUOUS
 62
     7
 10
174.0409
 20
68.69691
 11
172.6044
 21
68.69691
  0
LINE
  8
0
  6
CENTER
 62
     2
 10
168.5409
 20
51.32191
 11
168.5409
 21
66.32191
  0
LINE
  8
0
  6
CENTER
 62
     2
 10
174.0409
 20
60.69691
 11
163.0409
 21
60.69691
  0
LINE
  8
0
  6
CONTINUOUS
 62
     7
 10
170.2409
 20
54.86346
 11
170.2409
 21
60.69691
  0
LINE
  8
0
  6
CONTINUOUS
 62
     7
 10
166.8409
 20
53.95243
 11
166.8409
 21
60.69691
  0
LINE
  8
0
  6
CONTINUOUS
 62
     7
 10
171.6706
 20
55.24656
 11
164.875
 21
53.42568
  0
LINE
  8
0
  6
CONTINUOUS
 62
     7
 10
177.0409
 20
72.69691
 11
172.0409
 21
72.69691
  0
LINE
  8
0
  6
CONTINUOUS
 62
     7
 10
185.5409
 20
57.1969
 11
170.2409
 21
57.19691
  0
LINE
  8
0
  6
CONTINUOUS
 62
     7
 10
166.8409
 20
57.19691
 11
163.5409
 21
57.19691
  0
LINE
  8
0
  6
CONTINUOUS
 62
     7
 10
210.5409
 20
64.1969
 11
188.5409
 21
64.19691
  0
LINE
  8
0
  6
CONTINUOUS
 62
     7
 10
210.5409
 20
57.1969
 11
210.5409
 21
64.1969
  0
LINE
  8
0
  6
CENTER
 62
     2
 10
199.5409
 20
54.26151
 11
199.5409
 21
74.44691
  0
LINE
  8
0
  6
CONTINUOUS
 62
     7
 10
188.5409
 20
57.19691
 11
188.5409
 21
64.19691
  0
LINE
  8
0
  6
CENTER
 62
     2
 10
206.8604
 20
68.19691
 11
192.8604
 21
68.19691
  0
LINE
  8
0
  6
CONTINUOUS
 62
     7
 10
204.0409
 20
64.19691
 11
204.0409
 21
70.69691
  0
LINE
  8
0
  6
CONTINUOUS
 62
     7
 10
195.0409
 20
64.19691
 11
195.0409
 21
70.69691
  0
LINE
  8
0
  6
CONTINUOUS
 62
     7
 10
201.4774
 20
67.69691
 11
200.0409
 21
67.69691
  0
LINE
  8
0
  6
CONTINUOUS
 62
     7
 10
201.4774
 20
68.69691
 11
200.0409
 21
68.69691
  0
LINE
  8
0
  6
CONTINUOUS
 62
     7
 10
199.0409
 20
66.26041
 11
199.0409
 21
67.69691
  0
LINE
  8
0
  6
CONTINUOUS
 62
     7
 10
200.0409
 20
66.26041
 11
200.0409
 21
67.69691
  0
LINE
  8
0
  6
CONTINUOUS
 62
     7
 10
200.0409
 20
68.69691
 11
200.0409
 21
70.13339
  0
LINE
  8
0
  6
CONTINUOUS
 62
     7
 10
199.0409
 20
67.69691
 11
197.6044
 21
67.69691
  0
LINE
  8
0
  6
CONTINUOUS
 62
     7
 10
199.0409
 20
68.69691
 11
199.0409
 21
70.1334
  0
LINE
  8
0
  6
CONTINUOUS
 62
     7
 10
199.0409
 20
68.69691
 11
197.6044
 21
68.69691
  0
LINE
  8
0
  6
CENTER
 62
     2
 10
193.5409
 20
51.32191
 11
193.5409
 21
66.32191
  0
LINE
  8
0
  6
CENTER
 62
     2
 10
199.0409
 20
60.69691
 11
188.0409
 21
60.69691
  0
LINE
  8
0
  6
CONTINUOUS
 62
     7
 10
195.2409
 20
54.86346
 11
195.2409
 21
60.69691
  0
LINE
  8
0
  6
CONTINUOUS
 62
     7
 10
191.8409
 20
53.95243
 11
191.8409
 21
60.69691
  0
LINE
  8
0
  6
CONTINUOUS
 62
     7
 10
196.6706
 20
55.24656
 11
189.875
 21
53.42569
  0
LINE
  8
0
  6
CONTINUOUS
 62
     7
 10
202.0409
 20
72.69691
 11
197.0409
 21
72.69691
  0
LINE
  8
0
  6
CONTINUOUS
 62
     7
 10
210.5409
 20
57.1969
 11
195.2409
 21
57.19691
  0
LINE
  8
0
  6
CONTINUOUS
 62
     7
 10
191.8409
 20
57.19691
 11
188.5409
 21
57.19691
  0
LINE
  8
0
  6
CONTINUOUS
 62
     7
 10
33.79095
 20
18.29689
 11
33.29095
 21
18.29689
  0
LINE
  8
0
  6
CONTINUOUS
 62
     7
 10
36.24044
 20
16.29689
 11
30.84146
 21
16.29689
  0
LINE
  8
0
  6
CONTINUOUS
 62
     7
 10
31.89095
 20
19.69689
 11
29.54095
 21
19.69689
  0
LINE
  8
0
  6
CONTINUOUS
 62
     7
 10
36.44096
 20
18.59689
 11
36.44096
 21
15.79689
  0
LINE
  8
0
  6
CONTINUOUS
 62
     7
 10
35.29095
 20
17.79689
 11
34.54095
 21
17.79689
  0
LINE
  8
0
  6
CONTINUOUS
 62
     7
 10
34.04095
 20
17.29689
 11
34.04095
 21
16.89689
  0
LINE
  8
0
  6
CONTINUOUS
 62
     7
 10
33.04095
 20
17.29689
 11
33.04095
 21
16.89689
  0
LINE
  8
0
  6
CONTINUOUS
 62
     7
 10
32.54095
 20
17.79689
 11
31.79095
 21
17.79689
  0
LINE
  8
0
  6
CONTINUOUS
 62
     7
 10
34.04095
 20
16.89689
 11
33.04095
 21
16.89689
  0
LINE
  8
0
  6
CENTER
 62
     2
 10
33.54095
 20
20.12199
 11
33.54095
 21
11.69689
  0
LINE
  8
0
  6
CONTINUOUS
 62
     7
 10
36.24044
 20
16.29689
 11
36.24044
 21
15.79689
  0
LINE
  8
0
  6
CONTINUOUS
 62
     7
 10
30.84146
 20
16.29689
 11
30.84146
 21
15.79689
  0
LINE
  8
0
  6
CONTINUOUS
 62
     7
 10
36.44096
 20
15.79689
 11
30.64095
 21
15.79689
  0
LINE
  8
0
  6
CONTINUOUS
 62
     7
 10
30.64095
 20
18.59689
 11
31.89095
 21
18.59689
  0
LINE
  8
0
  6
CONTINUOUS
 62
     7
 10
30.64095
 20
15.79689
 11
30.64095
 21
18.59689
  0
LINE
  8
0
  6
CONTINUOUS
 62
     7
 10
31.89095
 20
18.59689
 11
31.89095
 21
19.69689
  0
LINE
  8
0
  6
CONTINUOUS
 62
     7
 10
29.54095
 20
14.69689
 11
37.54095
 21
14.69689
  0
LINE
  8
0
  6
CONTINUOUS
 62
     7
 10
37.54095
 20
14.69689
 11
37.54095
 21
19.69689
  0
LINE
  8
0
  6
CONTINUOUS
 62
     7
 10
37.54095
 20
19.69689
 11
35.19096
 21
19.69689
  0
LINE
  8
0
  6
CONTINUOUS
 62
     7
 10
29.54095
 20
19.69689
 11
29.54095
 21
14.69689
  0
LINE
  8
0
  6
CONTINUOUS
 62
     7
 10
35.19096
 20
19.69689
 11
35.19096
 21
18.59689
  0
LINE
  8
0
  6
CONTINUOUS
 62
     7
 10
35.19096
 20
18.59689
 11
36.44096
 21
18.59689
  0
LINE
  8
0
  6
CONTINUOUS
 62
     7
 10
37.54096
 20
25.69689
 11
44.54096
 21
25.69689
  0
LINE
  8
0
  6
CONTINUOUS
 62
     7
 10
37.54096
 20
25.69689
 11
37.54095
 21
14.69689
  0
LINE
  8
0
  6
CONTINUOUS
 62
     7
 10
44.54096
 20
25.69689
 11
44.54095
 21
17.69689
  0
LINE
  8
0
  6
CONTINUOUS
 62
     7
 10
37.54095
 20
14.69689
 11
43.54095
 21
14.69689
  0
LINE
  8
0
  6
CONTINUOUS
 62
     7
 10
43.54095
 20
17.69689
 11
44.54095
 21
17.69689
  0
LINE
  8
0
  6
CONTINUOUS
 62
     7
 10
43.54095
 20
17.69689
 11
43.54095
 21
14.69689
  0
LINE
  8
0
  6
CONTINUOUS
 62
     7
 10
29.04096
 20
24.69689
 11
44.54096
 21
24.69689
  0
LINE
  8
0
  6
CONTINUOUS
 62
     7
 10
29.04096
 20
24.69689
 11
29.04096
 21
19.69689
  0
LINE
  8
0
  6
CONTINUOUS
 62
     7
 10
29.04096
 20
19.69689
 11
32.04095
 21
19.69689
  0
LINE
  8
0
  6
CONTINUOUS
 62
     7
 10
32.04095
 20
17.69689
 11
35.04095
 21
17.69689
  0
LINE
  8
0
  6
CONTINUOUS
 62
     7
 10
32.04095
 20
19.69689
 11
32.04095
 21
17.69689
  0
LINE
  8
0
  6
CONTINUOUS
 62
     7
 10
35.04095
 20
19.69689
 11
35.04095
 21
17.69689
  0
LINE
  8
0
  6
CONTINUOUS
 62
     7
 10
35.04095
 20
19.69689
 11
37.54095
 21
19.69689
  0
LINE
  8
0
  6
CONTINUOUS
 62
     7
 10
39.34095
 20
29.09689
 11
39.34095
 21
27.69689
  0
LINE
  8
0
  6
CONTINUOUS
 62
     7
 10
42.74096
 20
28.29689
 11
42.74096
 21
27.69689
  0
LINE
  8
0
  6
CONTINUOUS
 62
     7
 10
42.94096
 20
32.69689
 11
48.13171
 21
32.69689
  0
LINE
  8
0
  6
CONTINUOUS
 62
     7
 10
43.74096
 20
29.29689
 11
47.22068
 21
29.29689
  0
LINE
  8
0
  6
CONTINUOUS
 62
     7
 10
38.54096
 20
27.69689
 11
43.54096
 21
27.69689
  0
LINE
  8
0
  6
CONTINUOUS
 62
     7
 10
38.54096
 20
27.69689
 11
38.54096
 21
25.69689
  0
LINE
  8
0
  6
CONTINUOUS
 62
     7
 10
43.54096
 20
27.69689
 11
43.54096
 21
25.69689
  0
LINE
  8
0
  6
CONTINUOUS
 62
     7
 10
30.04096
 20
25.19689
 11
37.04096
 21
25.19689
  0
LINE
  8
0
  6
CONTINUOUS
 62
     7
 10
30.04096
 20
25.19689
 11
30.04096
 21
24.69689
  0
LINE
  8
0
  6
CONTINUOUS
 62
     7
 10
37.04096
 20
25.19689
 11
37.04096
 21
24.69689
  0
LINE
  8
0
  6
CONTINUOUS
 62
     7
 10
33.29096
 20
27.19689
 11
33.79096
 21
27.19689
  0
LINE
  8
0
  6
CONTINUOUS
 62
     7
 10
31.79096
 20
26.69689
 11
32.54096
 21
26.69689
  0
LINE
  8
0
  6
CONTINUOUS
 62
     7
 10
33.04096
 20
26.19689
 11
33.04096
 21
25.79689
  0
LINE
  8
0
  6
CONTINUOUS
 62
     7
 10
34.04096
 20
26.19689
 11
34.04096
 21
25.79689
  0
LINE
  8
0
  6
CONTINUOUS
 62
     7
 10
34.54096
 20
26.69689
 11
35.29096
 21
26.69689
  0
LINE
  8
0
  6
CONTINUOUS
 62
     7
 10
33.04096
 20
25.79689
 11
34.04096
 21
25.79689
  0
LINE
  8
0
  6
CENTER
 62
     2
 10
33.54096
 20
29.02199
 11
33.54095
 21
16.07923
  0
LINE
  8
0
  6
CENTER
 62
     2
 10
43.04096
 20
30.99689
 11
50.6762
 21
30.99689
  0
LINE
  8
0
  6
CENTER
 62
     2
 10
41.04096
 20
28.99689
 11
41.04095
 21
12.1964
  0
LINE
  8
0
  6
CONTINUOUS
 62
     7
 10
46.8233
 20
27.81384
 11
48.69491
 21
34.79879
  0
ARC
  8
0
  6
PHANTOM
 62
     2
 10
225.791
 20
71.69691
 40
4.25
 50
151.9275
 51
208.0725
  0
ARC
  8
0
  6
PHANTOM
 62
     2
 10
221.291
 20
71.69691
 40
4.25
 50
331.9275
 51
28.07249
  0
ARC
  8
0
  6
PHANTOM
 62
     2
 10
221.291
 20
67.69691
 40
4.25
 50
331.9275
 51
28.07249
  0
ARC
  8
0
  6
PHANTOM
 62
     2
 10
225.791
 20
67.69691
 40
4.25
 50
151.9275
 51
208.0725
  0
ARC
  8
0
  6
PHANTOM
 62
     2
 10
79.29095
 20
71.69691
 40
4.25
 50
331.9275
 51
28.07249
  0
ARC
  8
0
  6
PHANTOM
 62
     2
 10
79.29095
 20
67.69691
 40
4.25
 50
331.9275
 51
28.07249
  0
ARC
  8
0
  6
PHANTOM
 62
     2
 10
83.79095
 20
67.69691
 40
4.25
 50
151.9275
 51
208.0725
  0
ARC
  8
0
  6
PHANTOM
 62
     2
 10
83.79095
 20
71.69691
 40
4.25
 50
151.9275
 51
208.0725
  0
CIRCLE
  8
0
  6
PHANTOM
 62
     2
 10
-45.45905
 20
-23.30311
 40
1.65
  0
CIRCLE
  8
0
  6
PHANTOM
 62
     2
 10
-45.45905
 20
8.69689
 40
1.65
  0
CIRCLE
  8
0
  6
PHANTOM
 62
     2
 10
-175.459
 20
-23.30311
 40
1.65
  0
CIRCLE
  8
0
  6
PHANTOM
 62
     2
 10
-136.459
 20
-7.30311
 40
2.25
  0
CIRCLE
  8
0
  6
PHANTOM
 62
     2
 10
-136.459
 20
-7.30311
 40
4.0
  0
CIRCLE
  8
0
  6
PHANTOM
 62
     2
 10
-101.4591
 20
-7.30311
 40
4.0
  0
CIRCLE
  8
0
  6
PHANTOM
 62
     2
 10
-101.4591
 20
-7.30311
 40
2.25
  0
CIRCLE
  8
0
  6
PHANTOM
 62
     2
 10
-174.459
 20
-16.30311
 40
2.0
  0
CIRCLE
  8
0
  6
PHANTOM
 62
     2
 10
-174.459
 20
1.69689
 40
2.0
  0
ARC
  8
0
  6
PHANTOM
 62
     2
 10
-181.0424
 20
-3.839
 40
1.58334
 50
313.1738
 51
46.82626
  0
ARC
  8
0
  6
PHANTOM
 62
     2
 10
-181.8757
 20
-3.839
 40
1.58334
 50
133.1737
 51
226.8261
  0
ARC
  8
0
  6
PHANTOM
 62
     2
 10
-181.0424
 20
-10.76721
 40
1.58334
 50
313.1737
 51
46.82618
  0
ARC
  8
0
  6
PHANTOM
 62
     2
 10
-185.0424
 20
-7.30311
 40
5.58334
 50
335.5673
 51
24.43265
  0
ARC
  8
0
  6
PHANTOM
 62
     2
 10
-181.8757
 20
-10.76721
 40
1.58334
 50
133.1738
 51
226.8263
  0
ARC
  8
0
  6
PHANTOM
 62
     2
 10
-177.8757
 20
-7.30311
 40
5.58334
 50
155.5673
 51
204.4326
  0
ARC
  8
0
  6
PHANTOM
 62
     2
 10
-39.87571
 20
-3.839
 40
1.58334
 50
133.1735
 51
226.8262
  0
CIRCLE
  8
0
  6
PHANTOM
 62
     2
 10
-46.45905
 20
-16.30311
 40
2.0
  0
ARC
  8
0
  6
PHANTOM
 62
     2
 10
-39.0424
 20
-3.839
 40
1.58334
 50
313.1738
 51
46.8265
  0
ARC
  8
0
  6
PHANTOM
 62
     2
 10
-39.0424
 20
-10.76721
 40
1.58334
 50
313.1735
 51
46.82618
  0
ARC
  8
0
  6
PHANTOM
 62
     2
 10
-43.0424
 20
-7.30311
 40
5.58335
 50
335.5674
 51
24.43262
  0
CIRCLE
  8
0
  6
PHANTOM
 62
     2
 10
-46.45905
 20
1.69689
 40
2.0
  0
CIRCLE
  8
0
  6
PHANTOM
 62
     2
 10
-175.459
 20
8.69689
 40
1.65
  0
ARC
  8
0
  6
PHANTOM
 62
     2
 10
-35.87569
 20
-7.30311
 40
5.58335
 50
155.5673
 51
204.4326
  0
ARC
  8
0
  6
PHANTOM
 62
     2
 10
-39.87571
 20
-10.76721
 40
1.58334
 50
133.1738
 51
226.8264
  0
CIRCLE
  8
0
  6
PHANTOM
 62
     2
 10
36.04095
 20
1.69689
 40
1.5
  0
CIRCLE
  8
0
  6
PHANTOM
 62
     2
 10
36.04095
 20
-16.30311
 40
4.5
  0
CIRCLE
  8
0
  6
PHANTOM
 62
     2
 10
32.04095
 20
-7.3031
 40
1.63397
  0
CIRCLE
  8
0
  6
PHANTOM
 62
     2
 10
36.04095
 20
-16.30311
 40
1.5
  0
CIRCLE
  8
0
  6
PHANTOM
 62
     2
 10
36.04095
 20
-16.30311
 40
3.0
  0
CIRCLE
  8
0
  6
PHANTOM
 62
     2
 10
33.54095
 20
-23.30311
 40
1.5
  0
CIRCLE
  8
0
  6
PHANTOM
 62
     2
 10
33.54095
 20
-23.30311
 40
1.23
  0
CIRCLE
  8
0
  6
PHANTOM
 62
     2
 10
32.04095
 20
-7.3031
 40
2.5
  0
CIRCLE
  8
0
  6
PHANTOM
 62
     2
 10
36.04095
 20
1.69689
 40
3.0
  0
CIRCLE
  8
0
  6
PHANTOM
 62
     2
 10
33.54095
 20
8.69689
 40
1.5
  0
CIRCLE
  8
0
  6
PHANTOM
 62
     2
 10
33.54095
 20
8.69689
 40
1.23
  0
CIRCLE
  8
0
  6
PHANTOM
 62
     2
 10
36.04095
 20
1.69689
 40
4.5
  0
CIRCLE
  8
0
  6
PHANTOM
 62
     2
 10
-171.959
 20
70.19691
 40
1.5
  0
ARC
  8
0
  6
PHANTOM
 62
     2
 10
-37.20905
 20
61.69691
 40
4.25
 50
151.9274
 51
208.0724
  0
CIRCLE
  8
0
  6
PHANTOM
 62
     2
 10
-48.95905
 20
70.19691
 40
1.23
  0
ARC
  8
0
  6
PHANTOM
 62
     2
 10
-41.70905
 20
61.69691
 40
4.25
 50
331.9275
 51
28.07244
  0
ARC
  8
0
  6
PHANTOM
 62
     2
 10
-41.70905
 20
65.69691
 40
4.25
 50
331.9275
 51
28.07249
  0
ARC
  8
0
  6
PHANTOM
 62
     2
 10
-37.20905
 20
65.69691
 40
4.25
 50
151.9274
 51
208.0724
  0
CIRCLE
  8
0
  6
PHANTOM
 62
     2
 10
-171.959
 20
70.19691
 40
1.23
  0
CIRCLE
  8
0
  6
PHANTOM
 62
     2
 10
-48.95905
 20
70.19691
 40
1.5
  0
ARC
  8
0
  6
PHANTOM
 62
     2
 10
-183.709
 20
61.69691
 40
4.25
 50
331.9275
 51
28.07244
  0
ARC
  8
0
  6
PHANTOM
 62
     2
 10
-183.709
 20
65.69691
 40
4.25
 50
331.9275
 51
28.07249
  0
ARC
  8
0
  6
PHANTOM
 62
     2
 10
-179.209
 20
65.69691
 40
4.25
 50
151.9274
 51
208.0724
  0
ARC
  8
0
  6
PHANTOM
 62
     2
 10
-179.209
 20
61.69691
 40
4.25
 50
151.9275
 51
208.0724
  0
CIRCLE
  8
0
  6
PHANTOM
 62
     2
 10
161.541
 20
-7.30311
 40
2.25
  0
CIRCLE
  8
0
  6
PHANTOM
 62
     2
 10
136.541
 20
-7.30311
 40
2.0
  0
CIRCLE
  8
0
  6
PHANTOM
 62
     2
 10
151.541
 20
-7.30311
 40
2.0
  0
ARC
  8
0
  6
PHANTOM
 62
     2
 10
223.9576
 20
-10.76721
 40
1.58334
 50
313.1737
 51
46.82618
  0
CIRCLE
  8
0
  6
PHANTOM
 62
     2
 10
217.541
 20
-23.30311
 40
3.15
  0
CIRCLE
  8
0
  6
PHANTOM
 62
     2
 10
126.541
 20
-7.30311
 40
4.0
  0
CIRCLE
  8
0
  6
PHANTOM
 62
     2
 10
126.541
 20
-7.30311
 40
2.25
  0
CIRCLE
  8
0
  6
PHANTOM
 62
     2
 10
217.541
 20
-23.30311
 40
1.65
  0
CIRCLE
  8
0
  6
PHANTOM
 62
     2
 10
217.541
 20
8.69689
 40
3.15
  0
ARC
  8
0
  6
PHANTOM
 62
     2
 10
223.9576
 20
-3.839
 40
1.58334
 50
313.1738
 51
46.8263
  0
ARC
  8
0
  6
PHANTOM
 62
     2
 10
227.1243
 20
-7.30311
 40
5.58334
 50
155.5674
 51
204.4327
  0
ARC
  8
0
  6
PHANTOM
 62
     2
 10
219.9576
 20
-7.30311
 40
5.58334
 50
335.5673
 51
24.43265
  0
ARC
  8
0
  6
PHANTOM
 62
     2
 10
223.1243
 20
-3.839
 40
1.58334
 50
133.1737
 51
226.8262
  0
CIRCLE
  8
0
  6
PHANTOM
 62
     2
 10
136.541
 20
-7.30311
 40
1.62
  0
CIRCLE
  8
0
  6
PHANTOM
 62
     2
 10
151.541
 20
-7.30311
 40
1.62
  0
CIRCLE
  8
0
  6
PHANTOM
 62
     2
 10
161.541
 20
-7.30311
 40
4.0
  0
CIRCLE
  8
0
  6
PHANTOM
 62
     2
 10
217.541
 20
8.69689
 40
1.65
  0
ARC
  8
0
  6
PHANTOM
 62
     2
 10
223.1243
 20
-10.76721
 40
1.58334
 50
133.1738
 51
226.8263
  0
ARC
  8
0
  6
PHANTOM
 62
     2
 10
85.1243
 20
-7.30311
 40
5.58335
 50
155.5673
 51
204.4326
  0
ARC
  8
0
  6
PHANTOM
 62
     2
 10
81.1243
 20
-3.839
 40
1.58334
 50
133.1735
 51
226.8261
  0
ARC
  8
0
  6
PHANTOM
 62
     2
 10
77.95761
 20
-7.30311
 40
5.58335
 50
335.5673
 51
24.43259
  0
ARC
  8
0
  6
PHANTOM
 62
     2
 10
81.95761
 20
-3.839
 40
1.58334
 50
313.1738
 51
46.82647
  0
ARC
  8
0
  6
PHANTOM
 62
     2
 10
81.1243
 20
-10.76721
 40
1.58334
 50
133.1738
 51
226.8265
  0
ARC
  8
0
  6
PHANTOM
 62
     2
 10
81.95761
 20
-10.76721
 40
1.58334
 50
313.1735
 51
46.82615
  0
CIRCLE
  8
0
  6
PHANTOM
 62
     2
 10
87.54095
 20
-23.30311
 40
1.65
  0
CIRCLE
  8
0
  6
PHANTOM
 62
     2
 10
87.54095
 20
-23.30311
 40
3.15
  0
CIRCLE
  8
0
  6
PHANTOM
 62
     2
 10
87.54095
 20
8.69689
 40
3.15
  0
CIRCLE
  8
0
  6
PHANTOM
 62
     2
 10
87.54095
 20
8.69689
 40
1.65
  0
ARC
  8
0
  6
PHANTOM
 62
     2
 10
177.541
 20
-7.30311
 40
2.0
 50
270.0
 51
89.99999
  0
ARC
  8
0
  6
PHANTOM
 62
     2
 10
175.541
 20
-7.30311
 40
2.0
 50
89.99999
 51
270.0
  0
CIRCLE
  8
0
  6
PHANTOM
 62
     2
 10
111.541
 20
-7.30311
 40
2.0
  0
ARC
  8
0
  6
PHANTOM
 62
     2
 10
118.0099
 20
-29.23228
 40
1.27083
 50
217.3408
 51
322.6592
  0
ARC
  8
0
  6
PHANTOM
 62
     2
 10
121.041
 20
-26.16979
 40
4.33332
 50
242.2042
 51
263.3742
  0
ARC
  8
0
  6
PHANTOM
 62
     2
 10
124.0721
 20
-29.23228
 40
1.27083
 50
217.3408
 51
322.6598
  0
ARC
  8
0
  6
PHANTOM
 62
     2
 10
121.041
 20
-26.16979
 40
4.33332
 50
276.6258
 51
297.7958
  0
ARC
  8
0
  6
PHANTOM
 62
     2
 10
164.0099
 20
-29.23228
 40
1.27083
 50
217.3408
 51
322.6592
  0
ARC
  8
0
  6
PHANTOM
 62
     2
 10
167.041
 20
-26.16979
 40
4.33332
 50
242.2042
 51
263.3742
  0
ARC
  8
0
  6
PHANTOM
 62
     2
 10
170.072
 20
-29.23228
 40
1.27083
 50
217.3408
 51
322.6596
  0
ARC
  8
0
  6
PHANTOM
 62
     2
 10
167.041
 20
-26.16979
 40
4.33332
 50
276.6258
 51
297.7958
  0
ARC
  8
0
  6
PHANTOM
 62
     2
 10
74.05032
 20
5.16099
 40
1.00938
 50
134.6512
 51
225.3488
  0
ARC
  8
0
  6
PHANTOM
 62
     2
 10
76.62845
 20
1.69688
 40
3.5875
 50
156.4019
 51
203.598
  0
ARC
  8
0
  6
PHANTOM
 62
     2
 10
74.05032
 20
-1.76721
 40
1.00938
 50
134.6512
 51
225.3488
  0
ARC
  8
0
  6
PHANTOM
 62
     2
 10
81.03159
 20
5.161
 40
1.00938
 50
314.6512
 51
45.34877
  0
ARC
  8
0
  6
PHANTOM
 62
     2
 10
78.45346
 20
1.69689
 40
3.5875
 50
336.4019
 51
23.59802
  0
ARC
  8
0
  6
PHANTOM
 62
     2
 10
81.03159
 20
-1.76721
 40
1.00938
 50
314.6512
 51
45.34877
  0
ARC
  8
0
  6
PHANTOM
 62
     2
 10
74.05032
 20
-12.83901
 40
1.00938
 50
134.6512
 51
225.3488
  0
ARC
  8
0
  6
PHANTOM
 62
     2
 10
76.62845
 20
-16.30311
 40
3.5875
 50
156.4019
 51
203.598
  0
ARC
  8
0
  6
PHANTOM
 62
     2
 10
74.05032
 20
-19.76721
 40
1.00938
 50
134.6512
 51
225.3488
  0
ARC
  8
0
  6
PHANTOM
 62
     2
 10
81.03159
 20
-12.83901
 40
1.00938
 50
314.6512
 51
45.34876
  0
ARC
  8
0
  6
PHANTOM
 62
     2
 10
78.45346
 20
-16.30311
 40
3.5875
 50
336.4019
 51
23.59801
  0
ARC
  8
0
  6
PHANTOM
 62
     2
 10
81.03159
 20
-19.76721
 40
1.00938
 50
314.6512
 51
45.34879
  0
CIRCLE
  8
0
  6
PHANTOM
 62
     2
 10
-227.959
 20
-16.30311
 40
4.5
  0
CIRCLE
  8
0
  6
PHANTOM
 62
     2
 10
-227.959
 20
-16.30311
 40
1.5
  0
CIRCLE
  8
0
  6
PHANTOM
 62
     2
 10
-227.959
 20
1.69689
 40
4.5
  0
CIRCLE
  8
0
  6
PHANTOM
 62
     2
 10
-223.959
 20
-7.30311
 40
1.63397
  0
CIRCLE
  8
0
  6
PHANTOM
 62
     2
 10
-227.959
 20
1.69689
 40
1.5
  0
CIRCLE
  8
0
  6
PHANTOM
 62
     2
 10
-227.959
 20
1.69689
 40
3.0
  0
CIRCLE
  8
0
  6
PHANTOM
 62
     2
 10
-225.459
 20
8.69689
 40
1.5
  0
CIRCLE
  8
0
  6
PHANTOM
 62
     2
 10
-225.459
 20
8.69689
 40
1.23
  0
CIRCLE
  8
0
  6
PHANTOM
 62
     2
 10
-223.959
 20
-7.30311
 40
2.5
  0
CIRCLE
  8
0
  6
PHANTOM
 62
     2
 10
-227.959
 20
-16.30311
 40
3.0
  0
CIRCLE
  8
0
  6
PHANTOM
 62
     2
 10
-225.459
 20
-23.30311
 40
1.5
  0
CIRCLE
  8
0
  6
PHANTOM
 62
     2
 10
-225.459
 20
-23.30311
 40
1.23
  0
CIRCLE
  8
0
  6
PHANTOM
 62
     2
 10
-141.959
 20
-77.30312
 40
2.5
  0
CIRCLE
  8
0
  6
PHANTOM
 62
     2
 10
-171.959
 20
-79.80312
 40
1.5
  0
CIRCLE
  8
0
  6
PHANTOM
 62
     2
 10
-95.95905
 20
-77.30312
 40
2.5
  0
ARC
  8
0
  6
PHANTOM
 62
     2
 10
-37.20905
 20
-71.30312
 40
4.25
 50
151.9275
 51
208.0725
  0
CIRCLE
  8
0
  6
PHANTOM
 62
     2
 10
-48.95905
 20
-79.80312
 40
1.23
  0
ARC
  8
0
  6
PHANTOM
 62
     2
 10
-41.70905
 20
-71.30312
 40
4.25
 50
331.9275
 51
28.07249
  0
ARC
  8
0
  6
PHANTOM
 62
     2
 10
-41.70905
 20
-75.30312
 40
4.25
 50
331.9275
 51
28.07249
  0
ARC
  8
0
  6
PHANTOM
 62
     2
 10
-37.20905
 20
-75.30312
 40
4.25
 50
151.9275
 51
208.0725
  0
CIRCLE
  8
0
  6
PHANTOM
 62
     2
 10
-95.95905
 20
-77.30312
 40
2.08
  0
CIRCLE
  8
0
  6
PHANTOM
 62
     2
 10
-171.959
 20
-79.80312
 40
1.23
  0
CIRCLE
  8
0
  6
PHANTOM
 62
     2
 10
-48.95905
 20
-79.80312
 40
1.5
  0
ARC
  8
0
  6
PHANTOM
 62
     2
 10
-183.709
 20
-71.30312
 40
4.25
 50
331.9275
 51
28.07249
  0
ARC
  8
0
  6
PHANTOM
 62
     2
 10
-183.709
 20
-75.30312
 40
4.25
 50
331.9275
 51
28.07249
  0
ARC
  8
0
  6
PHANTOM
 62
     2
 10
-179.209
 20
-75.30312
 40
4.25
 50
151.9275
 51
208.0725
  0
ARC
  8
0
  6
PHANTOM
 62
     2
 10
-179.209
 20
-71.30312
 40
4.25
 50
151.9275
 51
208.0725
  0
CIRCLE
  8
0
  6
PHANTOM
 62
     2
 10
-141.959
 20
-77.30312
 40
2.08
  0
ARC
  8
0
  6
CONTINUOUS
 62
     7
 10
193.0652
 20
-166.2024
 40
1.56404
 50
0.0
 51
89.99999
  0
ARC
  8
0
  6
CONTINUOUS
 62
     7
 10
205.9686
 20
-174.6091
 40
1.56404
 50
270.0
 51
0.0
  0
ARC
  8
0
  6
CONTINUOUS
 62
     7
 10
205.1865
 20
-166.9844
 40
2.34607
 50
0.0
 51
89.99999
  0
ARC
  8
0
  6
CONTINUOUS
 62
     7
 10
219.4584
 20
-166.2024
 40
1.56404
 50
0.0
 51
89.99999
  0
ARC
  8
0
  6
CONTINUOUS
 62
     7
 10
219.4584
 20
-167.4519
 40
1.56405
 50
295.0
 51
0.0
  0
ARC
  8
0
  6
CONTINUOUS
 62
     7
 10
231.5798
 20
-164.6383
 40
2.34607
 50
291.6882
 51
0.0
  0
ARC
  8
0
  6
CONTINUOUS
 62
     7
 10
230.7977
 20
-164.1077
 40
0.78202
 50
291.6885
 51
0.0
  0
CIRCLE
  8
0
  6
CONTINUOUS
 62
     7
 10
-171.959
 20
-79.80312
 40
1.7
  0
ARC
  8
0
  6
CONTINUOUS
 62
     7
 10
-49.95905
 20
-79.80312
 40
1.7
 50
89.99999
 51
270.0
  0
ARC
  8
0
  6
CONTINUOUS
 62
     7
 10
-134.959
 20
-63.30312
 40
0.5
 50
0.0
 51
89.99999
  0
ARC
  8
0
  6
CONTINUOUS
 62
     7
 10
-134.209
 20
-64.80312
 40
2.5
 50
89.99999
 51
168.463
  0
ARC
  8
0
  6
CONTINUOUS
 62
     7
 10
-132.959
 20
-63.30312
 40
0.5
 50
89.99999
 51
180.0
  0
ARC
  8
0
  6
CONTINUOUS
 62
     7
 10
-127.959
 20
-58.50312
 40
1.7
 50
0.0
 51
180.0
  0
ARC
  8
0
  6
CONTINUOUS
 62
     7
 10
-133.709
 20
-64.80312
 40
2.5
 50
11.53694
 51
89.99999
  0
ARC
  8
0
  6
CONTINUOUS
 62
     7
 10
-109.959
 20
-63.30312
 40
0.5
 50
0.0
 51
89.99999
  0
ARC
  8
0
  6
CONTINUOUS
 62
     7
 10
-109.209
 20
-64.80312
 40
2.5
 50
89.99999
 51
168.463
  0
ARC
  8
0
  6
CONTINUOUS
 62
     7
 10
-107.959
 20
-63.30312
 40
0.5
 50
89.99999
 51
180.0
  0
ARC
  8
0
  6
CONTINUOUS
 62
     7
 10
-102.959
 20
-58.50312
 40
1.7
 50
0.0
 51
180.0
  0
ARC
  8
0
  6
CONTINUOUS
 62
     7
 10
-108.709
 20
-64.80312
 40
2.5
 50
11.53694
 51
89.99999
  0
ARC
  8
0
  6
CONTINUOUS
 62
     7
 10
-133.9591
 20
9.19689
 40
2.0
 50
255.5225
 51
284.4775
  0
ARC
  8
0
  6
CONTINUOUS
 62
     7
 10
-133.9591
 20
9.19689
 40
2.0
 50
345.5225
 51
0.0
  0
ARC
  8
0
  6
CONTINUOUS
 62
     7
 10
-131.4591
 20
6.69689
 40
2.0
 50
270.0
 51
0.0
  0
ARC
  8
0
  6
CONTINUOUS
 62
     7
 10
-136.4591
 20
6.69689
 40
2.0
 50
180.0
 51
270.0
  0
ARC
  8
0
  6
CONTINUOUS
 62
     7
 10
-127.9591
 20
16.69689
 40
1.7
 50
180.0
 51
0.0
  0
ARC
  8
0
  6
CONTINUOUS
 62
     7
 10
-127.9591
 20
16.69689
 40
1.7
 50
180.0
 51
0.0
  0
ARC
  8
0
  6
CONTINUOUS
 62
     7
 10
-127.9591
 20
16.69689
 40
2.5
 50
132.8436
 51
47.15623
  0
CIRCLE
  8
0
  6
CONTINUOUS
 62
     7
 10
-133.9591
 20
9.19689
 40
3.5
  0
CIRCLE
  8
0
  6
CONTINUOUS
 62
     7
 10
-133.9591
 20
9.19689
 40
2.8
  0
ARC
  8
0
  6
CONTINUOUS
 62
     7
 10
-133.9591
 20
9.19689
 40
2.0
 50
0.0
 51
14.4775
  0
ARC
  8
0
  6
CONTINUOUS
 62
     7
 10
-133.9591
 20
9.19689
 40
2.0
 50
75.52248
 51
104.4775
  0
ARC
  8
0
  6
CONTINUOUS
 62
     7
 10
-133.9591
 20
9.19689
 40
2.0
 50
165.5225
 51
194.4774
  0
ARC
  8
0
  6
CONTINUOUS
 62
     7
 10
-108.9591
 20
9.19689
 40
2.0
 50
255.5225
 51
284.4775
  0
ARC
  8
0
  6
CONTINUOUS
 62
     7
 10
-108.9591
 20
9.19689
 40
2.0
 50
345.5225
 51
0.0
  0
ARC
  8
0
  6
CONTINUOUS
 62
     7
 10
-106.4591
 20
6.69689
 40
2.0
 50
270.0
 51
0.0
  0
ARC
  8
0
  6
CONTINUOUS
 62
     7
 10
-111.4591
 20
6.69689
 40
2.0
 50
180.0
 51
270.0
  0
ARC
  8
0
  6
CONTINUOUS
 62
     7
 10
-102.9591
 20
16.69689
 40
1.7
 50
180.0
 51
0.0
  0
ARC
  8
0
  6
CONTINUOUS
 62
     7
 10
-102.9591
 20
16.69689
 40
1.7
 50
180.0
 51
0.0
  0
ARC
  8
0
  6
CONTINUOUS
 62
     7
 10
-102.9591
 20
16.69689
 40
2.5
 50
132.8437
 51
47.15623
  0
CIRCLE
  8
0
  6
CONTINUOUS
 62
     7
 10
-108.9591
 20
9.19689
 40
3.5
  0
CIRCLE
  8
0
  6
CONTINUOUS
 62
     7
 10
-108.9591
 20
9.19689
 40
2.8
  0
ARC
  8
0
  6
CONTINUOUS
 62
     7
 10
-108.9591
 20
9.19689
 40
2.0
 50
0.0
 51
14.4775
  0
ARC
  8
0
  6
CONTINUOUS
 62
     7
 10
-108.9591
 20
9.19689
 40
2.0
 50
75.52248
 51
104.4775
  0
ARC
  8
0
  6
CONTINUOUS
 62
     7
 10
-108.9591
 20
9.19689
 40
2.0
 50
165.5225
 51
194.4774
  0
ARC
  8
0
  6
CONTINUOUS
 62
     7
 10
-171.9591
 20
70.19691
 40
2.8
 50
36.10633
 51
143.8937
  0
ARC
  8
0
  6
CONTINUOUS
 62
     7
 10
-49.95909
 20
70.19695
 40
2.8
 50
89.99992
 51
143.8937
  0
ARC
  8
0
  6
CONTINUOUS
 62
     7
 10
-171.9591
 20
70.19691
 40
2.8
 50
216.1063
 51
323.8936
  0
ARC
  8
0
  6
CONTINUOUS
 62
     7
 10
-49.95909
 20
70.19695
 40
2.8
 50
216.1062
 51
270.0
  0
ARC
  8
0
  6
CONTINUOUS
 62
     7
 10
-171.9591
 20
70.19691
 40
2.0
 50
75.52249
 51
104.4775
  0
ARC
  8
0
  6
CONTINUOUS
 62
     7
 10
-171.9591
 20
70.19691
 40
2.0
 50
345.5225
 51
14.4775
  0
ARC
  8
0
  6
CONTINUOUS
 62
     7
 10
-171.9591
 20
70.19691
 40
2.0
 50
255.5225
 51
284.4775
  0
ARC
  8
0
  6
CONTINUOUS
 62
     7
 10
-171.9591
 20
70.19691
 40
2.0
 50
165.5225
 51
194.4775
  0
CIRCLE
  8
0
  6
CONTINUOUS
 62
     7
 10
-171.9591
 20
70.19691
 40
2.8
  0
ARC
  8
0
  6
CONTINUOUS
 62
     7
 10
-48.95909
 20
70.19695
 40
2.0
 50
75.52249
 51
104.4775
  0
ARC
  8
0
  6
CONTINUOUS
 62
     7
 10
-48.95909
 20
70.19695
 40
2.0
 50
345.5225
 51
14.4775
  0
ARC
  8
0
  6
CONTINUOUS
 62
     7
 10
-48.95909
 20
70.19695
 40
2.0
 50
255.5225
 51
284.4775
  0
ARC
  8
0
  6
CONTINUOUS
 62
     7
 10
-48.95909
 20
70.19695
 40
2.0
 50
165.5225
 51
194.4775
  0
CIRCLE
  8
0
  6
CONTINUOUS
 62
     7
 10
-48.95909
 20
70.19695
 40
2.8
  0
ARC
  8
0
  6
CONTINUOUS
 62
     7
 10
-108.7091
 20
55.19693
 40
2.5
 50
270.0
 51
336.4218
  0
ARC
  8
0
  6
CONTINUOUS
 62
     7
 10
-109.9591
 20
53.69693
 40
0.5
 50
270.0
 51
0.0
  0
ARC
  8
0
  6
CONTINUOUS
 62
     7
 10
-107.9591
 20
53.69693
 40
0.5
 50
180.0
 51
270.0
  0
ARC
  8
0
  6
CONTINUOUS
 62
     7
 10
-109.2091
 20
55.19693
 40
2.5
 50
203.5781
 51
270.0
  0
CIRCLE
  8
0
  6
CONTINUOUS
 62
     7
 10
-102.9591
 20
48.89693
 40
1.7
  0
CIRCLE
  8
0
  6
CONTINUOUS
 62
     7
 10
-102.1091
 20
48.89693
 40
0.6
  0
CIRCLE
  8
0
  6
CONTINUOUS
 62
     7
 10
-103.8091
 20
48.89693
 40
0.6
  0
ARC
  8
0
  6
CONTINUOUS
 62
     7
 10
-133.7091
 20
55.19692
 40
2.5
 50
270.0
 51
336.4218
  0
ARC
  8
0
  6
CONTINUOUS
 62
     7
 10
-134.9591
 20
53.69692
 40
0.5
 50
270.0
 51
0.0
  0
ARC
  8
0
  6
CONTINUOUS
 62
     7
 10
-132.9591
 20
53.69692
 40
0.5
 50
180.0
 51
270.0
  0
ARC
  8
0
  6
CONTINUOUS
 62
     7
 10
-134.2091
 20
55.19692
 40
2.5
 50
203.5781
 51
270.0
  0
CIRCLE
  8
0
  6
CONTINUOUS
 62
     7
 10
-127.9591
 20
48.89692
 40
1.7
  0
CIRCLE
  8
0
  6
CONTINUOUS
 62
     7
 10
-127.1091
 20
48.89692
 40
0.6
  0
CIRCLE
  8
0
  6
CONTINUOUS
 62
     7
 10
-128.8091
 20
48.89692
 40
0.6
  0
ARC
  8
0
  6
CONTINUOUS
 62
     7
 10
-229.459
 20
17.29689
 40
0.5
 50
89.99999
 51
180.0
  0
ARC
  8
0
  6
CONTINUOUS
 62
     7
 10
-230.709
 20
15.79689
 40
2.5
 50
89.99999
 51
168.463
  0
ARC
  8
0
  6
CONTINUOUS
 62
     7
 10
-230.209
 20
15.79689
 40
2.5
 50
11.5369
 51
89.99999
  0
ARC
  8
0
  6
CONTINUOUS
 62
     7
 10
-231.459
 20
17.29689
 40
0.5
 50
0.0
 51
89.99999
  0
ARC
  8
0
  6
CONTINUOUS
 62
     7
 10
-213.959
 20
8.19689
 40
0.5
 50
0.0
 51
89.99999
  0
ARC
  8
0
  6
CONTINUOUS
 62
     7
 10
-215.459
 20
9.44689
 40
2.5
 50
0.0
 51
78.46304
  0
ARC
  8
0
  6
CONTINUOUS
 62
     7
 10
-215.459
 20
8.94689
 40
2.5
 50
281.537
 51
0.0
  0
ARC
  8
0
  6
CENTER
 62
     2
 10
-211.159
 20
18.6969
 40
2.0
 50
270.0
 51
0.0
  0
ARC
  8
0
  6
CONTINUOUS
 62
     7
 10
-211.0591
 20
18.5969
 40
3.6
 50
270.0
 51
0.0
  0
ARC
  8
0
  6
CONTINUOUS
 62
     7
 10
-211.859
 20
19.39689
 40
1.0
 50
270.0
 51
0.0
  0
ARC
  8
0
  6
CONTINUOUS
 62
     7
 10
-213.959
 20
10.19689
 40
0.5
 50
270.0
 51
0.0
  0
ARC
  8
0
  6
CONTINUOUS
 62
     7
 10
173.541
 20
26.19689
 40
0.5
 50
0.0
 51
89.99999
  0
ARC
  8
0
  6
CONTINUOUS
 62
     7
 10
174.291
 20
24.69689
 40
2.5
 50
89.99999
 51
156.4218
  0
ARC
  8
0
  6
CONTINUOUS
 62
     7
 10
175.541
 20
26.19688
 40
0.5
 50
89.99999
 51
180.0
  0
ARC
  8
0
  6
CONTINUOUS
 62
     7
 10
173.541
 20
26.19688
 40
0.5
 50
0.0
 51
89.99999
  0
ARC
  8
0
  6
CONTINUOUS
 62
     7
 10
174.791
 20
24.69688
 40
2.5
 50
23.57812
 51
89.99999
  0
CIRCLE
  8
0
  6
CONTINUOUS
 62
     7
 10
168.541
 20
30.99689
 40
1.7
  0
CIRCLE
  8
0
  6
CONTINUOUS
 62
     7
 10
167.691
 20
30.99689
 40
0.6
  0
CIRCLE
  8
0
  6
CONTINUOUS
 62
     7
 10
169.391
 20
30.99689
 40
0.6
  0
ARC
  8
0
  6
CONTINUOUS
 62
     7
 10
199.291
 20
24.69689
 40
2.5
 50
89.99999
 51
156.4218
  0
ARC
  8
0
  6
CONTINUOUS
 62
     7
 10
200.541
 20
26.19688
 40
0.5
 50
89.99999
 51
180.0
  0
ARC
  8
0
  6
CONTINUOUS
 62
     7
 10
198.541
 20
26.19688
 40
0.5
 50
0.0
 51
89.99999
  0
ARC
  8
0
  6
CONTINUOUS
 62
     7
 10
199.791
 20
24.69688
 40
2.5
 50
23.57812
 51
89.99999
  0
CIRCLE
  8
0
  6
CONTINUOUS
 62
     7
 10
193.541
 20
30.99689
 40
1.7
  0
CIRCLE
  8
0
  6
CONTINUOUS
 62
     7
 10
192.691
 20
30.99689
 40
0.6
  0
CIRCLE
  8
0
  6
CONTINUOUS
 62
     7
 10
194.391
 20
30.99689
 40
0.6
  0
ARC
  8
0
  6
CONTINUOUS
 62
     7
 10
91.04091
 20
68.19691
 40
2.0
 50
345.5225
 51
14.4775
  0
ARC
  8
0
  6
CONTINUOUS
 62
     7
 10
214.0409
 20
68.19691
 40
2.0
 50
75.52249
 51
104.4775
  0
ARC
  8
0
  6
CONTINUOUS
 62
     7
 10
91.04091
 20
68.19691
 40
2.0
 50
165.5225
 51
194.4775
  0
ARC
  8
0
  6
CONTINUOUS
 62
     7
 10
214.0409
 20
68.19691
 40
2.0
 50
345.5225
 51
14.4775
  0
ARC
  8
0
  6
CONTINUOUS
 62
     7
 10
214.0409
 20
68.19691
 40
2.0
 50
165.5225
 51
194.4775
  0
ARC
  8
0
  6
CONTINUOUS
 62
     7
 10
214.0409
 20
68.19691
 40
2.0
 50
255.5225
 51
284.4775
  0
CIRCLE
  8
0
  6
CONTINUOUS
 62
     7
 10
214.0409
 20
68.19691
 40
2.8
  0
ARC
  8
0
  6
CONTINUOUS
 62
     7
 10
91.04091
 20
68.19691
 40
2.0
 50
255.5225
 51
284.4775
  0
CIRCLE
  8
0
  6
CONTINUOUS
 62
     7
 10
91.04091
 20
68.19691
 40
2.8
  0
ARC
  8
0
  6
CONTINUOUS
 62
     7
 10
91.04091
 20
68.19691
 40
2.8
 50
36.10633
 51
143.8936
  0
ARC
  8
0
  6
CONTINUOUS
 62
     7
 10
213.0409
 20
68.19691
 40
2.8
 50
89.99999
 51
143.8937
  0
ARC
  8
0
  6
CONTINUOUS
 62
     7
 10
91.04091
 20
68.19691
 40
2.8
 50
216.1062
 51
323.8936
  0
ARC
  8
0
  6
CONTINUOUS
 62
     7
 10
213.0409
 20
68.19691
 40
2.8
 50
216.1062
 51
270.0
  0
ARC
  8
0
  6
CONTINUOUS
 62
     7
 10
91.04091
 20
68.19691
 40
2.0
 50
75.52249
 51
104.4775
  0
ARC
  8
0
  6
CONTINUOUS
 62
     7
 10
174.5409
 20
68.19691
 40
2.0
 50
75.52249
 51
104.4775
  0
ARC
  8
0
  6
CONTINUOUS
 62
     7
 10
174.5409
 20
68.19691
 40
2.0
 50
165.5225
 51
180.0
  0
ARC
  8
0
  6
CONTINUOUS
 62
     7
 10
172.0409
 20
70.69691
 40
2.0
 50
89.99999
 51
180.0
  0
ARC
  8
0
  6
CONTINUOUS
 62
     7
 10
177.0409
 20
70.69691
 40
2.0
 50
0.0
 51
89.99999
  0
ARC
  8
0
  6
CONTINUOUS
 62
     7
 10
168.5409
 20
60.69691
 40
1.7
 50
0.0
 51
180.0
  0
ARC
  8
0
  6
CONTINUOUS
 62
     7
 10
168.5409
 20
60.69691
 40
1.7
 50
0.0
 51
180.0
  0
ARC
  8
0
  6
CONTINUOUS
 62
     7
 10
168.5409
 20
60.69691
 40
2.5
 50
312.8437
 51
227.156
  0
CIRCLE
  8
0
  6
CONTINUOUS
 62
     7
 10
174.5409
 20
68.19691
 40
3.5
  0
CIRCLE
  8
0
  6
CONTINUOUS
 62
     7
 10
174.5409
 20
68.19691
 40
2.8
  0
ARC
  8
0
  6
CONTINUOUS
 62
     7
 10
174.5409
 20
68.19691
 40
2.0
 50
180.0
 51
194.4775
  0
ARC
  8
0
  6
CONTINUOUS
 62
     7
 10
174.5409
 20
68.19691
 40
2.0
 50
255.5225
 51
284.4775
  0
ARC
  8
0
  6
CONTINUOUS
 62
     7
 10
174.5409
 20
68.19691
 40
2.0
 50
345.5225
 51
14.4775
  0
ARC
  8
0
  6
CONTINUOUS
 62
     7
 10
199.5409
 20
68.19691
 40
2.0
 50
75.52249
 51
104.4775
  0
ARC
  8
0
  6
CONTINUOUS
 62
     7
 10
199.5409
 20
68.19691
 40
2.0
 50
165.5225
 51
180.0
  0
ARC
  8
0
  6
CONTINUOUS
 62
     7
 10
197.0409
 20
70.69691
 40
2.0
 50
89.99999
 51
180.0
  0
ARC
  8
0
  6
CONTINUOUS
 62
     7
 10
202.0409
 20
70.69691
 40
2.0
 50
0.0
 51
89.99999
  0
ARC
  8
0
  6
CONTINUOUS
 62
     7
 10
193.5409
 20
60.69691
 40
1.7
 50
0.0
 51
180.0
  0
ARC
  8
0
  6
CONTINUOUS
 62
     7
 10
193.5409
 20
60.69691
 40
1.7
 50
0.0
 51
180.0
  0
ARC
  8
0
  6
CONTINUOUS
 62
     7
 10
193.5409
 20
60.69691
 40
2.5
 50
312.8437
 51
227.156
  0
CIRCLE
  8
0
  6
CONTINUOUS
 62
     7
 10
199.5409
 20
68.19691
 40
3.5
  0
CIRCLE
  8
0
  6
CONTINUOUS
 62
     7
 10
199.5409
 20
68.19691
 40
2.8
  0
ARC
  8
0
  6
CONTINUOUS
 62
     7
 10
199.5409
 20
68.19691
 40
2.0
 50
180.0
 51
194.4775
  0
ARC
  8
0
  6
CONTINUOUS
 62
     7
 10
199.5409
 20
68.19691
 40
2.0
 50
255.5225
 51
284.4775
  0
ARC
  8
0
  6
CONTINUOUS
 62
     7
 10
199.5409
 20
68.19691
 40
2.0
 50
345.5225
 51
14.4775
  0
ARC
  8
0
  6
CONTINUOUS
 62
     7
 10
34.54095
 20
17.29689
 40
0.5
 50
89.99999
 51
180.0
  0
ARC
  8
0
  6
CONTINUOUS
 62
     7
 10
33.29095
 20
15.79689
 40
2.5
 50
89.99992
 51
168.463
  0
ARC
  8
0
  6
CONTINUOUS
 62
     7
 10
33.79095
 20
15.79689
 40
2.5
 50
11.53683
 51
89.99992
  0
ARC
  8
0
  6
CONTINUOUS
 62
     7
 10
32.54095
 20
17.29689
 40
0.5
 50
0.0
 51
89.99999
  0
ARC
  8
0
  6
CONTINUOUS
 62
     7
 10
32.54096
 20
26.19689
 40
0.5
 50
0.0
 51
89.99999
  0
ARC
  8
0
  6
CONTINUOUS
 62
     7
 10
33.79096
 20
24.69689
 40
2.5
 50
11.53696
 51
89.99999
  0
ARC
  8
0
  6
CONTINUOUS
 62
     7
 10
33.29096
 20
24.69689
 40
2.5
 50
89.99999
 51
168.4631
  0
ARC
  8
0
  6
CENTER
 62
     2
 10
43.04096
 20
28.99689
 40
2.0
 50
89.99999
 51
179.9999
  0
ARC
  8
0
  6
CONTINUOUS
 62
     7
 10
42.94096
 20
29.09689
 40
3.6
 50
89.99999
 51
180.0
  0
ARC
  8
0
  6
CONTINUOUS
 62
     7
 10
43.74096
 20
28.29689
 40
1.0
 50
89.99999
 51
180.0
  0
ARC
  8
0
  6
CONTINUOUS
 62
     7
 10
34.54096
 20
26.19689
 40
0.5
 50
89.99999
 51
180.0
  0
TEXT
  8
0
  6
CONTINUOUS
 62
     7
 10
-229.2471
 20
127.675
 40
7.0
  1
TYPE : SUT 10,16,25
 41
0.8
  7
STANDARD
  0
TEXT
  8
0
  6
CONTINUOUS
 62
     7
 10
161.9773
 20
167.0677
 40
6.0
  1
DATE : JAN ,1988
 41
0.8
  7
STANDARD
  0
TEXT
  8
0
  6
CONTINUOUS
 62
     7
 10
-249.6446
 20
166.5977
 40
7.0
  1
SLIDE SENSOR SW
 41
0.8
  7
STANDARD
  0
TEXT
  8
0
  6
CONTINUOUS
 62
     7
 10
33.0001
 20
127.675
 40
7.0
  1
TYPE : SUP 10,16,25
 41
0.8
  7
STANDARD
  0
TEXT
  8
0
  6
CONTINUOUS
 62
     7
 10
62.7751794
 20
112.675
 40
7.0
  1
SUL 10,16,25
 41
0.8
  7
STANDARD
  0
ENDSEC
  0
EOF
