  0
SECTION
  2
HEADER
  0
ENDSEC
  0
SECTION
  2
TABLES
  0
TABLE
  2
LTYPE
 70
     4
  0
LTYPE
  2
CONTINUOUS
 70
    64
  3
Solid line
 72
    65
 73
     0
 40
0.000000
  0
LTYPE
  2
DASHED
 70
    64
  3
__ __ __ __ __ __ __ __ __ __ __ __ __ __ __
 72
    65
 73
     2
 40
3.500000
 49
2.000000
 49
-1.500000
  0
LTYPE
  2
CENTER
 70
    64
  3
____ _ ____ _ ____ _ ____ _ ____ _ ____ _ ____
 72
    65
 73
     4
 40
17.500000
 49
13.000000
 49
-1.500000
 49
1.500000
 49
-1.500000
  0
LTYPE
  2
PHANTOM
 70
    64
  3
_____ _ _ _____ _ _ _____ _ _ _____ _ _ ____  
 72
    65
 73
     6
 40
15.500000
 49
8.000000
 49
-1.500000
 49
1.500000
 49
-1.500000
 49
1.500000
 49
-1.500000
  0
LTYPE
  2
DASHED1
 70
    64
  3
__ __ __ __ __ __ __ __ __ __ __ __ __ __ __
 72
    65
 73
     2
 40
1.500000
 49
1.000000
 49
-0.500000
  0
LTYPE
  2
DASHED2
 70
    64
  3
__ __ __ __ __ __ __ __ __ __ __ __ __ __ __
 72
    65
 73
     2
 40
3.500000
 49
2.500000
 49
-1.000000
  0
LTYPE
  2
DASHED3
 70
    64
  3
__ __ __ __ __ __ __ __ __ __ __ __ __ __ __
 72
    65
 73
     2
 40
6.000000
 49
4.000000
 49
-2.000000
  0
LTYPE
  2
DASHED4
 70
    64
  3
__ __ __ __ __ __ __ __ __ __ __ __ __ __ __
 72
    65
 73
     2
 40
12.000000
 49
10.000000
 49
-2.000000
  0
LTYPE
  2
DASHED5
 70
    64
  3
__ __ __ __ __ __ __ __ __ __ __ __ __ __ __
 72
    65
 73
     2
 40
17.000000
 49
15.000000
 49
-2.000000
  0
LTYPE
  2
DASHED6
 70
    64
  3
__ __ __ __ __ __ __ __ __ __ __ __ __ __ __
 72
    65
 73
     2
 40
29.000000
 49
27.000000
 49
-2.000000
  0
LTYPE
  2
PHANTOM1
 70
    64
  3
_____ _ _ _____ _ _ _____ _ _ _____ _ _ ____  
 72
    65
 73
     6
 40
31.000000
 49
25.000000
 49
-1.500000
 49
1.000000
 49
-1.000000
 49
1.000000
 49
-1.500000
  0
LTYPE
  2
PHANTOM2
 70
    64
  3
_____ _ _ _____ _ _ _____ _ _ _____ _ _ ____  
 72
    65
 73
     6
 40
36.000000
 49
27.000000
 49
-1.500000
 49
2.500000
 49
-1.000000
 49
2.500000
 49
-1.500000
  0
LTYPE
  2
PHANTOM3
 70
    64
  3
_____ _ _ _____ _ _ _____ _ _ _____ _ _ ____  
 72
    65
 73
     6
 40
78.000000
 49
64.000000
 49
-2.000000
 49
4.000000
 49
-2.000000
 49
4.000000
 49
-2.000000
  0
LTYPE
  2
CENTER1
 70
    64
  3
____ _ ____ _ ____ _ ____ _ ____ _ ____ _ ____
 72
    65
 73
     4
 40
19.000000
 49
14.000000
 49
-1.000000
 49
3.000000
 49
-1.000000
  0
LTYPE
  2
CENTER2
 70
    64
  3
____ _ ____ _ ____ _ ____ _ ____ _ ____ _ ____
 72
    65
 73
     4
 40
28.500000
 49
25.000000
 49
-1.000000
 49
1.500000
 49
-1.000000
  0
LTYPE
  2
CENTER3
 70
    64
  3
____ _ ____ _ ____ _ ____ _ ____ _ ____ _ ____
 72
    65
 73
     4
 40
31.500000
 49
27.000000
 49
-1.000000
 49
2.500000
 49
-1.000000
  0
LTYPE
  2
CENTER4
 70
    64
  3
____ _ ____ _ ____ _ ____ _ ____ _ ____ _ ____
 72
    65
 73
     4
 40
50.000000
 49
45.000000
 49
-1.000000
 49
3.000000
 49
-1.000000
  0
LTYPE
  2
CENTER5
 70
    64
  3
____ _ ____ _ ____ _ ____ _ ____ _ ____ _ ____
 72
    65
 73
     4
 40
100.000000
 49
92.000000
 49
-2.000000
 49
4.000000
 49
-2.000000
  0
LTYPE
  2
SBK1
 70
    64
  3
______ _ _ _ ______ _ _ _ ______ _ _ _ _____  
 72
    65
 73
     8
 40
60.500000
 49
45.000000
 49
-2.000000
 49
2.500000
 49
-2.000000
 49
2.500000
 49
-2.000000
 49
2.500000
 49
-2.000000
  0
LTYPE
  2
SBK2
 70
    64
  3
______ _ _ _ ______ _ _ _ ______ _ _ _ _____  
 72
    65
 73
     8
 40
84.000000
 49
64.000000
 49
-2.000000
 49
4.000000
 49
-2.000000
 49
4.000000
 49
-2.000000
 49
4.000000
 49
-2.000000
  0
LTYPE
  2
STCH
 70
    64
  3
__ __ __ __ __ __ __ __ __ __ __ __ __ __ __
 72
    65
 73
     2
 40
3.000000
 49
1.000000
 49
-2.000000
  0
LTYPE
  2
MTCH
 70
    64
  3
_____ _ _ _____ _ _ _____ _ _ _____ _ _ ____  
 72
    65
 73
     6
 40
80.000000
 49
66.000000
 49
-2.000000
 49
4.000000
 49
-2.000000
 49
4.000000
 49
-2.000000
  0
ENDTAB
  0
TABLE
  2
LAYER
 70
     1
  0
LAYER
  2
0
 70
     0
 62
     7
  6
CONTINUOUS
  0
ENDTAB
  0
TABLE
  2
STYLE
 70
     1
  0
STYLE
  2
STANDARD
 70
     0
 40
0.000000
 41
1.000000
 50
0.000000
 71
     0
 42
0.200000
  3
txt
  4
BIGFONT
  0
ENDTAB
  0
TABLE
  2
VIEW
 70
     0
  0
ENDTAB
  0
ENDSEC
  0
SECTION
  2
BLOCKS
  0
ENDSEC
  0
SECTION
  2
ENTITIES
  0
LINE
  8
0
  6
CENTER
 62
     2
 10
-66.581345
 20
5.152817
 11
-20.201187
 21
5.152817
  0
LINE
  8
0
 10
-44.729218
 20
25.152824
 11
-44.729218
 21
20.152817
  0
LINE
  8
0
 10
-40.729218
 20
25.152824
 11
-40.729218
 21
20.152817
  0
LINE
  8
0
  6
CENTER
 62
     2
 10
-26.729218
 20
-8.558605
 11
-26.729218
 21
-13.269665
  0
LINE
  8
0
  6
CENTER
 62
     2
 10
-24.557144
 20
-10.847183
 11
-29.163513
 21
-10.847183
  0
LINE
  8
0
 10
-62.729218
 20
21.766075
 11
-62.729218
 21
-11.460430
  0
LINE
  8
0
 10
-22.729218
 20
21.766075
 11
-22.729218
 21
-11.460430
  0
LINE
  8
0
 10
-26.115974
 20
-14.847183
 11
-59.342468
 21
-14.847183
  0
LINE
  8
0
 10
-26.115967
 20
25.152821
 11
-59.342461
 21
25.152821
  0
LINE
  8
0
  6
CENTER
 62
     2
 10
-26.729218
 20
18.864250
 11
-26.729218
 21
23.575310
  0
LINE
  8
0
  6
CENTER
 62
     2
 10
-24.557129
 20
21.152821
 11
-29.163498
 21
21.152821
  0
LINE
  8
0
  6
CENTER
 62
     2
 10
-58.729218
 20
18.864250
 11
-58.729218
 21
23.575310
  0
LINE
  8
0
  6
CENTER
 62
     2
 10
-60.901291
 20
21.152821
 11
-56.294922
 21
21.152821
  0
LINE
  8
0
  6
CENTER
 62
     2
 10
-58.729218
 20
-8.558605
 11
-58.729218
 21
-13.269665
  0
LINE
  8
0
  6
CENTER
 62
     2
 10
-60.901299
 20
-10.847183
 11
-56.294930
 21
-10.847183
  0
LINE
  8
0
  6
CENTER
 62
     2
 10
-42.729218
 20
26.918663
 11
-42.729218
 21
-19.410538
  0
LINE
  8
0
 10
-138.229233
 20
0.652815
 11
-138.229233
 21
9.652817
  0
LINE
  8
0
 10
-142.729233
 20
-4.847185
 11
-142.729233
 21
0.152815
  0
LINE
  8
0
 10
-137.729233
 20
0.152815
 11
-137.729233
 21
10.152817
  0
LINE
  8
0
 10
-144.729218
 20
0.652832
 11
-144.729218
 21
9.652817
  0
LINE
  8
0
 10
-142.729233
 20
-4.847176
 11
-134.729233
 21
-4.847176
  0
LINE
  8
0
 10
-144.729218
 20
9.652817
 11
-141.679230
 21
9.652817
  0
LINE
  8
0
 10
-142.729233
 20
10.152817
 11
-142.729233
 21
15.152817
  0
LINE
  8
0
 10
-142.729233
 20
10.152817
 11
-141.570099
 21
10.152817
  0
LINE
  8
0
 10
-146.729218
 20
3.652817
 11
-146.729218
 21
6.652817
  0
LINE
  8
0
 10
-146.729218
 20
6.652817
 11
-144.729218
 21
6.652817
  0
LINE
  8
0
 10
-146.729218
 20
3.652817
 11
-144.729218
 21
3.652817
  0
LINE
  8
0
 10
-134.729218
 20
20.652832
 11
-122.729233
 21
20.652832
  0
LINE
  8
0
 10
-134.729233
 20
-10.347176
 11
-122.729233
 21
-10.347176
  0
LINE
  8
0
 10
-142.729218
 20
0.652815
 11
-142.729218
 21
9.652817
  0
LINE
  8
0
 10
-139.388351
 20
10.152817
 11
-137.729233
 21
10.152817
  0
LINE
  8
0
 10
-139.279221
 20
9.652817
 11
-138.229233
 21
9.652817
  0
LINE
  8
0
 10
-139.279221
 20
0.652832
 11
-138.229233
 21
0.652832
  0
LINE
  8
0
 10
-139.388351
 20
0.152832
 11
-137.729233
 21
0.152832
  0
LINE
  8
0
 10
-142.729233
 20
0.152832
 11
-141.570099
 21
0.152832
  0
LINE
  8
0
 10
-144.729218
 20
0.652832
 11
-141.679230
 21
0.652832
  0
LINE
  8
0
 10
-134.729218
 20
18.482819
 11
-122.729233
 21
18.482819
  0
LINE
  8
0
 10
-134.729233
 20
-8.177170
 11
-122.729233
 21
-8.177170
  0
LINE
  8
0
 10
-122.729233
 20
-10.347185
 11
-122.729233
 21
20.652817
  0
LINE
  8
0
 10
-122.729233
 20
-8.847176
 11
-106.729218
 21
-8.847176
  0
LINE
  8
0
  6
CENTER
 62
     2
 10
-130.744705
 20
-4.847176
 11
-126.484360
 21
-4.847176
  0
LINE
  8
0
  6
CENTER
 62
     2
 10
-130.744705
 20
15.152832
 11
-126.484360
 21
15.152832
  0
LINE
  8
0
 10
-134.729233
 20
-10.347185
 11
-134.729233
 21
20.652817
  0
LINE
  8
0
  6
CENTER
 62
     2
 10
-128.729233
 20
17.222641
 11
-128.729233
 21
-6.917017
  0
LINE
  8
0
 10
-142.729218
 20
15.152832
 11
-134.729218
 21
15.152832
  0
LINE
  8
0
 10
-122.729233
 20
19.152817
 11
-106.729210
 21
19.152817
  0
LINE
  8
0
  6
CENTER
 62
     2
 10
-148.934448
 20
5.152817
 11
-95.457893
 21
5.152817
  0
LINE
  8
0
 10
-106.729210
 20
-14.847185
 11
-106.729210
 21
25.152817
  0
LINE
  8
0
 10
-97.729210
 20
-14.847185
 11
-97.729210
 21
25.152817
  0
LINE
  8
0
 10
-106.729210
 20
25.152817
 11
-97.729218
 21
25.152817
  0
LINE
  8
0
 10
-106.729210
 20
21.766068
 11
-97.729218
 21
21.766068
  0
LINE
  8
0
 10
-106.729218
 20
-11.460426
 11
-97.729218
 21
-11.460426
  0
LINE
  8
0
 10
-106.729218
 20
-14.847176
 11
-97.729218
 21
-14.847176
  0
LINE
  8
0
 10
52.770821
 20
9.652822
 11
52.770821
 21
0.652824
  0
LINE
  8
0
 10
57.270821
 20
15.152822
 11
57.270821
 21
10.152822
  0
LINE
  8
0
 10
52.270821
 20
10.152822
 11
52.270821
 21
0.152824
  0
LINE
  8
0
 10
59.270805
 20
9.652822
 11
59.270805
 21
0.652824
  0
LINE
  8
0
 10
57.270828
 20
-4.847183
 11
49.270828
 21
-4.847183
  0
LINE
  8
0
 10
59.270828
 20
0.652817
 11
56.220825
 21
0.652817
  0
LINE
  8
0
 10
57.270821
 20
0.152824
 11
57.270821
 21
-4.847183
  0
LINE
  8
0
 10
57.270828
 20
0.152817
 11
56.111694
 21
0.152817
  0
LINE
  8
0
 10
61.270805
 20
6.652824
 11
61.270805
 21
3.652824
  0
LINE
  8
0
 10
61.270828
 20
3.652817
 11
59.270828
 21
3.652817
  0
LINE
  8
0
 10
61.270828
 20
6.652817
 11
59.270828
 21
6.652817
  0
LINE
  8
0
 10
49.270828
 20
-10.347183
 11
37.270832
 21
-10.347183
  0
LINE
  8
0
 10
49.270828
 20
20.652813
 11
37.270832
 21
20.652813
  0
LINE
  8
0
 10
57.270805
 20
9.652822
 11
57.270805
 21
0.652824
  0
LINE
  8
0
 10
53.929962
 20
0.152817
 11
52.270828
 21
0.152817
  0
LINE
  8
0
 10
53.820831
 20
0.652817
 11
52.770828
 21
0.652817
  0
LINE
  8
0
 10
53.820831
 20
9.652815
 11
52.770828
 21
9.652815
  0
LINE
  8
0
 10
53.929962
 20
10.152815
 11
52.270828
 21
10.152815
  0
LINE
  8
0
 10
57.270828
 20
10.152815
 11
56.111694
 21
10.152815
  0
LINE
  8
0
 10
59.270828
 20
9.652815
 11
56.220825
 21
9.652815
  0
LINE
  8
0
 10
49.270828
 20
-8.177185
 11
37.270832
 21
-8.177185
  0
LINE
  8
0
 10
49.270828
 20
18.482815
 11
37.270832
 21
18.482815
  0
LINE
  8
0
 10
37.270821
 20
20.652821
 11
37.270821
 21
-10.347187
  0
LINE
  8
0
 10
37.270832
 20
19.152813
 11
21.270813
 21
19.152813
  0
LINE
  8
0
  6
CENTER
 62
     2
 10
45.286301
 20
15.152815
 11
41.025955
 21
15.152815
  0
LINE
  8
0
 10
12.270805
 20
25.152821
 11
12.270805
 21
-14.847187
  0
LINE
  8
0
  6
CENTER
 62
     2
 10
45.286301
 20
-4.847183
 11
41.025955
 21
-4.847183
  0
LINE
  8
0
 10
37.270832
 20
-8.847183
 11
21.270813
 21
-8.847183
  0
LINE
  8
0
 10
49.270821
 20
20.652821
 11
49.270821
 21
-10.347187
  0
LINE
  8
0
  6
CENTER
 62
     2
 10
43.270821
 20
-6.917007
 11
43.270821
 21
17.222645
  0
LINE
  8
0
  6
CENTER
 62
     2
 10
66.382843
 20
5.152817
 11
9.999489
 21
5.152817
  0
LINE
  8
0
 10
21.270813
 20
2.152817
 11
19.270813
 21
2.152817
  0
LINE
  8
0
 10
21.270813
 20
8.152815
 11
19.270813
 21
8.152815
  0
LINE
  8
0
 10
19.270805
 20
8.152822
 11
19.270805
 21
2.152824
  0
LINE
  8
0
 10
21.270805
 20
-14.847179
 11
21.270805
 21
25.152821
  0
LINE
  8
0
 10
21.270813
 20
-14.847179
 11
12.270813
 21
-14.847179
  0
LINE
  8
0
 10
21.270817
 20
25.152813
 11
12.270817
 21
25.152813
  0
LINE
  8
0
 10
57.270828
 20
15.152815
 11
49.270828
 21
15.152815
  0
LINE
  8
0
  6
CENTER
 62
     2
 10
-54.799026
 20
95.152786
 11
-30.659378
 21
95.152786
  0
LINE
  8
0
  6
CENTER
 62
     2
 10
-42.729218
 20
117.809845
 11
-42.729218
 21
61.881454
  0
LINE
  8
0
 10
-28.729218
 20
89.152786
 11
-28.729218
 21
73.152779
  0
LINE
  8
0
  6
CENTER
 62
     2
 10
-32.729218
 20
97.168259
 11
-32.729218
 21
92.907913
  0
LINE
  8
0
  6
CENTER
 62
     2
 10
-52.729218
 20
97.168259
 11
-52.729218
 21
92.907913
  0
LINE
  8
0
 10
-56.729218
 20
89.152786
 11
-56.729218
 21
73.152779
  0
LINE
  8
0
 10
-22.729210
 20
64.152779
 11
-62.729210
 21
64.152779
  0
LINE
  8
0
 10
-22.729218
 20
64.152779
 11
-22.729218
 21
73.152771
  0
LINE
  8
0
 10
-26.115967
 20
64.152779
 11
-26.115967
 21
73.152771
  0
LINE
  8
0
 10
-22.729202
 20
73.152771
 11
-62.729202
 21
73.152771
  0
LINE
  8
0
 10
-59.342461
 20
64.152779
 11
-59.342461
 21
73.152771
  0
LINE
  8
0
 10
-62.729218
 20
64.152779
 11
-62.729218
 21
73.152771
  0
LINE
  8
0
 10
-25.229218
 20
89.152786
 11
-25.229218
 21
101.152786
  0
LINE
  8
0
 10
-27.116737
 20
89.152786
 11
-27.116737
 21
101.152786
  0
LINE
  8
0
 10
-25.229202
 20
89.152786
 11
-60.229202
 21
89.152786
  0
LINE
  8
0
 10
-58.341713
 20
89.152786
 11
-58.341713
 21
101.152786
  0
LINE
  8
0
 10
-60.229225
 20
89.152786
 11
-60.229225
 21
101.152786
  0
LINE
  8
0
 10
-25.229202
 20
101.152786
 11
-60.229202
 21
101.152786
  0
LINE
  8
0
 10
-59.979218
 20
109.152786
 11
-59.979218
 21
101.152786
  0
LINE
  8
0
 10
-58.729233
 20
111.152786
 11
-58.729233
 21
109.152786
  0
LINE
  8
0
 10
-46.729210
 20
111.152771
 11
-58.729210
 21
111.152771
  0
LINE
  8
0
 10
-46.729229
 20
111.152786
 11
-46.729229
 21
109.152786
  0
LINE
  8
0
 10
-48.729221
 20
111.152786
 11
-48.729221
 21
113.152786
  0
LINE
  8
0
 10
-48.729202
 20
113.152771
 11
-51.729202
 21
113.152771
  0
LINE
  8
0
 10
-51.729221
 20
111.152786
 11
-51.729221
 21
113.152786
  0
LINE
  8
0
  6
CENTER
 62
     2
 10
-50.229221
 20
109.152786
 11
-50.229221
 21
114.350739
  0
LINE
  8
0
 10
-59.979195
 20
109.152786
 11
-25.479195
 21
109.152786
  0
LINE
  8
0
  6
CENTER
 62
     2
 10
-35.229225
 20
109.152786
 11
-35.229225
 21
114.350739
  0
LINE
  8
0
 10
-38.729214
 20
111.152786
 11
-38.729214
 21
109.152786
  0
LINE
  8
0
 10
-36.729221
 20
111.152786
 11
-36.729221
 21
113.152786
  0
LINE
  8
0
 10
-33.729225
 20
111.152786
 11
-33.729225
 21
113.152786
  0
LINE
  8
0
 10
-26.729218
 20
111.152786
 11
-26.729218
 21
109.152786
  0
LINE
  8
0
 10
-38.729195
 20
111.152771
 11
-26.729195
 21
111.152771
  0
LINE
  8
0
 10
-36.729202
 20
113.152771
 11
-33.729202
 21
113.152771
  0
LINE
  8
0
 10
-25.479218
 20
109.152786
 11
-25.479218
 21
101.152786
  0
LINE
  8
0
 10
-40.729210
 20
68.152779
 11
-44.729210
 21
68.152779
  0
LINE
  8
0
 10
-44.729218
 20
68.152779
 11
-44.729218
 21
64.152779
  0
LINE
  8
0
 10
-40.729218
 20
68.152779
 11
-40.729218
 21
64.152779
  0
LINE
  8
0
 10
-25.229218
 20
-86.847198
 11
-60.229218
 21
-86.847198
  0
LINE
  8
0
 10
-25.229218
 20
-74.847198
 11
-60.229218
 21
-74.847198
  0
LINE
  8
0
 10
-56.729225
 20
-74.847206
 11
-56.729225
 21
-58.847191
  0
LINE
  8
0
 10
-28.729225
 20
-74.847206
 11
-28.729225
 21
-58.847191
  0
LINE
  8
0
  6
CENTER
 62
     2
 10
-49.229218
 20
-59.319138
 11
-49.229218
 21
-50.992233
  0
LINE
  8
0
  6
CENTER
 62
     2
 10
-45.277664
 20
-54.847191
 11
-53.604568
 21
-54.847191
  0
LINE
  8
0
  6
CENTER
 62
     2
 10
-36.229218
 20
-59.319138
 11
-36.229218
 21
-50.992233
  0
LINE
  8
0
  6
CENTER
 62
     2
 10
-40.180763
 20
-54.847191
 11
-31.853859
 21
-54.847191
  0
LINE
  8
0
 10
-60.229225
 20
-74.847206
 11
-60.229225
 21
-86.847206
  0
LINE
  8
0
 10
-25.229218
 20
-74.847206
 11
-25.229218
 21
-86.847206
  0
LINE
  8
0
 10
-59.979218
 20
-94.847206
 11
-59.979218
 21
-86.847206
  0
LINE
  8
0
 10
-25.479218
 20
-94.847206
 11
-25.479218
 21
-86.847206
  0
LINE
  8
0
 10
-59.979210
 20
-94.847198
 11
-25.479210
 21
-94.847198
  0
LINE
  8
0
 10
-38.729218
 20
-96.847198
 11
-38.729218
 21
-94.847206
  0
LINE
  8
0
 10
-26.729218
 20
-96.847198
 11
-26.729218
 21
-94.847206
  0
LINE
  8
0
 10
-38.729210
 20
-96.847198
 11
-26.729210
 21
-96.847198
  0
LINE
  8
0
 10
-36.729218
 20
-96.847198
 11
-36.729218
 21
-98.847198
  0
LINE
  8
0
 10
-33.729225
 20
-96.847198
 11
-33.729225
 21
-98.847198
  0
LINE
  8
0
 10
-36.729218
 20
-98.847198
 11
-33.729218
 21
-98.847198
  0
LINE
  8
0
 10
-46.729233
 20
-96.847198
 11
-46.729233
 21
-94.847206
  0
LINE
  8
0
 10
-58.729233
 20
-96.847198
 11
-58.729233
 21
-94.847206
  0
LINE
  8
0
 10
-46.729225
 20
-96.847198
 11
-58.729225
 21
-96.847198
  0
LINE
  8
0
 10
-48.729218
 20
-96.847198
 11
-48.729218
 21
-98.847198
  0
LINE
  8
0
 10
-51.729218
 20
-96.847198
 11
-51.729218
 21
-98.847198
  0
LINE
  8
0
 10
-48.729218
 20
-98.847198
 11
-51.729218
 21
-98.847198
  0
LINE
  8
0
 10
-58.341713
 20
-74.847206
 11
-58.341713
 21
-86.847206
  0
LINE
  8
0
 10
-27.116737
 20
-74.847206
 11
-27.116737
 21
-86.847206
  0
LINE
  8
0
  6
CENTER
 62
     2
 10
-42.729218
 20
-47.507191
 11
-42.729218
 21
-101.267189
  0
LINE
  8
0
  6
CENTER
 62
     2
 10
-35.229225
 20
-94.847198
 11
-35.229225
 21
-100.045151
  0
LINE
  8
0
  6
CENTER
 62
     2
 10
-50.229218
 20
-94.847198
 11
-50.229218
 21
-100.045151
  0
LINE
  8
0
 10
-22.729218
 20
-58.847183
 11
-22.729218
 21
-49.847187
  0
LINE
  8
0
 10
-26.115967
 20
-58.847183
 11
-26.115967
 21
-49.847187
  0
LINE
  8
0
 10
-22.729218
 20
-58.847183
 11
-62.729218
 21
-58.847183
  0
LINE
  8
0
 10
-22.729218
 20
-49.847191
 11
-62.729218
 21
-49.847191
  0
LINE
  8
0
 10
-59.342468
 20
-58.847183
 11
-59.342468
 21
-49.847187
  0
LINE
  8
0
 10
-62.729218
 20
-58.847183
 11
-62.729218
 21
-49.847187
  0
LINE
  8
0
 10
132.270767
 20
0.652817
 11
132.270767
 21
9.652813
  0
LINE
  8
0
  6
CENTER
 62
     2
 10
105.183777
 20
5.152817
 11
117.653687
 21
5.152817
  0
LINE
  8
0
  6
CENTER
 62
     2
 10
136.770767
 20
2.256332
 11
136.770767
 21
7.937973
  0
LINE
  8
0
  6
CENTER
 62
     2
 10
142.770782
 20
2.189926
 11
142.770782
 21
8.069807
  0
LINE
  8
0
 10
112.020813
 20
-4.646988
 11
146.520798
 21
-4.646988
  0
LINE
  8
0
 10
112.020813
 20
14.953596
 11
146.520798
 21
14.953596
  0
LINE
  8
0
 10
132.270798
 20
0.652817
 11
146.270798
 21
0.652817
  0
LINE
  8
0
 10
132.270798
 20
9.652815
 11
146.270798
 21
9.652815
  0
LINE
  8
0
 10
112.020813
 20
-0.347183
 11
146.520798
 21
-0.347183
  0
LINE
  8
0
 10
112.020813
 20
10.652815
 11
146.520798
 21
10.652815
  0
LINE
  8
0
 10
146.270782
 20
0.652817
 11
146.270782
 21
9.652813
  0
LINE
  8
0
 10
146.770782
 20
-8.179218
 11
146.770782
 21
18.485821
  0
LINE
  8
0
 10
111.770782
 20
-8.179218
 11
111.770782
 21
18.485821
  0
LINE
  8
0
 10
126.270782
 20
0.652817
 11
126.270782
 21
9.652813
  0
LINE
  8
0
  6
CENTER
 62
     2
 10
121.770782
 20
2.256332
 11
121.770782
 21
7.937973
  0
LINE
  8
0
  6
CENTER
 62
     2
 10
115.770782
 20
2.189926
 11
115.770782
 21
8.069807
  0
LINE
  8
0
 10
126.270798
 20
0.652817
 11
112.270798
 21
0.652817
  0
LINE
  8
0
 10
126.270798
 20
9.652815
 11
112.270798
 21
9.652815
  0
LINE
  8
0
 10
112.270782
 20
0.652817
 11
112.270782
 21
9.652813
  0
LINE
  8
0
 10
113.658310
 20
20.652813
 11
144.883286
 21
20.652813
  0
LINE
  8
0
 10
112.020782
 20
-4.646988
 11
112.020782
 21
14.953594
  0
LINE
  8
0
 10
146.520782
 20
-4.646988
 11
146.520782
 21
14.953594
  0
LINE
  8
0
 10
113.270782
 20
0.652817
 11
113.270782
 21
9.652813
  0
LINE
  8
0
 10
125.270782
 20
0.652817
 11
125.270782
 21
9.652813
  0
LINE
  8
0
 10
133.270767
 20
0.652817
 11
133.270767
 21
9.652813
  0
LINE
  8
0
 10
145.270782
 20
0.652817
 11
145.270782
 21
9.652813
  0
LINE
  8
0
 10
113.658295
 20
-10.347183
 11
144.883301
 21
-10.347183
  0
LINE
  8
0
  6
CENTER
 62
     2
 10
119.126022
 20
5.152817
 11
139.575211
 21
5.152817
  0
LINE
  8
0
 10
109.270782
 20
-11.460468
 11
109.270782
 21
21.766094
  0
LINE
  8
0
 10
112.657562
 20
-14.847187
 11
145.884048
 21
-14.847187
  0
LINE
  8
0
 10
149.270782
 20
-11.460468
 11
149.270782
 21
21.766094
  0
LINE
  8
0
 10
112.657562
 20
25.152813
 11
145.884064
 21
25.152813
  0
LINE
  8
0
  6
CENTER
 62
     2
 10
145.270782
 20
20.252422
 11
145.270782
 21
23.575665
  0
LINE
  8
0
  6
CENTER
 62
     2
 10
147.442886
 20
21.152813
 11
142.836517
 21
21.152813
  0
LINE
  8
0
  6
CENTER
 62
     2
 10
113.270782
 20
20.252422
 11
113.270782
 21
23.575665
  0
LINE
  8
0
  6
CENTER
 62
     2
 10
111.098724
 20
21.152813
 11
115.705093
 21
21.152813
  0
LINE
  8
0
  6
CENTER
 62
     2
 10
145.270782
 20
-9.946796
 11
145.270782
 21
-13.269062
  0
LINE
  8
0
  6
CENTER
 62
     2
 10
147.442886
 20
-10.847187
 11
142.836517
 21
-10.847187
  0
LINE
  8
0
  6
CENTER
 62
     2
 10
113.270782
 20
-9.946796
 11
113.270782
 21
-13.269062
  0
LINE
  8
0
  6
CENTER
 62
     2
 10
111.098724
 20
-10.847187
 11
115.705093
 21
-10.847187
  0
LINE
  8
0
  6
CENTER
 62
     2
 10
140.540527
 20
5.152817
 11
151.883102
 21
5.152817
  0
LINE
  8
0
  6
CENTER
 62
     2
 10
129.270767
 20
-18.038593
 11
129.270767
 21
27.952618
  0
LINE
  8
0
 10
-194.250000
 20
132.600006
 11
194.800003
 21
132.600006
  0
LINE
  8
0
 10
194.800003
 20
132.600006
 11
194.800003
 21
-133.500000
  0
LINE
  8
0
 10
-194.250000
 20
132.600006
 11
-194.250000
 21
-133.500000
  0
LINE
  8
0
 10
-194.250000
 20
-133.500000
 11
194.800003
 21
-133.500000
  0
LINE
  8
0
 10
109.800003
 20
-118.500000
 11
109.800003
 21
-133.500000
  0
LINE
  8
0
 10
109.800003
 20
-118.500000
 11
194.800003
 21
-118.500000
  0
LINE
  8
0
 10
109.800003
 20
132.600006
 11
109.800003
 21
117.600006
  0
LINE
  8
0
 10
109.800003
 20
117.600006
 11
194.800003
 21
117.600006
  0
LINE
  8
0
 10
-194.250000
 20
117.600006
 11
-109.250000
 21
117.600006
  0
LINE
  8
0
 10
-109.250000
 20
132.600006
 11
-109.250000
 21
117.600006
  0
CIRCLE
  8
0
 62
     2
 10
-58.729214
 20
-10.847187
 40
1.500000
  0
CIRCLE
  8
0
 62
     2
 10
-58.729210
 20
21.152832
 40
1.500000
  0
CIRCLE
  8
0
 10
-42.729214
 20
5.152811
 40
2.000000
  0
ARC
  8
0
 10
-42.729214
 20
20.152817
 40
2.000000
 50
180.000000
 51
0.000000
  0
CIRCLE
  8
0
 62
     2
 10
-26.729218
 20
-10.847191
 40
1.500000
  0
ARC
  8
0
 10
-42.729214
 20
5.152819
 40
26.000002
 50
219.715164
 51
230.284897
  0
ARC
  8
0
 10
-42.729214
 20
5.152819
 40
26.000000
 50
309.715118
 51
320.284851
  0
ARC
  8
0
 10
-42.729214
 20
5.152819
 40
26.000000
 50
129.715149
 51
140.284882
  0
ARC
  8
0
 10
-42.729214
 20
5.152819
 40
26.000000
 50
39.715191
 51
50.284859
  0
CIRCLE
  8
0
 62
     2
 10
-26.729218
 20
21.152828
 40
1.500000
  0
CIRCLE
  8
0
 10
-58.729218
 20
21.152821
 40
1.250000
  0
CIRCLE
  8
0
 10
-26.729218
 20
21.152821
 40
1.250000
  0
CIRCLE
  8
0
 10
-58.729218
 20
-10.847183
 40
1.250000
  0
CIRCLE
  8
0
 10
-26.729218
 20
-10.847183
 40
1.250000
  0
ARC
  8
0
 10
-140.479233
 20
9.652809
 40
1.199997
 50
0.000000
 51
180.000000
  0
ARC
  8
0
 10
-140.479233
 20
0.652809
 40
1.199997
 50
180.000015
 51
0.000040
  0
CIRCLE
  8
0
 62
     2
 10
-128.729233
 20
-4.847183
 40
1.500000
  0
CIRCLE
  8
0
 62
     2
 10
-128.729233
 20
15.152824
 40
1.500000
  0
CIRCLE
  8
0
 10
-128.729233
 20
5.152809
 40
2.000000
  0
CIRCLE
  8
0
 10
-128.729233
 20
15.152832
 40
1.250000
  0
CIRCLE
  8
0
 10
-128.729233
 20
-4.847176
 40
1.250000
  0
CIRCLE
  8
0
 10
43.270836
 20
5.152809
 40
2.000000
  0
ARC
  8
0
 10
55.020836
 20
0.652824
 40
1.200001
 50
179.999985
 51
0.000011
  0
ARC
  8
0
 10
55.020836
 20
9.652807
 40
1.200001
 50
0.000000
 51
180.000046
  0
CIRCLE
  8
0
 62
     2
 10
43.270836
 20
15.152807
 40
1.500000
  0
CIRCLE
  8
0
 62
     2
 10
43.270836
 20
-4.847191
 40
1.500000
  0
CIRCLE
  8
0
 10
43.270821
 20
15.152815
 40
1.250000
  0
CIRCLE
  8
0
 10
43.270821
 20
-4.847183
 40
1.250000
  0
CIRCLE
  8
0
 62
     2
 10
-32.729210
 20
95.152786
 40
1.500000
  0
CIRCLE
  8
0
 62
     2
 10
-52.729206
 20
95.152786
 40
1.500000
  0
CIRCLE
  8
0
 10
-42.729206
 20
95.152786
 40
2.000000
  0
CIRCLE
  8
0
 10
-32.729218
 20
95.152786
 40
1.250000
  0
CIRCLE
  8
0
 10
-52.729218
 20
95.152786
 40
1.250000
  0
CIRCLE
  8
0
 62
     2
 10
-49.229218
 20
-54.847191
 40
2.500000
  0
CIRCLE
  8
0
 62
     2
 10
-36.229218
 20
-54.847191
 40
2.500000
  0
CIRCLE
  8
0
 10
-36.229218
 20
-54.847191
 40
2.100000
  0
CIRCLE
  8
0
 10
-49.229218
 20
-54.847191
 40
2.100000
  0
ARC
  8
0
 62
     2
 10
113.270813
 20
-10.847187
 40
1.500001
 50
108.536674
 51
19.471201
  0
ARC
  8
0
 10
113.270813
 20
-10.847187
 40
1.000000
 50
95.147156
 51
29.999931
  0
CIRCLE
  8
0
 10
136.770798
 20
5.152817
 40
1.500000
  0
CIRCLE
  8
0
 62
     2
 10
142.770813
 20
5.152817
 40
1.500000
  0
CIRCLE
  8
0
 10
121.770813
 20
5.152817
 40
1.500000
  0
CIRCLE
  8
0
 62
     2
 10
115.770813
 20
5.152817
 40
1.500000
  0
ARC
  8
0
 10
135.270798
 20
5.152817
 40
5.000001
 50
126.869888
 51
233.130112
  0
ARC
  8
0
 10
123.270813
 20
5.152817
 40
5.000000
 50
306.869781
 51
53.130096
  0
ARC
  8
0
 10
129.270798
 20
5.152817
 40
22.000002
 50
135.207169
 51
142.698212
  0
ARC
  8
0
 10
129.270828
 20
5.152817
 40
22.000006
 50
37.301811
 51
44.792915
  0
ARC
  8
0
 10
129.270798
 20
5.152817
 40
21.999998
 50
217.301758
 51
224.792892
  0
ARC
  8
0
 10
129.270828
 20
5.152817
 40
22.000000
 50
315.207092
 51
322.698090
  0
ARC
  8
0
 10
129.270798
 20
5.152817
 40
26.000002
 50
129.715103
 51
140.284836
  0
ARC
  8
0
 10
129.270798
 20
5.152817
 40
26.000002
 50
219.715195
 51
230.284927
  0
ARC
  8
0
 10
129.270798
 20
5.152817
 40
25.999998
 50
309.715149
 51
320.284882
  0
ARC
  8
0
 10
129.270798
 20
5.152817
 40
26.000006
 50
39.715153
 51
50.284893
  0
ARC
  8
0
 10
145.270813
 20
21.152813
 40
1.000000
 50
275.146729
 51
209.999924
  0
ARC
  8
0
 62
     2
 10
145.270813
 20
21.152813
 40
1.500002
 50
288.536652
 51
199.471130
  0
ARC
  8
0
 62
     2
 10
113.270813
 20
21.152813
 40
1.500001
 50
340.528809
 51
251.463333
  0
ARC
  8
0
 10
113.270813
 20
21.152813
 40
1.000002
 50
330.000061
 51
264.852844
  0
ARC
  8
0
 62
     2
 10
145.270813
 20
-10.847187
 40
1.500001
 50
160.528839
 51
71.463326
  0
ARC
  8
0
 10
145.270813
 20
-10.847187
 40
1.000002
 50
150.000076
 51
84.853279
  0
CIRCLE
  8
0
 10
115.770782
 20
5.152817
 40
1.250000
  0
CIRCLE
  8
0
 10
142.770782
 20
5.152817
 40
1.250000
  0
TEXT
  8
0
 10
136.157150
 20
122.050003
 40
4.500000
  1
Ver 1.0
 50
0.000000
 41
1.052631
 51
0.000000
  7
STANDARD
  0
TEXT
  8
0
 10
113.700279
 20
-130.669998
 40
6.300000
  1
KOGANEI CORP.
 50
0.000000
 41
1.052632
 51
0.000000
  7
STANDARD
  0
TEXT
  8
0
 10
-185.892654
 20
122.050003
 40
4.500000
  1
HANDLING MODULE
 50
0.000000
 41
1.052632
 51
0.000000
  7
STANDARD
  0
TEXT
  8
0
 10
-186.892654
 20
104.550003
 40
4.500000
  1
MODEL:SHM73J-12
 50
0.000000
 41
1.052632
 51
0.000000
  7
STANDARD
  0
ENDSEC
  0
EOF
