  0
SECTION
  2
HEADER
  0
ENDSEC
  0
SECTION
  2
TABLES
  0
TABLE
  2
LTYPE
 70
     4
  0
LTYPE
  2
CONTINUOUS
 70
    64
  3
Solid line
 72
    65
 73
     0
 40
0.000000
  0
LTYPE
  2
DASHED
 70
    64
  3
__ __ __ __ __ __ __ __ __ __ __ __ __ __ __
 72
    65
 73
     2
 40
3.500000
 49
2.000000
 49
-1.500000
  0
LTYPE
  2
CENTER
 70
    64
  3
____ _ ____ _ ____ _ ____ _ ____ _ ____ _ ____
 72
    65
 73
     4
 40
17.500000
 49
13.000000
 49
-1.500000
 49
1.500000
 49
-1.500000
  0
LTYPE
  2
PHANTOM
 70
    64
  3
_____ _ _ _____ _ _ _____ _ _ _____ _ _ ____  
 72
    65
 73
     6
 40
15.500000
 49
8.000000
 49
-1.500000
 49
1.500000
 49
-1.500000
 49
1.500000
 49
-1.500000
  0
LTYPE
  2
DASHED1
 70
    64
  3
__ __ __ __ __ __ __ __ __ __ __ __ __ __ __
 72
    65
 73
     2
 40
1.500000
 49
1.000000
 49
-0.500000
  0
LTYPE
  2
DASHED2
 70
    64
  3
__ __ __ __ __ __ __ __ __ __ __ __ __ __ __
 72
    65
 73
     2
 40
3.500000
 49
2.500000
 49
-1.000000
  0
LTYPE
  2
DASHED3
 70
    64
  3
__ __ __ __ __ __ __ __ __ __ __ __ __ __ __
 72
    65
 73
     2
 40
6.000000
 49
4.000000
 49
-2.000000
  0
LTYPE
  2
DASHED4
 70
    64
  3
__ __ __ __ __ __ __ __ __ __ __ __ __ __ __
 72
    65
 73
     2
 40
12.000000
 49
10.000000
 49
-2.000000
  0
LTYPE
  2
DASHED5
 70
    64
  3
__ __ __ __ __ __ __ __ __ __ __ __ __ __ __
 72
    65
 73
     2
 40
17.000000
 49
15.000000
 49
-2.000000
  0
LTYPE
  2
DASHED6
 70
    64
  3
__ __ __ __ __ __ __ __ __ __ __ __ __ __ __
 72
    65
 73
     2
 40
29.000000
 49
27.000000
 49
-2.000000
  0
LTYPE
  2
PHANTOM1
 70
    64
  3
_____ _ _ _____ _ _ _____ _ _ _____ _ _ ____  
 72
    65
 73
     6
 40
31.000000
 49
25.000000
 49
-1.500000
 49
1.000000
 49
-1.000000
 49
1.000000
 49
-1.500000
  0
LTYPE
  2
PHANTOM2
 70
    64
  3
_____ _ _ _____ _ _ _____ _ _ _____ _ _ ____  
 72
    65
 73
     6
 40
36.000000
 49
27.000000
 49
-1.500000
 49
2.500000
 49
-1.000000
 49
2.500000
 49
-1.500000
  0
LTYPE
  2
PHANTOM3
 70
    64
  3
_____ _ _ _____ _ _ _____ _ _ _____ _ _ ____  
 72
    65
 73
     6
 40
78.000000
 49
64.000000
 49
-2.000000
 49
4.000000
 49
-2.000000
 49
4.000000
 49
-2.000000
  0
LTYPE
  2
CENTER1
 70
    64
  3
____ _ ____ _ ____ _ ____ _ ____ _ ____ _ ____
 72
    65
 73
     4
 40
19.000000
 49
14.000000
 49
-1.000000
 49
3.000000
 49
-1.000000
  0
LTYPE
  2
CENTER2
 70
    64
  3
____ _ ____ _ ____ _ ____ _ ____ _ ____ _ ____
 72
    65
 73
     4
 40
28.500000
 49
25.000000
 49
-1.000000
 49
1.500000
 49
-1.000000
  0
LTYPE
  2
CENTER3
 70
    64
  3
____ _ ____ _ ____ _ ____ _ ____ _ ____ _ ____
 72
    65
 73
     4
 40
31.500000
 49
27.000000
 49
-1.000000
 49
2.500000
 49
-1.000000
  0
LTYPE
  2
CENTER4
 70
    64
  3
____ _ ____ _ ____ _ ____ _ ____ _ ____ _ ____
 72
    65
 73
     4
 40
50.000000
 49
45.000000
 49
-1.000000
 49
3.000000
 49
-1.000000
  0
LTYPE
  2
CENTER5
 70
    64
  3
____ _ ____ _ ____ _ ____ _ ____ _ ____ _ ____
 72
    65
 73
     4
 40
100.000000
 49
92.000000
 49
-2.000000
 49
4.000000
 49
-2.000000
  0
LTYPE
  2
SBK1
 70
    64
  3
______ _ _ _ ______ _ _ _ ______ _ _ _ _____  
 72
    65
 73
     8
 40
60.500000
 49
45.000000
 49
-2.000000
 49
2.500000
 49
-2.000000
 49
2.500000
 49
-2.000000
 49
2.500000
 49
-2.000000
  0
LTYPE
  2
SBK2
 70
    64
  3
______ _ _ _ ______ _ _ _ ______ _ _ _ _____  
 72
    65
 73
     8
 40
84.000000
 49
64.000000
 49
-2.000000
 49
4.000000
 49
-2.000000
 49
4.000000
 49
-2.000000
 49
4.000000
 49
-2.000000
  0
LTYPE
  2
STCH
 70
    64
  3
__ __ __ __ __ __ __ __ __ __ __ __ __ __ __
 72
    65
 73
     2
 40
3.000000
 49
1.000000
 49
-2.000000
  0
LTYPE
  2
MTCH
 70
    64
  3
_____ _ _ _____ _ _ _____ _ _ _____ _ _ ____  
 72
    65
 73
     6
 40
80.000000
 49
66.000000
 49
-2.000000
 49
4.000000
 49
-2.000000
 49
4.000000
 49
-2.000000
  0
ENDTAB
  0
TABLE
  2
LAYER
 70
     1
  0
LAYER
  2
0
 70
     0
 62
     7
  6
CONTINUOUS
  0
ENDTAB
  0
TABLE
  2
STYLE
 70
     1
  0
STYLE
  2
STANDARD
 70
     0
 40
0.000000
 41
1.000000
 50
0.000000
 71
     0
 42
0.200000
  3
txt
  4
BIGFONT
  0
ENDTAB
  0
TABLE
  2
VIEW
 70
     0
  0
ENDTAB
  0
ENDSEC
  0
SECTION
  2
BLOCKS
  0
ENDSEC
  0
SECTION
  2
ENTITIES
  0
LINE
  8
0
  6
CENTER
 62
     2
 10
-65.429581
 20
7.238873
 11
-28.013657
 21
7.238873
  0
LINE
  8
0
  6
CENTER
 62
     2
 10
-46.254440
 20
24.976650
 11
-46.254440
 21
-12.039043
  0
LINE
  8
0
 10
-48.254440
 20
22.238880
 11
-48.254440
 21
18.238880
  0
LINE
  8
0
 10
-44.254440
 20
22.238880
 11
-44.254440
 21
18.238880
  0
LINE
  8
0
  6
CENTER
 62
     2
 10
-58.254440
 20
-2.472546
 11
-58.254440
 21
-7.183605
  0
LINE
  8
0
  6
CENTER
 62
     2
 10
-56.082359
 20
-4.761127
 11
-60.688728
 21
-4.761127
  0
LINE
  8
0
  6
CENTER
 62
     2
 10
-34.254440
 20
-2.472546
 11
-34.254440
 21
-7.183605
  0
LINE
  8
0
  6
CENTER
 62
     2
 10
-32.082359
 20
-4.761127
 11
-36.688728
 21
-4.761127
  0
LINE
  8
0
  6
CENTER
 62
     2
 10
-34.254440
 20
21.527454
 11
-34.254440
 21
16.816395
  0
LINE
  8
0
  6
CENTER
 62
     2
 10
-32.082359
 20
19.238880
 11
-36.688728
 21
19.238880
  0
LINE
  8
0
  6
CENTER
 62
     2
 10
-58.254440
 20
21.527454
 11
-58.254440
 21
16.816395
  0
LINE
  8
0
  6
CENTER
 62
     2
 10
-56.082359
 20
19.238880
 11
-60.688728
 21
19.238880
  0
LINE
  8
0
 10
-31.254440
 20
20.467640
 11
-31.254440
 21
-5.989880
  0
LINE
  8
0
 10
-59.483192
 20
22.238880
 11
-33.025681
 21
22.238880
  0
LINE
  8
0
 10
-61.254440
 20
20.467640
 11
-61.254440
 21
-5.989880
  0
LINE
  8
0
 10
-59.483192
 20
-7.761127
 11
-33.025681
 21
-7.761127
  0
LINE
  8
0
 10
-28.754425
 20
-6.093418
 11
-28.754425
 21
20.571152
  0
LINE
  8
0
 10
-63.754440
 20
-6.093433
 11
-63.754440
 21
20.571182
  0
LINE
  8
0
 10
-61.866890
 20
22.738876
 11
-30.641907
 21
22.738876
  0
LINE
  8
0
 10
-61.866936
 20
-8.261127
 11
-30.641937
 21
-8.261127
  0
LINE
  8
0
 10
-141.754456
 20
2.738873
 11
-141.754456
 21
11.738873
  0
LINE
  8
0
 10
-146.254456
 20
-2.761127
 11
-146.254456
 21
2.238873
  0
LINE
  8
0
 10
-141.254456
 20
2.238873
 11
-141.254456
 21
12.238873
  0
LINE
  8
0
 10
-148.254456
 20
2.738873
 11
-148.254456
 21
11.738873
  0
LINE
  8
0
 10
-146.254456
 20
-2.761127
 11
-138.254456
 21
-2.761127
  0
LINE
  8
0
 10
-148.254456
 20
11.738873
 11
-145.204453
 21
11.738873
  0
LINE
  8
0
 10
-146.254456
 20
12.238873
 11
-146.254456
 21
17.238873
  0
LINE
  8
0
 10
-146.254456
 20
12.238873
 11
-145.095322
 21
12.238873
  0
LINE
  8
0
 10
-150.254456
 20
5.738873
 11
-150.254456
 21
8.738873
  0
LINE
  8
0
 10
-150.254440
 20
8.738873
 11
-148.254440
 21
8.738873
  0
LINE
  8
0
 10
-150.254440
 20
5.738873
 11
-148.254440
 21
5.738873
  0
LINE
  8
0
 10
-138.254456
 20
22.738873
 11
-126.254456
 21
22.738873
  0
LINE
  8
0
 10
-138.254456
 20
-8.261127
 11
-126.254456
 21
-8.261127
  0
LINE
  8
0
 10
-146.254456
 20
2.738873
 11
-146.254456
 21
11.738873
  0
LINE
  8
0
 10
-142.913574
 20
12.238873
 11
-141.254456
 21
12.238873
  0
LINE
  8
0
 10
-142.804443
 20
11.738873
 11
-141.754456
 21
11.738873
  0
LINE
  8
0
 10
-142.804443
 20
2.738873
 11
-141.754456
 21
2.738873
  0
LINE
  8
0
 10
-142.913574
 20
2.238873
 11
-141.254456
 21
2.238873
  0
LINE
  8
0
 10
-146.254456
 20
2.238873
 11
-145.095322
 21
2.238873
  0
LINE
  8
0
 10
-148.254456
 20
2.738873
 11
-145.204453
 21
2.738873
  0
LINE
  8
0
 10
-138.254456
 20
20.568874
 11
-126.254456
 21
20.568874
  0
LINE
  8
0
 10
-138.254456
 20
-6.091122
 11
-126.254456
 21
-6.091122
  0
LINE
  8
0
 10
-126.254456
 20
-8.261135
 11
-126.254456
 21
22.738880
  0
LINE
  8
0
 10
-126.254456
 20
-6.761127
 11
-110.254440
 21
-6.761127
  0
LINE
  8
0
  6
CENTER
 62
     2
 10
-134.269928
 20
-2.761127
 11
-130.009583
 21
-2.761127
  0
LINE
  8
0
  6
CENTER
 62
     2
 10
-132.254456
 20
3.881924
 11
-132.254456
 21
11.201580
  0
LINE
  8
0
  6
CENTER
 62
     2
 10
-134.269928
 20
17.238873
 11
-130.009583
 21
17.238873
  0
LINE
  8
0
  6
CENTER
 62
     2
 10
-132.254456
 20
15.184322
 11
-132.254456
 21
19.308704
  0
LINE
  8
0
 10
-138.254456
 20
-8.261135
 11
-138.254456
 21
22.738880
  0
LINE
  8
0
  6
CENTER
 62
     2
 10
-132.254456
 20
-0.706577
 11
-132.254456
 21
-4.830967
  0
LINE
  8
0
 10
-146.254456
 20
17.238873
 11
-138.254456
 21
17.238873
  0
LINE
  8
0
 10
-126.254456
 20
21.238873
 11
-110.254440
 21
21.238873
  0
LINE
  8
0
  6
CENTER
 62
     2
 10
-152.459671
 20
7.238873
 11
-93.779572
 21
7.238873
  0
LINE
  8
0
 10
-101.254440
 20
-7.761127
 11
-110.254440
 21
-7.761127
  0
LINE
  8
0
 10
-101.254440
 20
-5.989887
 11
-110.254440
 21
-5.989887
  0
LINE
  8
0
 10
-110.254433
 20
-7.761135
 11
-110.254433
 21
22.238873
  0
LINE
  8
0
 10
-101.254433
 20
-7.761135
 11
-101.254433
 21
22.238873
  0
LINE
  8
0
 10
-101.254440
 20
20.467617
 11
-110.254440
 21
20.467617
  0
LINE
  8
0
 10
-101.254440
 20
22.238873
 11
-110.254440
 21
22.238873
  0
LINE
  8
0
 10
49.245575
 20
11.738842
 11
49.245575
 21
2.738842
  0
LINE
  8
0
 10
53.745575
 20
17.238846
 11
53.745575
 21
12.238842
  0
LINE
  8
0
 10
48.745575
 20
12.238842
 11
48.745575
 21
2.238842
  0
LINE
  8
0
 10
55.745575
 20
11.738842
 11
55.745575
 21
2.738842
  0
LINE
  8
0
  6
CENTER
 62
     2
 10
59.950813
 20
7.238873
 11
6.474255
 21
7.238873
  0
LINE
  8
0
 10
53.745586
 20
-2.761143
 11
45.745586
 21
-2.761143
  0
LINE
  8
0
 10
53.745598
 20
17.238876
 11
45.745598
 21
17.238876
  0
LINE
  8
0
 10
55.745583
 20
2.738873
 11
52.695587
 21
2.738873
  0
LINE
  8
0
 10
53.745575
 20
2.238842
 11
53.745575
 21
-2.761158
  0
LINE
  8
0
 10
53.745590
 20
2.238873
 11
52.586456
 21
2.238873
  0
LINE
  8
0
 10
57.745575
 20
8.738842
 11
57.745575
 21
5.738842
  0
LINE
  8
0
 10
57.745583
 20
5.738873
 11
55.745583
 21
5.738873
  0
LINE
  8
0
 10
57.745583
 20
8.738873
 11
55.745583
 21
8.738873
  0
LINE
  8
0
 10
45.745586
 20
-8.261143
 11
33.745586
 21
-8.261143
  0
LINE
  8
0
 10
45.745598
 20
22.738876
 11
33.745598
 21
22.738876
  0
LINE
  8
0
 10
53.745575
 20
11.738842
 11
53.745575
 21
2.738842
  0
LINE
  8
0
 10
50.404716
 20
2.238873
 11
48.745590
 21
2.238873
  0
LINE
  8
0
 10
50.295586
 20
2.738873
 11
49.245590
 21
2.738873
  0
LINE
  8
0
 10
50.295586
 20
11.738857
 11
49.245598
 21
11.738857
  0
LINE
  8
0
 10
50.404716
 20
12.238857
 11
48.745598
 21
12.238857
  0
LINE
  8
0
 10
53.745598
 20
12.238857
 11
52.586464
 21
12.238857
  0
LINE
  8
0
 10
55.745583
 20
11.738857
 11
52.695595
 21
11.738857
  0
LINE
  8
0
 10
45.745586
 20
-6.091129
 11
33.745586
 21
-6.091129
  0
LINE
  8
0
 10
45.745598
 20
20.568863
 11
33.745598
 21
20.568863
  0
LINE
  8
0
 10
33.745575
 20
22.738846
 11
33.745575
 21
-8.261158
  0
LINE
  8
0
 10
33.745598
 20
21.238876
 11
17.745579
 21
21.238876
  0
LINE
  8
0
  6
CENTER
 62
     2
 10
41.761070
 20
17.238876
 11
37.500725
 21
17.238876
  0
LINE
  8
0
 10
8.745567
 20
22.238861
 11
8.745567
 21
-7.761158
  0
LINE
  8
0
  6
CENTER
 62
     2
 10
41.761059
 20
-2.761143
 11
37.500713
 21
-2.761143
  0
LINE
  8
0
 10
33.745586
 20
-6.761143
 11
17.745571
 21
-6.761143
  0
LINE
  8
0
 10
45.745575
 20
22.738846
 11
45.745575
 21
-8.261158
  0
LINE
  8
0
  6
CENTER
 62
     2
 10
39.745575
 20
-4.830982
 11
39.745575
 21
19.308685
  0
LINE
  8
0
 10
17.745579
 20
4.238873
 11
15.745579
 21
4.238873
  0
LINE
  8
0
 10
17.745579
 20
10.238873
 11
15.745579
 21
10.238873
  0
LINE
  8
0
 10
15.745567
 20
10.238857
 11
15.745567
 21
4.238857
  0
LINE
  8
0
 10
17.745560
 20
22.238861
 11
17.745560
 21
-7.761158
  0
LINE
  8
0
 10
17.745571
 20
-7.761143
 11
8.745571
 21
-7.761143
  0
LINE
  8
0
 10
17.745579
 20
22.238876
 11
8.745579
 21
22.238876
  0
LINE
  8
0
  6
CENTER
 62
     2
 10
-46.254444
 20
118.429893
 11
-46.254444
 21
63.967506
  0
LINE
  8
0
 10
-28.754429
 20
91.238846
 11
-63.754436
 21
91.238846
  0
LINE
  8
0
 10
-32.254444
 20
91.238838
 11
-32.254444
 21
75.238831
  0
LINE
  8
0
  6
CENTER
 62
     2
 10
-36.254444
 20
99.254311
 11
-36.254444
 21
94.993965
  0
LINE
  8
0
  6
CENTER
 62
     2
 10
-56.254444
 20
99.254311
 11
-56.254444
 21
94.993965
  0
LINE
  8
0
  6
CENTER
 62
     2
 10
-34.184605
 20
97.238846
 11
-58.324257
 21
97.238846
  0
LINE
  8
0
 10
-60.254444
 20
91.238838
 11
-60.254444
 21
75.238831
  0
LINE
  8
0
 10
-28.754429
 20
103.238846
 11
-63.754436
 21
103.238846
  0
LINE
  8
0
 10
-31.254436
 20
66.238831
 11
-61.254436
 21
66.238831
  0
LINE
  8
0
 10
-31.254436
 20
75.238831
 11
-61.254436
 21
75.238831
  0
LINE
  8
0
 10
-31.254444
 20
66.238831
 11
-31.254444
 21
75.238831
  0
LINE
  8
0
 10
-33.025684
 20
66.238831
 11
-33.025684
 21
75.238831
  0
LINE
  8
0
 10
-59.483200
 20
66.238831
 11
-59.483200
 21
75.238831
  0
LINE
  8
0
 10
-61.254444
 20
66.238831
 11
-61.254444
 21
75.238831
  0
LINE
  8
0
 10
-40.254429
 20
115.238831
 11
-37.254429
 21
115.238831
  0
LINE
  8
0
 10
-29.004444
 20
111.238838
 11
-29.004444
 21
103.238838
  0
LINE
  8
0
 10
-42.254429
 20
113.238831
 11
-30.254429
 21
113.238831
  0
LINE
  8
0
 10
-63.504440
 20
111.238838
 11
-63.504440
 21
103.238838
  0
LINE
  8
0
 10
-62.254456
 20
113.238838
 11
-62.254456
 21
111.238838
  0
LINE
  8
0
 10
-50.254440
 20
113.238831
 11
-62.254440
 21
113.238831
  0
LINE
  8
0
 10
-50.254456
 20
113.238838
 11
-50.254456
 21
111.238838
  0
LINE
  8
0
 10
-52.254448
 20
113.238838
 11
-52.254448
 21
115.238838
  0
LINE
  8
0
 10
-52.254433
 20
115.238831
 11
-55.254433
 21
115.238831
  0
LINE
  8
0
 10
-55.254448
 20
113.238838
 11
-55.254448
 21
115.238838
  0
LINE
  8
0
  6
CENTER
 62
     2
 10
-53.754448
 20
111.238838
 11
-53.754448
 21
116.436790
  0
LINE
  8
0
 10
-63.504425
 20
111.238846
 11
-29.004429
 21
111.238846
  0
LINE
  8
0
  6
CENTER
 62
     2
 10
-38.754444
 20
111.238838
 11
-38.754444
 21
116.436790
  0
LINE
  8
0
 10
-42.254444
 20
113.238838
 11
-42.254444
 21
111.238838
  0
LINE
  8
0
 10
-40.254444
 20
113.238838
 11
-40.254444
 21
115.238838
  0
LINE
  8
0
 10
-37.254444
 20
113.238838
 11
-37.254444
 21
115.238838
  0
LINE
  8
0
 10
-30.254444
 20
113.238838
 11
-30.254444
 21
111.238838
  0
LINE
  8
0
 10
-28.754444
 20
91.238838
 11
-28.754444
 21
103.238838
  0
LINE
  8
0
 10
-30.641956
 20
91.238838
 11
-30.641956
 21
103.238838
  0
LINE
  8
0
 10
-61.866936
 20
91.238838
 11
-61.866936
 21
103.238838
  0
LINE
  8
0
 10
-63.754448
 20
91.238838
 11
-63.754448
 21
103.238838
  0
LINE
  8
0
 10
-44.254436
 20
70.238831
 11
-48.254436
 21
70.238831
  0
LINE
  8
0
 10
-44.254444
 20
70.238831
 11
-44.254444
 21
66.238831
  0
LINE
  8
0
 10
-48.254444
 20
70.238831
 11
-48.254444
 21
66.238831
  0
LINE
  8
0
 10
-28.754440
 20
-84.761139
 11
-63.754444
 21
-84.761139
  0
LINE
  8
0
 10
-28.754440
 20
-72.761139
 11
-63.754444
 21
-72.761139
  0
LINE
  8
0
 10
-60.254444
 20
-72.761154
 11
-60.254444
 21
-56.761139
  0
LINE
  8
0
 10
-32.254440
 20
-72.761154
 11
-32.254440
 21
-56.761139
  0
LINE
  8
0
  6
CENTER
 62
     2
 10
-52.754444
 20
-57.233086
 11
-52.754444
 21
-48.906181
  0
LINE
  8
0
  6
CENTER
 62
     2
 10
-48.802887
 20
-52.761135
 11
-57.129791
 21
-52.761135
  0
LINE
  8
0
  6
CENTER
 62
     2
 10
-39.754440
 20
-57.233086
 11
-39.754440
 21
-48.906181
  0
LINE
  8
0
  6
CENTER
 62
     2
 10
-43.705986
 20
-52.761135
 11
-35.379082
 21
-52.761135
  0
LINE
  8
0
 10
-63.754444
 20
-72.761154
 11
-63.754444
 21
-84.761154
  0
LINE
  8
0
 10
-28.754440
 20
-72.761154
 11
-28.754440
 21
-84.761154
  0
LINE
  8
0
 10
-63.504436
 20
-92.761154
 11
-63.504436
 21
-84.761154
  0
LINE
  8
0
 10
-29.004440
 20
-92.761154
 11
-29.004440
 21
-84.761154
  0
LINE
  8
0
 10
-63.504436
 20
-92.761139
 11
-29.004440
 21
-92.761139
  0
LINE
  8
0
 10
-42.254440
 20
-94.761147
 11
-42.254440
 21
-92.761154
  0
LINE
  8
0
 10
-30.254440
 20
-94.761147
 11
-30.254440
 21
-92.761154
  0
LINE
  8
0
 10
-42.254440
 20
-94.761139
 11
-30.254440
 21
-94.761139
  0
LINE
  8
0
 10
-40.254440
 20
-94.761147
 11
-40.254440
 21
-96.761147
  0
LINE
  8
0
 10
-37.254440
 20
-94.761147
 11
-37.254440
 21
-96.761147
  0
LINE
  8
0
 10
-40.254440
 20
-96.761139
 11
-37.254440
 21
-96.761139
  0
LINE
  8
0
 10
-50.254452
 20
-94.761147
 11
-50.254452
 21
-92.761154
  0
LINE
  8
0
 10
-62.254452
 20
-94.761147
 11
-62.254452
 21
-92.761154
  0
LINE
  8
0
 10
-50.254452
 20
-94.761139
 11
-62.254452
 21
-94.761139
  0
LINE
  8
0
 10
-52.254444
 20
-94.761147
 11
-52.254444
 21
-96.761147
  0
LINE
  8
0
 10
-55.254444
 20
-94.761147
 11
-55.254444
 21
-96.761147
  0
LINE
  8
0
 10
-52.254444
 20
-96.761139
 11
-55.254444
 21
-96.761139
  0
LINE
  8
0
 10
-61.866932
 20
-72.761154
 11
-61.866932
 21
-84.761154
  0
LINE
  8
0
 10
-30.641953
 20
-72.761154
 11
-30.641953
 21
-84.761154
  0
LINE
  8
0
  6
CENTER
 62
     2
 10
-46.254444
 20
-45.421139
 11
-46.254444
 21
-99.181137
  0
LINE
  8
0
  6
CENTER
 62
     2
 10
-38.754440
 20
-92.761147
 11
-38.754440
 21
-97.959099
  0
LINE
  8
0
  6
CENTER
 62
     2
 10
-53.754444
 20
-92.761147
 11
-53.754444
 21
-97.959099
  0
LINE
  8
0
 10
-31.254440
 20
-47.761127
 11
-31.254440
 21
-56.761127
  0
LINE
  8
0
 10
-33.025681
 20
-47.761127
 11
-33.025681
 21
-56.761127
  0
LINE
  8
0
 10
-31.254440
 20
-47.761127
 11
-61.254440
 21
-47.761127
  0
LINE
  8
0
 10
-31.254440
 20
-56.761127
 11
-61.254440
 21
-56.761127
  0
LINE
  8
0
 10
-59.483196
 20
-47.761127
 11
-59.483196
 21
-56.761127
  0
LINE
  8
0
 10
-61.254440
 20
-47.761127
 11
-61.254440
 21
-56.761127
  0
LINE
  8
0
  6
CENTER
 62
     2
 10
123.745560
 20
-12.586605
 11
123.745560
 21
26.339027
  0
LINE
  8
0
 10
126.745560
 20
2.738873
 11
126.745560
 21
11.738873
  0
LINE
  8
0
  6
CENTER
 62
     2
 10
102.776558
 20
7.238873
 11
112.128471
 21
7.238873
  0
LINE
  8
0
  6
CENTER
 62
     2
 10
131.245544
 20
4.341686
 11
131.245544
 21
10.023876
  0
LINE
  8
0
  6
CENTER
 62
     2
 10
137.245575
 20
4.275616
 11
137.245575
 21
10.156017
  0
LINE
  8
0
 10
106.495583
 20
-2.561131
 11
140.995575
 21
-2.561131
  0
LINE
  8
0
 10
106.495598
 20
17.038879
 11
140.995605
 21
17.038879
  0
LINE
  8
0
 10
126.745567
 20
2.738873
 11
140.745575
 21
2.738873
  0
LINE
  8
0
 10
126.745567
 20
11.738873
 11
140.745575
 21
11.738873
  0
LINE
  8
0
 10
106.495583
 20
1.738873
 11
140.995575
 21
1.738873
  0
LINE
  8
0
 10
106.495583
 20
12.738873
 11
140.995575
 21
12.738873
  0
LINE
  8
0
 10
140.745575
 20
2.738873
 11
140.745575
 21
11.738873
  0
LINE
  8
0
 10
141.245575
 20
-6.093418
 11
141.245575
 21
20.571152
  0
LINE
  8
0
 10
106.245560
 20
-6.093433
 11
106.245560
 21
20.571182
  0
LINE
  8
0
 10
120.745560
 20
2.738873
 11
120.745560
 21
11.738873
  0
LINE
  8
0
  6
CENTER
 62
     2
 10
116.245560
 20
4.341686
 11
116.245560
 21
10.023876
  0
LINE
  8
0
  6
CENTER
 62
     2
 10
110.245560
 20
4.275616
 11
110.245560
 21
10.156017
  0
LINE
  8
0
 10
120.745567
 20
2.738873
 11
106.745567
 21
2.738873
  0
LINE
  8
0
 10
120.745567
 20
11.738873
 11
106.745567
 21
11.738873
  0
LINE
  8
0
 10
106.745560
 20
2.738873
 11
106.745560
 21
11.738873
  0
LINE
  8
0
 10
108.133095
 20
-8.261127
 11
139.358093
 21
-8.261127
  0
LINE
  8
0
 10
108.133110
 20
22.738876
 11
139.358093
 21
22.738876
  0
LINE
  8
0
 10
106.495560
 20
-2.561131
 11
106.495560
 21
17.038895
  0
LINE
  8
0
 10
140.995575
 20
-2.561131
 11
140.995575
 21
17.038895
  0
LINE
  8
0
 10
107.745560
 20
2.738873
 11
107.745560
 21
11.738873
  0
LINE
  8
0
 10
119.745560
 20
2.738873
 11
119.745560
 21
11.738873
  0
LINE
  8
0
 10
127.745560
 20
2.738873
 11
127.745560
 21
11.738873
  0
LINE
  8
0
 10
139.745575
 20
2.738873
 11
139.745575
 21
11.738873
  0
LINE
  8
0
  6
CENTER
 62
     2
 10
113.600792
 20
7.238873
 11
133.447754
 21
7.238873
  0
LINE
  8
0
  6
CENTER
 62
     2
 10
134.461273
 20
7.238873
 11
144.089569
 21
7.238873
  0
LINE
  8
0
 10
-194.250000
 20
132.600006
 11
194.800003
 21
132.600006
  0
LINE
  8
0
 10
194.800003
 20
132.600006
 11
194.800003
 21
-133.500000
  0
LINE
  8
0
 10
-194.250000
 20
132.600006
 11
-194.250000
 21
-133.500000
  0
LINE
  8
0
 10
-194.250000
 20
-133.500000
 11
194.800003
 21
-133.500000
  0
LINE
  8
0
 10
109.800003
 20
-118.500000
 11
109.800003
 21
-133.500000
  0
LINE
  8
0
 10
109.800003
 20
-118.500000
 11
194.800003
 21
-118.500000
  0
LINE
  8
0
 10
109.800003
 20
132.600006
 11
109.800003
 21
117.600006
  0
LINE
  8
0
 10
109.800003
 20
117.600006
 11
194.800003
 21
117.600006
  0
LINE
  8
0
 10
-194.250000
 20
117.600006
 11
-109.250000
 21
117.600006
  0
LINE
  8
0
 10
-109.250000
 20
132.600006
 11
-109.250000
 21
117.600006
  0
ARC
  8
0
 10
-46.254433
 20
7.238873
 40
20.000000
 50
131.409561
 51
138.590317
  0
ARC
  8
0
 10
-46.254433
 20
7.238873
 40
20.000000
 50
41.409622
 51
48.590378
  0
ARC
  8
0
 10
-46.254433
 20
7.238873
 40
20.000000
 50
221.409653
 51
228.590408
  0
ARC
  8
0
 10
-46.254433
 20
7.238873
 40
20.000002
 50
311.409607
 51
318.590363
  0
CIRCLE
  8
0
 10
-46.254433
 20
7.238865
 40
2.000000
  0
ARC
  8
0
 10
-46.254433
 20
18.238880
 40
2.000000
 50
180.000000
 51
0.000000
  0
CIRCLE
  8
0
 62
     2
 10
-58.254433
 20
-4.761135
 40
1.500000
  0
CIRCLE
  8
0
 62
     2
 10
-34.254440
 20
-4.761135
 40
1.500000
  0
CIRCLE
  8
0
 62
     2
 10
-34.254440
 20
19.238865
 40
1.500000
  0
CIRCLE
  8
0
 62
     2
 10
-58.254433
 20
19.238865
 40
1.500000
  0
CIRCLE
  8
0
 10
-58.254440
 20
19.238880
 40
1.250000
  0
CIRCLE
  8
0
 10
-34.254440
 20
19.238880
 40
1.250000
  0
CIRCLE
  8
0
 10
-58.254440
 20
-4.761127
 40
1.250000
  0
CIRCLE
  8
0
 10
-34.254440
 20
-4.761127
 40
1.250000
  0
ARC
  8
0
 10
-46.254410
 20
7.238873
 40
22.000000
 50
315.207092
 51
322.698120
  0
ARC
  8
0
 10
-46.254425
 20
7.238888
 40
21.999998
 50
217.301758
 51
224.792892
  0
ARC
  8
0
 10
-46.254425
 20
7.238873
 40
22.000002
 50
135.207169
 51
142.698212
  0
ARC
  8
0
 10
-46.254410
 20
7.238857
 40
22.000000
 50
37.301823
 51
44.792915
  0
ARC
  8
0
 10
-144.004456
 20
11.738857
 40
1.199997
 50
0.000000
 51
180.000000
  0
ARC
  8
0
 10
-144.004456
 20
2.738857
 40
1.199997
 50
180.000015
 51
0.000046
  0
CIRCLE
  8
0
 62
     2
 10
-132.254456
 20
-2.761127
 40
1.500000
  0
CIRCLE
  8
0
 62
     2
 10
-132.254456
 20
17.238857
 40
1.500000
  0
CIRCLE
  8
0
 10
-132.254456
 20
7.238857
 40
2.000000
  0
CIRCLE
  8
0
 10
-132.254456
 20
17.238873
 40
1.250000
  0
CIRCLE
  8
0
 10
-132.254456
 20
-2.761127
 40
1.250000
  0
CIRCLE
  8
0
 10
39.745605
 20
7.238857
 40
2.000000
  0
ARC
  8
0
 10
51.495605
 20
2.738857
 40
1.200001
 50
179.999985
 51
0.000011
  0
ARC
  8
0
 10
51.495605
 20
11.738857
 40
1.200001
 50
0.000000
 51
180.000046
  0
CIRCLE
  8
0
 62
     2
 10
39.745605
 20
17.238861
 40
1.500000
  0
CIRCLE
  8
0
 62
     2
 10
39.745605
 20
-2.761158
 40
1.500000
  0
CIRCLE
  8
0
 10
39.745575
 20
17.238876
 40
1.250000
  0
CIRCLE
  8
0
 10
39.745575
 20
-2.761143
 40
1.250000
  0
CIRCLE
  8
0
 62
     2
 10
-36.254429
 20
97.238846
 40
1.500000
  0
CIRCLE
  8
0
 62
     2
 10
-56.254433
 20
97.238846
 40
1.500000
  0
CIRCLE
  8
0
 10
-46.254433
 20
97.238846
 40
2.000000
  0
CIRCLE
  8
0
 10
-56.254444
 20
97.238846
 40
1.250000
  0
CIRCLE
  8
0
 10
-36.254444
 20
97.238846
 40
1.250000
  0
CIRCLE
  8
0
 62
     2
 10
-52.754444
 20
-52.761139
 40
2.500000
  0
CIRCLE
  8
0
 62
     2
 10
-39.754440
 20
-52.761139
 40
2.500000
  0
CIRCLE
  8
0
 10
-52.754444
 20
-52.761135
 40
2.100000
  0
CIRCLE
  8
0
 10
-39.754440
 20
-52.761135
 40
2.100000
  0
ARC
  8
0
 10
123.745590
 20
7.238873
 40
22.000000
 50
315.207092
 51
322.698090
  0
ARC
  8
0
 10
123.745575
 20
7.238888
 40
21.999998
 50
217.301758
 51
224.792892
  0
CIRCLE
  8
0
 10
131.245575
 20
7.238857
 40
1.500000
  0
CIRCLE
  8
0
 62
     2
 10
137.245575
 20
7.238857
 40
1.500000
  0
CIRCLE
  8
0
 10
116.245575
 20
7.238873
 40
1.500000
  0
CIRCLE
  8
0
 62
     2
 10
110.245575
 20
7.238873
 40
1.500000
  0
ARC
  8
0
 10
129.745575
 20
7.238857
 40
5.000001
 50
126.869888
 51
233.130112
  0
ARC
  8
0
 10
117.745575
 20
7.238873
 40
5.000000
 50
306.869781
 51
53.130096
  0
ARC
  8
0
 10
123.745575
 20
7.238873
 40
22.000002
 50
135.207169
 51
142.698212
  0
ARC
  8
0
 10
123.745590
 20
7.238857
 40
22.000006
 50
37.301811
 51
44.792915
  0
CIRCLE
  8
0
 10
110.245560
 20
7.238873
 40
1.250000
  0
CIRCLE
  8
0
 10
137.245575
 20
7.238873
 40
1.250000
  0
TEXT
  8
0
 10
136.157150
 20
122.050003
 40
4.500000
  1
Ver 1.0
 50
0.000000
 41
1.052631
 51
0.000000
  7
STANDARD
  0
TEXT
  8
0
 10
113.700279
 20
-130.669998
 40
6.300000
  1
KOGANEI CORP.
 50
0.000000
 41
1.052632
 51
0.000000
  7
STANDARD
  0
TEXT
  8
0
 10
-185.892654
 20
122.050003
 40
4.500000
  1
HANDLING MODULE
 50
0.000000
 41
1.052632
 51
0.000000
  7
STANDARD
  0
TEXT
  8
0
 10
-186.892654
 20
104.550003
 40
4.500000
  1
MODEL:SHM73B-12
 50
0.000000
 41
1.052632
 51
0.000000
  7
STANDARD
  0
ENDSEC
  0
EOF
