  0
SECTION
  2
HEADER
  0
ENDSEC
  0
SECTION
  2
TABLES
  0
TABLE
  2
LTYPE
 70
     4
  0
LTYPE
  2
CONTINUOUS
 70
    64
  3
Solid line
 72
    65
 73
     0
 40
0.000000
  0
LTYPE
  2
DASHED
 70
    64
  3
__ __ __ __ __ __ __ __ __ __ __ __ __ __ __
 72
    65
 73
     2
 40
3.500000
 49
2.000000
 49
-1.500000
  0
LTYPE
  2
CENTER
 70
    64
  3
____ _ ____ _ ____ _ ____ _ ____ _ ____ _ ____
 72
    65
 73
     4
 40
17.500000
 49
13.000000
 49
-1.500000
 49
1.500000
 49
-1.500000
  0
LTYPE
  2
PHANTOM
 70
    64
  3
_____ _ _ _____ _ _ _____ _ _ _____ _ _ ____  
 72
    65
 73
     6
 40
15.500000
 49
8.000000
 49
-1.500000
 49
1.500000
 49
-1.500000
 49
1.500000
 49
-1.500000
  0
LTYPE
  2
DASHED1
 70
    64
  3
__ __ __ __ __ __ __ __ __ __ __ __ __ __ __
 72
    65
 73
     2
 40
1.500000
 49
1.000000
 49
-0.500000
  0
LTYPE
  2
DASHED2
 70
    64
  3
__ __ __ __ __ __ __ __ __ __ __ __ __ __ __
 72
    65
 73
     2
 40
3.500000
 49
2.500000
 49
-1.000000
  0
LTYPE
  2
DASHED3
 70
    64
  3
__ __ __ __ __ __ __ __ __ __ __ __ __ __ __
 72
    65
 73
     2
 40
6.000000
 49
4.000000
 49
-2.000000
  0
LTYPE
  2
DASHED4
 70
    64
  3
__ __ __ __ __ __ __ __ __ __ __ __ __ __ __
 72
    65
 73
     2
 40
12.000000
 49
10.000000
 49
-2.000000
  0
LTYPE
  2
DASHED5
 70
    64
  3
__ __ __ __ __ __ __ __ __ __ __ __ __ __ __
 72
    65
 73
     2
 40
17.000000
 49
15.000000
 49
-2.000000
  0
LTYPE
  2
DASHED6
 70
    64
  3
__ __ __ __ __ __ __ __ __ __ __ __ __ __ __
 72
    65
 73
     2
 40
29.000000
 49
27.000000
 49
-2.000000
  0
LTYPE
  2
PHANTOM1
 70
    64
  3
_____ _ _ _____ _ _ _____ _ _ _____ _ _ ____  
 72
    65
 73
     6
 40
31.000000
 49
25.000000
 49
-1.500000
 49
1.000000
 49
-1.000000
 49
1.000000
 49
-1.500000
  0
LTYPE
  2
PHANTOM2
 70
    64
  3
_____ _ _ _____ _ _ _____ _ _ _____ _ _ ____  
 72
    65
 73
     6
 40
36.000000
 49
27.000000
 49
-1.500000
 49
2.500000
 49
-1.000000
 49
2.500000
 49
-1.500000
  0
LTYPE
  2
PHANTOM3
 70
    64
  3
_____ _ _ _____ _ _ _____ _ _ _____ _ _ ____  
 72
    65
 73
     6
 40
78.000000
 49
64.000000
 49
-2.000000
 49
4.000000
 49
-2.000000
 49
4.000000
 49
-2.000000
  0
LTYPE
  2
CENTER1
 70
    64
  3
____ _ ____ _ ____ _ ____ _ ____ _ ____ _ ____
 72
    65
 73
     4
 40
19.000000
 49
14.000000
 49
-1.000000
 49
3.000000
 49
-1.000000
  0
LTYPE
  2
CENTER2
 70
    64
  3
____ _ ____ _ ____ _ ____ _ ____ _ ____ _ ____
 72
    65
 73
     4
 40
28.500000
 49
25.000000
 49
-1.000000
 49
1.500000
 49
-1.000000
  0
LTYPE
  2
CENTER3
 70
    64
  3
____ _ ____ _ ____ _ ____ _ ____ _ ____ _ ____
 72
    65
 73
     4
 40
31.500000
 49
27.000000
 49
-1.000000
 49
2.500000
 49
-1.000000
  0
LTYPE
  2
CENTER4
 70
    64
  3
____ _ ____ _ ____ _ ____ _ ____ _ ____ _ ____
 72
    65
 73
     4
 40
50.000000
 49
45.000000
 49
-1.000000
 49
3.000000
 49
-1.000000
  0
LTYPE
  2
CENTER5
 70
    64
  3
____ _ ____ _ ____ _ ____ _ ____ _ ____ _ ____
 72
    65
 73
     4
 40
100.000000
 49
92.000000
 49
-2.000000
 49
4.000000
 49
-2.000000
  0
LTYPE
  2
SBK1
 70
    64
  3
______ _ _ _ ______ _ _ _ ______ _ _ _ _____  
 72
    65
 73
     8
 40
60.500000
 49
45.000000
 49
-2.000000
 49
2.500000
 49
-2.000000
 49
2.500000
 49
-2.000000
 49
2.500000
 49
-2.000000
  0
LTYPE
  2
SBK2
 70
    64
  3
______ _ _ _ ______ _ _ _ ______ _ _ _ _____  
 72
    65
 73
     8
 40
84.000000
 49
64.000000
 49
-2.000000
 49
4.000000
 49
-2.000000
 49
4.000000
 49
-2.000000
 49
4.000000
 49
-2.000000
  0
LTYPE
  2
STCH
 70
    64
  3
__ __ __ __ __ __ __ __ __ __ __ __ __ __ __
 72
    65
 73
     2
 40
3.000000
 49
1.000000
 49
-2.000000
  0
LTYPE
  2
MTCH
 70
    64
  3
_____ _ _ _____ _ _ _____ _ _ _____ _ _ ____  
 72
    65
 73
     6
 40
80.000000
 49
66.000000
 49
-2.000000
 49
4.000000
 49
-2.000000
 49
4.000000
 49
-2.000000
  0
ENDTAB
  0
TABLE
  2
LAYER
 70
     1
  0
LAYER
  2
0
 70
     0
 62
     7
  6
CONTINUOUS
  0
ENDTAB
  0
TABLE
  2
STYLE
 70
     1
  0
STYLE
  2
STANDARD
 70
     0
 40
0.000000
 41
1.000000
 50
0.000000
 71
     0
 42
0.200000
  3
txt
  4
BIGFONT
  0
ENDTAB
  0
TABLE
  2
VIEW
 70
     0
  0
ENDTAB
  0
ENDSEC
  0
SECTION
  2
BLOCKS
  0
ENDSEC
  0
SECTION
  2
ENTITIES
  0
LINE
  8
0
 10
-281.250000
 20
195.500000
 11
282.099976
 21
195.500000
  0
LINE
  8
0
 10
-281.250000
 20
195.500000
 11
-281.250000
 21
-195.000000
  0
LINE
  8
0
 10
282.099976
 20
195.500000
 11
282.099976
 21
-195.000000
  0
LINE
  8
0
 10
-281.250000
 20
-195.000000
 11
282.099976
 21
-195.000000
  0
LINE
  8
0
 10
162.099976
 20
-175.000000
 11
162.099976
 21
-195.000000
  0
LINE
  8
0
 10
162.099976
 20
-175.000000
 11
282.099976
 21
-175.000000
  0
LINE
  8
0
 10
162.099976
 20
175.500000
 11
282.099976
 21
175.500000
  0
LINE
  8
0
 10
-281.250000
 20
175.500000
 11
-161.250000
 21
175.500000
  0
LINE
  8
0
 10
162.099976
 20
195.500000
 11
162.099976
 21
175.500000
  0
LINE
  8
0
 10
-161.250000
 20
195.500000
 11
-161.250000
 21
175.500000
  0
LINE
  8
0
  6
CENTER
 62
     2
 10
34.170685
 20
57.552628
 11
34.170685
 21
132.325333
  0
LINE
  8
0
 10
31.170677
 20
124.287552
 11
31.170677
 21
118.287552
  0
LINE
  8
0
 10
37.170670
 20
124.287552
 11
37.170670
 21
118.287552
  0
LINE
  8
0
  6
CENTER
 62
     2
 10
227.052826
 20
94.287552
 11
-158.672958
 21
94.287552
  0
LINE
  8
0
 10
219.870728
 20
64.487503
 11
219.870728
 21
124.087509
  0
LINE
  8
0
 10
214.170731
 20
64.287521
 11
214.170731
 21
124.287491
  0
LINE
  8
0
 10
219.870743
 20
64.487564
 11
214.170731
 21
64.487564
  0
LINE
  8
0
 10
219.870728
 20
124.087570
 11
214.170731
 21
124.087570
  0
LINE
  8
0
 10
232.770721
 20
82.287582
 11
223.870712
 21
82.287582
  0
LINE
  8
0
 62
     2
 10
232.770737
 20
81.687576
 11
223.870712
 21
81.687576
  0
LINE
  8
0
 10
223.513474
 20
77.478165
 11
219.870743
 21
77.478165
  0
LINE
  8
0
 10
232.770721
 20
77.287552
 11
223.870712
 21
77.287552
  0
LINE
  8
0
 62
     2
 10
232.770737
 20
77.887589
 11
223.870712
 21
77.887589
  0
LINE
  8
0
 10
223.870712
 20
83.787552
 11
223.870712
 21
76.843307
  0
LINE
  8
0
 10
232.770721
 20
82.287552
 11
232.770721
 21
77.287521
  0
LINE
  8
0
 10
223.513458
 20
84.406357
 11
219.870728
 21
84.406357
  0
LINE
  8
0
 10
223.870972
 20
83.787590
 11
223.513718
 21
84.406372
  0
LINE
  8
0
 10
223.513474
 20
82.096970
 11
219.870743
 21
82.096970
  0
LINE
  8
0
 10
223.870712
 20
75.787491
 11
223.870712
 21
82.731705
  0
LINE
  8
0
 10
223.513474
 20
75.168777
 11
219.870743
 21
75.168777
  0
LINE
  8
0
 10
223.871567
 20
75.787048
 11
223.514313
 21
75.168266
  0
LINE
  8
0
 10
230.670715
 20
112.287552
 11
230.670715
 21
103.787521
  0
LINE
  8
0
 10
220.870712
 20
103.787552
 11
230.670715
 21
103.787552
  0
LINE
  8
0
 10
228.670715
 20
139.887527
 11
223.670715
 21
139.887527
  0
LINE
  8
0
 10
223.670715
 20
139.887497
 11
223.670715
 21
135.887497
  0
LINE
  8
0
 10
228.670715
 20
139.887497
 11
228.670715
 21
135.887497
  0
LINE
  8
0
 10
228.670715
 20
135.887527
 11
223.670715
 21
135.887527
  0
LINE
  8
0
 10
230.070724
 20
112.887589
 11
222.270721
 21
112.887589
  0
LINE
  8
0
 10
230.170731
 20
127.387558
 11
222.170731
 21
127.387558
  0
LINE
  8
0
 10
230.170715
 20
128.187546
 11
222.170715
 21
128.187546
  0
LINE
  8
0
 10
230.170715
 20
130.687515
 11
222.170715
 21
130.687515
  0
LINE
  8
0
 10
222.170715
 20
130.687485
 11
222.170715
 21
128.187515
  0
LINE
  8
0
 10
230.170715
 20
130.687485
 11
230.170715
 21
128.187515
  0
LINE
  8
0
 10
223.670715
 20
128.187546
 11
223.670715
 21
127.387558
  0
LINE
  8
0
 10
228.670715
 20
128.187546
 11
228.670715
 21
127.387558
  0
LINE
  8
0
 10
227.670715
 20
135.887558
 11
227.670715
 21
130.687546
  0
LINE
  8
0
 10
224.670715
 20
135.887558
 11
224.670715
 21
130.687546
  0
LINE
  8
0
 62
     2
 10
224.941223
 20
135.887558
 11
224.941223
 21
130.687546
  0
LINE
  8
0
 62
     2
 10
227.400208
 20
135.887558
 11
227.400208
 21
130.687546
  0
LINE
  8
0
 10
222.920715
 20
114.387558
 11
222.920715
 21
112.887558
  0
LINE
  8
0
 10
229.420715
 20
114.387558
 11
229.420715
 21
112.887558
  0
LINE
  8
0
 10
222.270721
 20
112.887558
 11
222.270721
 21
112.287552
  0
LINE
  8
0
 10
230.070709
 20
112.887558
 11
230.070709
 21
112.287552
  0
LINE
  8
0
 10
231.070724
 20
123.387558
 11
229.170731
 21
123.387558
  0
LINE
  8
0
 10
231.070724
 20
114.387589
 11
221.270737
 21
114.387589
  0
LINE
  8
0
 10
222.170715
 20
127.387558
 11
222.170715
 21
123.387558
  0
LINE
  8
0
 10
230.170715
 20
127.387558
 11
230.170715
 21
123.387558
  0
LINE
  8
0
 10
226.170715
 20
127.030289
 11
226.170715
 21
124.387527
  0
LINE
  8
0
 10
221.270721
 20
123.387558
 11
221.270721
 21
120.382523
  0
LINE
  8
0
 10
231.070709
 20
123.387558
 11
231.070709
 21
120.382553
  0
LINE
  8
0
 10
230.670715
 20
112.287552
 11
230.670715
 21
110.966965
  0
LINE
  8
0
 10
220.870712
 20
113.787552
 11
221.770721
 21
113.787552
  0
LINE
  8
0
 10
220.870697
 20
100.287552
 11
219.870697
 21
100.287552
  0
LINE
  8
0
 10
220.870712
 20
117.287552
 11
219.870712
 21
117.287552
  0
LINE
  8
0
 10
220.870712
 20
117.287521
 11
220.870712
 21
100.287521
  0
LINE
  8
0
 10
221.770721
 20
113.787521
 11
221.770721
 21
112.287521
  0
LINE
  8
0
 10
221.770721
 20
112.287552
 11
230.670731
 21
112.287552
  0
LINE
  8
0
 10
231.070709
 20
118.392502
 11
231.070709
 21
114.387558
  0
LINE
  8
0
 10
221.270721
 20
118.392502
 11
221.270721
 21
114.387558
  0
LINE
  8
0
 10
223.170700
 20
123.387558
 11
221.270737
 21
123.387558
  0
LINE
  8
0
 10
-78.499977
 20
127.487595
 11
-71.358559
 21
127.487595
  0
LINE
  8
0
 10
-79.829315
 20
138.587585
 11
-79.829315
 21
137.987579
  0
LINE
  8
0
 10
-70.029297
 20
138.587555
 11
-70.029297
 21
129.587555
  0
LINE
  8
0
 10
-70.029274
 20
129.587601
 11
-79.829262
 21
129.587601
  0
LINE
  8
0
 10
-70.029259
 20
138.587601
 11
-79.829262
 21
138.587601
  0
LINE
  8
0
 10
-74.929268
 20
135.287582
 11
-82.429268
 21
135.287582
  0
LINE
  8
0
 10
-74.929268
 20
133.887589
 11
-82.429268
 21
133.887589
  0
LINE
  8
0
 10
-79.828995
 20
137.987747
 11
-78.528999
 21
135.287766
  0
LINE
  8
0
 10
-79.829422
 20
131.187714
 11
-78.529419
 21
133.887711
  0
LINE
  8
0
 10
-79.829315
 20
131.187592
 11
-79.829315
 21
129.587585
  0
LINE
  8
0
 10
-82.429268
 20
139.487595
 11
-86.729240
 21
139.487595
  0
LINE
  8
0
 10
-89.629303
 20
139.587585
 11
-89.629303
 21
129.587585
  0
LINE
  8
0
 10
-88.029297
 20
139.587585
 11
-88.029297
 21
129.587585
  0
LINE
  8
0
 10
-79.829262
 20
137.987595
 11
-80.929268
 21
137.987595
  0
LINE
  8
0
 10
-82.429291
 20
139.487579
 11
-82.429291
 21
129.687592
  0
LINE
  8
0
 10
-80.929291
 20
137.987579
 11
-80.929291
 21
135.287598
  0
LINE
  8
0
 10
-86.729309
 20
139.487579
 11
-86.729309
 21
129.687592
  0
LINE
  8
0
 10
-88.029228
 20
139.587601
 11
-89.629234
 21
139.587601
  0
LINE
  8
0
 10
-88.029243
 20
129.587601
 11
-89.629250
 21
129.587601
  0
LINE
  8
0
 10
-82.429268
 20
129.687576
 11
-86.729256
 21
129.687576
  0
LINE
  8
0
 10
-79.829262
 20
131.187576
 11
-80.929268
 21
131.187576
  0
LINE
  8
0
 10
-86.729240
 20
137.837601
 11
-88.029228
 21
137.837601
  0
LINE
  8
0
 10
-86.729256
 20
131.337601
 11
-88.029243
 21
131.337601
  0
LINE
  8
0
 10
-80.929291
 20
133.887573
 11
-80.929291
 21
131.187592
  0
LINE
  8
0
 10
-82.429321
 20
139.487442
 11
-80.929306
 21
137.987427
  0
LINE
  8
0
 10
-82.429626
 20
129.687897
 11
-80.929626
 21
131.187897
  0
LINE
  8
0
 10
-71.029274
 20
128.087601
 11
-78.829262
 21
128.087601
  0
LINE
  8
0
 10
-70.679268
 20
127.487595
 11
-79.179268
 21
127.487595
  0
LINE
  8
0
 10
-78.179291
 20
129.587585
 11
-78.179291
 21
128.087585
  0
LINE
  8
0
 10
-71.679291
 20
129.587585
 11
-71.679291
 21
128.087585
  0
LINE
  8
0
 10
-78.829285
 20
128.087585
 11
-78.829285
 21
127.487579
  0
LINE
  8
0
 10
-71.029297
 20
128.087585
 11
-71.029297
 21
127.487579
  0
LINE
  8
0
 10
-72.429283
 20
155.087601
 11
-77.429283
 21
155.087601
  0
LINE
  8
0
 10
-77.429291
 20
155.087616
 11
-77.429291
 21
151.087616
  0
LINE
  8
0
 10
-72.429291
 20
155.087616
 11
-72.429291
 21
151.087616
  0
LINE
  8
0
 10
-72.429283
 20
151.087601
 11
-77.429283
 21
151.087601
  0
LINE
  8
0
 10
-71.465141
 20
142.587601
 11
-78.393379
 21
142.587601
  0
LINE
  8
0
 10
-70.929283
 20
143.387589
 11
-78.929314
 21
143.387589
  0
LINE
  8
0
 10
-70.929283
 20
145.887589
 11
-78.929314
 21
145.887589
  0
LINE
  8
0
 10
-78.929321
 20
145.887604
 11
-78.929321
 21
143.387604
  0
LINE
  8
0
 10
-70.929291
 20
145.887604
 11
-70.929291
 21
143.387604
  0
LINE
  8
0
 10
-79.548126
 20
142.230316
 11
-79.548126
 21
138.587585
  0
LINE
  8
0
 10
-77.238678
 20
142.230316
 11
-77.238678
 21
138.587585
  0
LINE
  8
0
 10
-72.619873
 20
142.230316
 11
-72.619873
 21
138.587585
  0
LINE
  8
0
 10
-70.310486
 20
142.230286
 11
-70.310486
 21
138.587555
  0
LINE
  8
0
 10
-77.429291
 20
143.387573
 11
-77.429291
 21
142.587585
  0
LINE
  8
0
 10
-72.429291
 20
143.387573
 11
-72.429291
 21
142.587585
  0
LINE
  8
0
 10
-73.429291
 20
151.087585
 11
-73.429291
 21
145.887573
  0
LINE
  8
0
 10
-76.429291
 20
151.087585
 11
-76.429291
 21
145.887573
  0
LINE
  8
0
 62
     2
 10
-76.158783
 20
151.087585
 11
-76.158783
 21
145.887573
  0
LINE
  8
0
 62
     2
 10
-73.699799
 20
151.087585
 11
-73.699799
 21
145.887573
  0
LINE
  8
0
 10
-79.179321
 20
124.287567
 11
-79.179321
 21
127.487579
  0
LINE
  8
0
 10
-70.679321
 20
124.287567
 11
-70.679321
 21
127.487579
  0
LINE
  8
0
 10
-151.529327
 20
124.087570
 11
-151.529327
 21
64.487564
  0
LINE
  8
0
 10
-145.829346
 20
124.287552
 11
-145.829346
 21
64.287582
  0
LINE
  8
0
 10
-151.529358
 20
124.087540
 11
-145.829346
 21
124.087540
  0
LINE
  8
0
 10
-151.529327
 20
64.487534
 11
-145.829346
 21
64.487534
  0
LINE
  8
0
 10
-164.429306
 20
106.287552
 11
-155.529327
 21
106.287552
  0
LINE
  8
0
 62
     2
 10
-164.429337
 20
106.887527
 11
-155.529327
 21
106.887527
  0
LINE
  8
0
 10
-155.172089
 20
111.096939
 11
-151.529358
 21
111.096939
  0
LINE
  8
0
 10
-164.429306
 20
111.287552
 11
-155.529327
 21
111.287552
  0
LINE
  8
0
 62
     2
 10
-164.429337
 20
110.687515
 11
-155.529327
 21
110.687515
  0
LINE
  8
0
 10
-155.529327
 20
104.787521
 11
-155.529327
 21
111.731766
  0
LINE
  8
0
 10
-164.429306
 20
106.287582
 11
-164.429306
 21
111.287582
  0
LINE
  8
0
 10
-155.172058
 20
104.168747
 11
-151.529327
 21
104.168747
  0
LINE
  8
0
 10
-155.529739
 20
104.787369
 11
-155.172485
 21
104.168579
  0
LINE
  8
0
 10
-155.172089
 20
106.478134
 11
-151.529358
 21
106.478134
  0
LINE
  8
0
 10
-155.529327
 20
112.787613
 11
-155.529327
 21
105.843369
  0
LINE
  8
0
 10
-155.172089
 20
113.406326
 11
-151.529358
 21
113.406326
  0
LINE
  8
0
 10
-155.530380
 20
112.788193
 11
-155.173126
 21
113.406952
  0
LINE
  8
0
 10
-162.329300
 20
76.287521
 11
-162.329300
 21
84.787582
  0
LINE
  8
0
 10
-152.529327
 20
84.787552
 11
-162.329300
 21
84.787552
  0
LINE
  8
0
 10
-160.329315
 20
48.687576
 11
-155.329315
 21
48.687576
  0
LINE
  8
0
 10
-155.329315
 20
48.687607
 11
-155.329315
 21
52.687607
  0
LINE
  8
0
 10
-160.329315
 20
48.687607
 11
-160.329315
 21
52.687607
  0
LINE
  8
0
 10
-160.329315
 20
52.687576
 11
-155.329315
 21
52.687576
  0
LINE
  8
0
 10
-161.729309
 20
75.687546
 11
-153.929321
 21
75.687546
  0
LINE
  8
0
 10
-161.829346
 20
61.187546
 11
-153.829346
 21
61.187546
  0
LINE
  8
0
 10
-161.829315
 20
60.387558
 11
-153.829315
 21
60.387558
  0
LINE
  8
0
 10
-161.829315
 20
57.887589
 11
-153.829315
 21
57.887589
  0
LINE
  8
0
 10
-153.829315
 20
57.887615
 11
-153.829315
 21
60.387585
  0
LINE
  8
0
 10
-161.829315
 20
57.887619
 11
-161.829315
 21
60.387589
  0
LINE
  8
0
 10
-155.329315
 20
60.387527
 11
-155.329315
 21
61.187515
  0
LINE
  8
0
 10
-160.329315
 20
60.387527
 11
-160.329315
 21
61.187515
  0
LINE
  8
0
 10
-159.329315
 20
52.687546
 11
-159.329315
 21
57.887527
  0
LINE
  8
0
 10
-156.329315
 20
52.687546
 11
-156.329315
 21
57.887527
  0
LINE
  8
0
 62
     2
 10
-156.599823
 20
52.687546
 11
-156.599823
 21
57.887527
  0
LINE
  8
0
 62
     2
 10
-159.058807
 20
52.687546
 11
-159.058807
 21
57.887527
  0
LINE
  8
0
 10
-154.579315
 20
74.187546
 11
-154.579315
 21
75.687546
  0
LINE
  8
0
 10
-161.079315
 20
74.187515
 11
-161.079315
 21
75.687515
  0
LINE
  8
0
 10
-153.929321
 20
75.687546
 11
-153.929321
 21
76.287521
  0
LINE
  8
0
 10
-161.729309
 20
75.687515
 11
-161.729309
 21
76.287521
  0
LINE
  8
0
 10
-162.729324
 20
65.187546
 11
-160.829346
 21
65.187546
  0
LINE
  8
0
 10
-162.729294
 20
74.187546
 11
-152.929321
 21
74.187546
  0
LINE
  8
0
 10
-153.829315
 20
61.187542
 11
-153.829315
 21
65.187546
  0
LINE
  8
0
 10
-161.829315
 20
61.187515
 11
-161.829315
 21
65.187515
  0
LINE
  8
0
 10
-157.829315
 20
61.544785
 11
-157.829315
 21
64.187576
  0
LINE
  8
0
 10
-152.929321
 20
65.187546
 11
-152.929321
 21
68.192551
  0
LINE
  8
0
 10
-162.729294
 20
65.187515
 11
-162.729294
 21
68.192551
  0
LINE
  8
0
 10
-162.329300
 20
76.287521
 11
-162.329300
 21
77.608139
  0
LINE
  8
0
 10
-152.529327
 20
74.787552
 11
-153.429321
 21
74.787552
  0
LINE
  8
0
 10
-152.529297
 20
88.287552
 11
-151.529297
 21
88.287552
  0
LINE
  8
0
 10
-152.529297
 20
71.287552
 11
-151.529297
 21
71.287552
  0
LINE
  8
0
 10
-152.529327
 20
71.287582
 11
-152.529327
 21
88.287582
  0
LINE
  8
0
 10
-153.429321
 20
74.787552
 11
-153.429321
 21
76.287552
  0
LINE
  8
0
 10
-153.429321
 20
76.287552
 11
-162.329300
 21
76.287552
  0
LINE
  8
0
 10
-162.729294
 20
70.182571
 11
-162.729294
 21
74.187515
  0
LINE
  8
0
 10
-152.929321
 20
70.182602
 11
-152.929321
 21
74.187546
  0
LINE
  8
0
 10
-154.829315
 20
65.187546
 11
-152.929352
 21
65.187546
  0
LINE
  8
0
 10
214.170731
 20
78.787552
 11
-145.829315
 21
78.787552
  0
LINE
  8
0
 10
214.170746
 20
109.787552
 11
-145.829315
 21
109.787552
  0
LINE
  8
0
 10
-145.829315
 20
124.287552
 11
214.170746
 21
124.287552
  0
LINE
  8
0
 10
-145.829346
 20
64.287552
 11
214.170731
 21
64.287552
  0
LINE
  8
0
 10
146.841370
 20
61.087540
 11
139.699951
 21
61.087540
  0
LINE
  8
0
 10
148.170700
 20
49.987514
 11
148.170700
 21
50.587521
  0
LINE
  8
0
 10
138.370697
 20
49.987549
 11
138.370697
 21
58.987549
  0
LINE
  8
0
 10
138.370667
 20
58.987503
 11
148.170654
 21
58.987503
  0
LINE
  8
0
 10
138.370667
 20
49.987503
 11
148.170654
 21
49.987503
  0
LINE
  8
0
 10
143.270660
 20
53.287521
 11
150.770660
 21
53.287521
  0
LINE
  8
0
 10
143.270660
 20
54.687515
 11
150.770660
 21
54.687515
  0
LINE
  8
0
 10
148.170349
 20
50.587395
 11
146.870361
 21
53.287369
  0
LINE
  8
0
 10
148.170685
 20
57.387478
 11
146.870682
 21
54.687500
  0
LINE
  8
0
 10
148.170700
 20
57.387508
 11
148.170700
 21
58.987514
  0
LINE
  8
0
 10
150.770660
 20
49.087540
 11
155.070648
 21
49.087540
  0
LINE
  8
0
 10
157.970688
 20
48.987514
 11
157.970688
 21
58.987514
  0
LINE
  8
0
 10
156.370682
 20
48.987514
 11
156.370682
 21
58.987514
  0
LINE
  8
0
 10
148.170654
 20
50.587540
 11
149.270660
 21
50.587540
  0
LINE
  8
0
 10
150.770691
 20
49.087521
 11
150.770691
 21
58.887508
  0
LINE
  8
0
 10
149.270691
 20
50.587521
 11
149.270691
 21
53.287502
  0
LINE
  8
0
 10
155.070694
 20
49.087521
 11
155.070694
 21
58.887508
  0
LINE
  8
0
 10
156.370636
 20
48.987503
 11
157.970642
 21
48.987503
  0
LINE
  8
0
 10
156.370636
 20
58.987503
 11
157.970642
 21
58.987503
  0
LINE
  8
0
 10
150.770660
 20
58.887527
 11
155.070648
 21
58.887527
  0
LINE
  8
0
 10
148.170654
 20
57.387527
 11
149.270660
 21
57.387527
  0
LINE
  8
0
 10
155.070648
 20
50.737503
 11
156.370636
 21
50.737503
  0
LINE
  8
0
 10
155.070648
 20
57.237503
 11
156.370636
 21
57.237503
  0
LINE
  8
0
 10
149.270691
 20
54.687527
 11
149.270691
 21
57.387508
  0
LINE
  8
0
 10
150.770691
 20
49.087578
 11
149.270706
 21
50.587570
  0
LINE
  8
0
 10
150.770615
 20
58.887524
 11
149.270630
 21
57.387527
  0
LINE
  8
0
 10
139.370667
 20
60.487503
 11
147.170654
 21
60.487503
  0
LINE
  8
0
 10
139.020660
 20
61.087540
 11
147.520660
 21
61.087540
  0
LINE
  8
0
 10
146.520691
 20
58.987518
 11
146.520691
 21
60.487518
  0
LINE
  8
0
 10
140.020691
 20
58.987518
 11
140.020691
 21
60.487518
  0
LINE
  8
0
 10
147.170685
 20
60.487518
 11
147.170685
 21
61.087524
  0
LINE
  8
0
 10
139.370697
 20
60.487518
 11
139.370697
 21
61.087524
  0
LINE
  8
0
 10
140.770691
 20
33.487503
 11
145.770691
 21
33.487503
  0
LINE
  8
0
 10
145.770691
 20
33.487488
 11
145.770691
 21
37.487488
  0
LINE
  8
0
 10
140.770691
 20
33.487488
 11
140.770691
 21
37.487488
  0
LINE
  8
0
 10
140.770691
 20
37.487503
 11
145.770691
 21
37.487503
  0
LINE
  8
0
 10
139.806549
 20
45.987503
 11
146.734772
 21
45.987503
  0
LINE
  8
0
 10
139.270691
 20
45.187515
 11
147.270691
 21
45.187515
  0
LINE
  8
0
 10
139.270691
 20
42.687515
 11
147.270691
 21
42.687515
  0
LINE
  8
0
 10
147.270706
 20
42.687500
 11
147.270706
 21
45.187500
  0
LINE
  8
0
 10
139.270691
 20
42.687500
 11
139.270691
 21
45.187500
  0
LINE
  8
0
 10
147.889511
 20
46.344784
 11
147.889511
 21
49.987514
  0
LINE
  8
0
 10
145.580078
 20
46.344788
 11
145.580078
 21
49.987518
  0
LINE
  8
0
 10
140.961273
 20
46.344788
 11
140.961273
 21
49.987518
  0
LINE
  8
0
 10
138.651886
 20
46.344818
 11
138.651886
 21
49.987549
  0
LINE
  8
0
 10
145.770691
 20
45.187531
 11
145.770691
 21
45.987518
  0
LINE
  8
0
 10
140.770691
 20
45.187531
 11
140.770691
 21
45.987518
  0
LINE
  8
0
 10
141.770691
 20
37.487518
 11
141.770691
 21
42.687531
  0
LINE
  8
0
 10
144.770691
 20
37.487518
 11
144.770691
 21
42.687531
  0
LINE
  8
0
 62
     2
 10
144.500183
 20
37.487518
 11
144.500183
 21
42.687531
  0
LINE
  8
0
 62
     2
 10
142.041199
 20
37.487518
 11
142.041199
 21
42.687531
  0
LINE
  8
0
 10
147.520706
 20
64.287537
 11
147.520706
 21
61.087524
  0
LINE
  8
0
 10
139.020706
 20
64.287537
 11
139.020706
 21
61.087524
  0
LINE
  8
0
  6
CENTER
 62
     2
 10
62.170712
 20
69.287582
 11
56.170712
 21
69.287582
  0
LINE
  8
0
  6
CENTER
 62
     2
 10
30.170658
 20
69.287552
 11
38.170658
 21
69.287552
  0
LINE
  8
0
  6
CENTER
 62
     2
 10
62.170719
 20
119.287552
 11
56.170719
 21
119.287552
  0
LINE
  8
0
  6
CENTER
 62
     2
 10
59.170715
 20
66.287582
 11
59.170715
 21
72.287582
  0
LINE
  8
0
  6
CENTER
 62
     2
 10
59.170715
 20
116.287552
 11
59.170715
 21
122.287552
  0
LINE
  8
0
  6
CENTER
 62
     2
 10
6.170650
 20
69.287582
 11
12.170650
 21
69.287582
  0
LINE
  8
0
  6
CENTER
 62
     2
 10
9.170654
 20
66.287582
 11
9.170654
 21
72.287582
  0
LINE
  8
0
  6
CENTER
 62
     2
 10
9.170654
 20
116.287552
 11
9.170654
 21
122.287552
  0
LINE
  8
0
  6
CENTER
 62
     2
 10
6.170658
 20
119.287552
 11
12.170658
 21
119.287552
  0
LINE
  8
0
 10
-212.766785
 20
78.987442
 11
-212.766785
 21
109.587601
  0
LINE
  8
0
 10
-237.566788
 20
110.287552
 11
-237.566788
 21
97.287552
  0
LINE
  8
0
 10
-233.866791
 20
124.287552
 11
-230.116791
 21
124.287552
  0
LINE
  8
0
 10
-235.566803
 20
118.487564
 11
-237.566788
 21
118.487564
  0
LINE
  8
0
 10
-235.566772
 20
119.637527
 11
-235.566772
 21
118.487534
  0
LINE
  8
0
 10
-233.066803
 20
119.637558
 11
-235.566803
 21
119.637558
  0
LINE
  8
0
 10
-233.066772
 20
113.937546
 11
-233.066772
 21
119.637558
  0
LINE
  8
0
 10
-233.066803
 20
113.937546
 11
-235.566803
 21
113.937546
  0
LINE
  8
0
 10
-235.566772
 20
113.937546
 11
-235.566772
 21
115.087540
  0
LINE
  8
0
 10
-235.566803
 20
115.087540
 11
-237.566788
 21
115.087540
  0
LINE
  8
0
 10
-228.916779
 20
117.787552
 11
-228.916779
 21
120.487534
  0
LINE
  8
0
 10
-224.716797
 20
117.787552
 11
-224.716797
 21
122.987534
  0
LINE
  8
0
 10
-230.116791
 20
122.987534
 11
-230.116791
 21
124.287552
  0
LINE
  8
0
 10
-226.316788
 20
122.987534
 11
-226.316788
 21
124.287552
  0
LINE
  8
0
 10
-231.066772
 20
120.487534
 11
-231.066772
 21
122.987534
  0
LINE
  8
0
 10
-231.066788
 20
122.987564
 11
-230.116791
 21
122.987564
  0
LINE
  8
0
 10
-231.066788
 20
120.487564
 11
-228.916794
 21
120.487564
  0
LINE
  8
0
 10
-212.566772
 20
109.787613
 11
-212.566772
 21
124.287552
  0
LINE
  8
0
 10
-213.066772
 20
74.087540
 11
-213.066772
 21
124.087540
  0
LINE
  8
0
 10
-212.566864
 20
109.787567
 11
-212.766830
 21
109.587578
  0
LINE
  8
0
 10
-230.566788
 20
91.287552
 11
-237.566788
 21
91.287552
  0
LINE
  8
0
 10
-230.566788
 20
97.287552
 11
-237.566788
 21
97.287552
  0
LINE
  8
0
 10
-230.566772
 20
91.287552
 11
-230.566772
 21
97.287552
  0
LINE
  8
0
 10
-213.066788
 20
124.087540
 11
-224.616791
 21
124.087540
  0
LINE
  8
0
 10
-229.066772
 20
70.987534
 11
-229.066772
 21
117.587540
  0
LINE
  8
0
 10
-212.566513
 20
78.787880
 11
-212.766479
 21
78.987831
  0
LINE
  8
0
 10
-212.566772
 20
78.787460
 11
-212.566772
 21
74.087540
  0
LINE
  8
0
 10
-224.616791
 20
117.587540
 11
-224.616791
 21
124.087540
  0
LINE
  8
0
 10
-224.716797
 20
117.787552
 11
-228.916794
 21
117.787552
  0
LINE
  8
0
 10
-228.916779
 20
70.787552
 11
-228.916779
 21
68.087540
  0
LINE
  8
0
 10
-230.116791
 20
65.587540
 11
-230.116791
 21
64.287552
  0
LINE
  8
0
 10
-231.066772
 20
68.087540
 11
-231.066772
 21
65.587540
  0
LINE
  8
0
 10
-231.066757
 20
65.587570
 11
-230.116776
 21
65.587570
  0
LINE
  8
0
 10
-231.066757
 20
68.087570
 11
-228.916763
 21
68.087570
  0
LINE
  8
0
 10
-227.466751
 20
70.787552
 11
-228.916763
 21
70.787552
  0
LINE
  8
0
 10
-230.622025
 20
115.037460
 11
-232.931442
 21
111.037460
  0
LINE
  8
0
 10
-230.066772
 20
110.287552
 11
-230.066772
 21
114.787552
  0
LINE
  8
0
 10
-229.066788
 20
115.287552
 11
-230.189285
 21
115.287552
  0
LINE
  8
0
 10
-229.066788
 20
114.787552
 11
-230.066788
 21
114.787552
  0
LINE
  8
0
 10
-237.566788
 20
78.287552
 11
-237.566788
 21
91.287552
  0
LINE
  8
0
 10
-233.866776
 20
64.287552
 11
-230.116776
 21
64.287552
  0
LINE
  8
0
 10
-235.566788
 20
70.087540
 11
-237.566757
 21
70.087540
  0
LINE
  8
0
 10
-235.566772
 20
68.937576
 11
-235.566772
 21
70.087540
  0
LINE
  8
0
 10
-233.066788
 20
68.937546
 11
-235.566788
 21
68.937546
  0
LINE
  8
0
 10
-233.066772
 20
74.637527
 11
-233.066772
 21
68.937515
  0
LINE
  8
0
 10
-233.066788
 20
74.637558
 11
-235.566788
 21
74.637558
  0
LINE
  8
0
 10
-235.566772
 20
74.637527
 11
-235.566772
 21
73.487564
  0
LINE
  8
0
 10
-235.566788
 20
73.487564
 11
-237.566757
 21
73.487564
  0
LINE
  8
0
 10
-230.622284
 20
73.537498
 11
-232.931686
 21
77.537506
  0
LINE
  8
0
 10
-230.066772
 20
78.287552
 11
-230.066772
 21
73.787552
  0
LINE
  8
0
 10
-229.066757
 20
73.287552
 11
-230.189255
 21
73.287552
  0
LINE
  8
0
 10
-229.066757
 20
73.787552
 11
-230.066757
 21
73.787552
  0
LINE
  8
0
 10
-212.566772
 20
124.287552
 11
-226.816772
 21
124.287552
  0
LINE
  8
0
 10
-237.566788
 20
115.087540
 11
-237.566788
 21
110.787552
  0
LINE
  8
0
 10
-237.566788
 20
118.487564
 11
-237.566788
 21
121.807419
  0
LINE
  8
0
 10
-237.566788
 20
73.487534
 11
-237.566788
 21
77.787552
  0
LINE
  8
0
 10
-237.566788
 20
70.087540
 11
-237.566788
 21
66.767654
  0
LINE
  8
0
 10
-233.364700
 20
110.787552
 11
-237.566788
 21
110.787552
  0
LINE
  8
0
 10
-233.364670
 20
77.787552
 11
-237.566757
 21
77.787552
  0
LINE
  8
0
 10
-230.066757
 20
78.287552
 11
-237.566757
 21
78.287552
  0
LINE
  8
0
 10
-230.066788
 20
110.287552
 11
-237.566788
 21
110.287552
  0
LINE
  8
0
 10
-229.566772
 20
114.787552
 11
-229.566772
 21
73.787552
  0
LINE
  8
0
 10
-224.616791
 20
117.587540
 11
-229.066788
 21
117.587540
  0
LINE
  8
0
 10
-227.466751
 20
70.987564
 11
-229.066757
 21
70.987564
  0
LINE
  8
0
 10
-225.066788
 20
33.487625
 11
-220.066788
 21
33.487625
  0
LINE
  8
0
 10
-220.066772
 20
33.487625
 11
-220.066772
 21
37.487625
  0
LINE
  8
0
 10
-225.066772
 20
33.487625
 11
-225.066772
 21
37.487625
  0
LINE
  8
0
 10
-225.066788
 20
37.487625
 11
-220.066788
 21
37.487625
  0
LINE
  8
0
 10
-226.566772
 20
45.987625
 11
-218.566772
 21
45.987625
  0
LINE
  8
0
 10
-226.566772
 20
45.187637
 11
-218.566772
 21
45.187637
  0
LINE
  8
0
 10
-226.566788
 20
42.687637
 11
-218.566788
 21
42.687637
  0
LINE
  8
0
 10
-218.566772
 20
42.687637
 11
-218.566772
 21
45.187637
  0
LINE
  8
0
 10
-226.566772
 20
42.687637
 11
-226.566772
 21
45.187637
  0
LINE
  8
0
 10
-220.066772
 20
45.187576
 11
-220.066772
 21
45.987564
  0
LINE
  8
0
 10
-225.066772
 20
45.187576
 11
-225.066772
 21
45.987564
  0
LINE
  8
0
 10
-224.066772
 20
37.487564
 11
-224.066772
 21
42.687576
  0
LINE
  8
0
 10
-221.066772
 20
37.487564
 11
-221.066772
 21
42.687576
  0
LINE
  8
0
 62
     2
 10
-221.337280
 20
37.487564
 11
-221.337280
 21
42.687576
  0
LINE
  8
0
 62
     2
 10
-223.796265
 20
37.487564
 11
-223.796265
 21
42.687576
  0
LINE
  8
0
 10
-227.466766
 20
49.987625
 11
-225.066772
 21
49.987625
  0
LINE
  8
0
 10
-218.566772
 20
45.987564
 11
-218.566772
 21
49.987564
  0
LINE
  8
0
 10
-226.566772
 20
45.987564
 11
-226.566772
 21
49.987564
  0
LINE
  8
0
 10
-222.566772
 20
46.344833
 11
-222.566772
 21
48.687546
  0
LINE
  8
0
 10
-220.066788
 20
49.987625
 11
-217.666779
 21
49.987625
  0
LINE
  8
0
 10
-217.666779
 20
49.987625
 11
-217.666779
 21
58.632812
  0
LINE
  8
0
 10
-227.466766
 20
49.987625
 11
-227.466766
 21
58.632812
  0
LINE
  8
0
 10
-224.616791
 20
122.987564
 11
-226.316788
 21
122.987564
  0
LINE
  8
0
 10
-224.866791
 20
65.187546
 11
-224.866791
 21
61.541824
  0
LINE
  8
0
 10
-218.996048
 20
76.287552
 11
-226.137466
 21
76.287552
  0
LINE
  8
0
 10
-217.666779
 20
65.187515
 11
-217.666779
 21
65.787552
  0
LINE
  8
0
 10
-227.466766
 20
65.187515
 11
-227.466766
 21
74.187515
  0
LINE
  8
0
 10
-227.466751
 20
74.187546
 11
-217.666763
 21
74.187546
  0
LINE
  8
0
 10
-227.466751
 20
65.187546
 11
-217.666763
 21
65.187546
  0
LINE
  8
0
 10
-222.566757
 20
68.487534
 11
-215.066757
 21
68.487534
  0
LINE
  8
0
 10
-222.566757
 20
69.887558
 11
-215.066757
 21
69.887558
  0
LINE
  8
0
 10
-217.666870
 20
65.787491
 11
-218.966858
 21
68.487473
  0
LINE
  8
0
 10
-217.666367
 20
72.587425
 11
-218.966370
 21
69.887413
  0
LINE
  8
0
 10
-217.666779
 20
72.587540
 11
-217.666779
 21
74.187515
  0
LINE
  8
0
 10
-215.066757
 20
64.287552
 11
-210.766769
 21
64.287552
  0
LINE
  8
0
 10
-207.866791
 20
64.187515
 11
-207.866791
 21
74.187515
  0
LINE
  8
0
 10
-209.466797
 20
64.187515
 11
-209.466797
 21
74.187515
  0
LINE
  8
0
 10
-217.666763
 20
65.787552
 11
-216.566757
 21
65.787552
  0
LINE
  8
0
 10
-215.066772
 20
64.287552
 11
-215.066772
 21
74.087540
  0
LINE
  8
0
 10
-216.566772
 20
65.787552
 11
-216.566772
 21
68.487503
  0
LINE
  8
0
 10
-210.766785
 20
64.287552
 11
-210.766785
 21
74.087540
  0
LINE
  8
0
 10
-209.466782
 20
64.187546
 11
-207.866776
 21
64.187546
  0
LINE
  8
0
 10
-209.466782
 20
74.187546
 11
-207.866776
 21
74.187546
  0
LINE
  8
0
 10
-215.066757
 20
74.087540
 11
-210.766769
 21
74.087540
  0
LINE
  8
0
 10
-217.666763
 20
72.587540
 11
-216.566757
 21
72.587540
  0
LINE
  8
0
 10
-210.766769
 20
65.937546
 11
-209.466782
 21
65.937546
  0
LINE
  8
0
 10
-210.766769
 20
72.437546
 11
-209.466782
 21
72.437546
  0
LINE
  8
0
 10
-216.566772
 20
69.887527
 11
-216.566772
 21
72.587540
  0
LINE
  8
0
 10
-215.066696
 20
64.287621
 11
-216.566711
 21
65.787621
  0
LINE
  8
0
 10
-215.066956
 20
74.087662
 11
-216.566940
 21
72.587669
  0
LINE
  8
0
 10
-226.466751
 20
75.687546
 11
-218.666763
 21
75.687546
  0
LINE
  8
0
 10
-226.466751
 20
76.287552
 11
-218.666763
 21
76.287552
  0
LINE
  8
0
 10
-219.316788
 20
74.187515
 11
-219.316788
 21
75.687515
  0
LINE
  8
0
 10
-225.816772
 20
74.187515
 11
-225.816772
 21
75.687515
  0
LINE
  8
0
 10
-218.666794
 20
75.687515
 11
-218.666794
 21
76.287552
  0
LINE
  8
0
 10
-226.466766
 20
75.687515
 11
-226.466766
 21
76.287552
  0
LINE
  8
0
 10
-225.066772
 20
48.687546
 11
-220.066788
 21
48.687546
  0
LINE
  8
0
 10
-220.066788
 20
48.687546
 11
-220.066788
 21
52.687546
  0
LINE
  8
0
 10
-225.066772
 20
48.687546
 11
-225.066772
 21
52.687546
  0
LINE
  8
0
 10
-225.066772
 20
52.687546
 11
-220.066788
 21
52.687546
  0
LINE
  8
0
 10
-226.030869
 20
61.187546
 11
-219.102646
 21
61.187546
  0
LINE
  8
0
 10
-226.566772
 20
60.387558
 11
-218.566788
 21
60.387558
  0
LINE
  8
0
 10
-226.566772
 20
57.887558
 11
-218.566788
 21
57.887558
  0
LINE
  8
0
 10
-218.566788
 20
57.887558
 11
-218.566788
 21
60.387558
  0
LINE
  8
0
 10
-226.566772
 20
57.887558
 11
-226.566772
 21
60.387558
  0
LINE
  8
0
 10
-217.947968
 20
61.544815
 11
-217.947968
 21
65.187515
  0
LINE
  8
0
 10
-220.257401
 20
61.544815
 11
-220.257401
 21
65.187515
  0
LINE
  8
0
 10
-227.185577
 20
61.544815
 11
-227.185577
 21
65.187515
  0
LINE
  8
0
 10
-220.066788
 20
60.387527
 11
-220.066788
 21
61.187515
  0
LINE
  8
0
 10
-225.066772
 20
60.387527
 11
-225.066772
 21
61.187515
  0
LINE
  8
0
 10
-224.066772
 20
52.687515
 11
-224.066772
 21
57.887527
  0
LINE
  8
0
 10
-221.066788
 20
52.687515
 11
-221.066788
 21
57.887527
  0
LINE
  8
0
 62
     2
 10
-221.337296
 20
52.687515
 11
-221.337296
 21
57.887527
  0
LINE
  8
0
 62
     2
 10
-223.796265
 20
52.687515
 11
-223.796265
 21
57.887527
  0
LINE
  8
0
 10
-215.066864
 20
64.287552
 11
-217.947952
 21
64.287552
  0
LINE
  8
0
 10
-227.466751
 20
70.787552
 11
-228.916779
 21
70.787552
  0
LINE
  8
0
 10
-226.816772
 20
127.487564
 11
-218.316772
 21
127.487564
  0
LINE
  8
0
 10
-218.316772
 20
124.287552
 11
-218.316772
 21
127.487564
  0
LINE
  8
0
 10
-226.816772
 20
124.287552
 11
-226.816772
 21
127.487564
  0
LINE
  8
0
 10
-220.066788
 20
155.087540
 11
-225.066788
 21
155.087540
  0
LINE
  8
0
 10
-225.066803
 20
155.087540
 11
-225.066803
 21
151.087540
  0
LINE
  8
0
 10
-220.066803
 20
155.087540
 11
-220.066803
 21
151.087540
  0
LINE
  8
0
 10
-220.066788
 20
151.087540
 11
-225.066788
 21
151.087540
  0
LINE
  8
0
 10
-218.666763
 20
128.087540
 11
-226.466751
 21
128.087540
  0
LINE
  8
0
 10
-218.566772
 20
142.587540
 11
-226.566772
 21
142.587540
  0
LINE
  8
0
 10
-218.566803
 20
143.387527
 11
-226.566803
 21
143.387527
  0
LINE
  8
0
 10
-218.566788
 20
145.887527
 11
-226.566788
 21
145.887527
  0
LINE
  8
0
 10
-226.566803
 20
145.887527
 11
-226.566803
 21
143.387527
  0
LINE
  8
0
 10
-218.566803
 20
145.887527
 11
-218.566803
 21
143.387527
  0
LINE
  8
0
 10
-225.066803
 20
143.387527
 11
-225.066803
 21
142.587540
  0
LINE
  8
0
 10
-220.066803
 20
143.387527
 11
-220.066803
 21
142.587540
  0
LINE
  8
0
 10
-221.066803
 20
151.087540
 11
-221.066803
 21
145.887527
  0
LINE
  8
0
 10
-224.066803
 20
151.087540
 11
-224.066803
 21
145.887527
  0
LINE
  8
0
 62
     2
 10
-223.796295
 20
151.087540
 11
-223.796295
 21
145.887527
  0
LINE
  8
0
 62
     2
 10
-221.337311
 20
151.087540
 11
-221.337311
 21
145.887527
  0
LINE
  8
0
 10
-225.816803
 20
129.587540
 11
-225.816803
 21
128.087540
  0
LINE
  8
0
 10
-219.316803
 20
129.587540
 11
-219.316803
 21
128.087540
  0
LINE
  8
0
 10
-226.466797
 20
128.087540
 11
-226.466797
 21
127.487564
  0
LINE
  8
0
 10
-218.666809
 20
128.087540
 11
-218.666809
 21
127.487564
  0
LINE
  8
0
 10
-217.666779
 20
138.587540
 11
-220.387360
 21
138.587540
  0
LINE
  8
0
 10
-217.666763
 20
129.587540
 11
-220.387360
 21
129.587540
  0
LINE
  8
0
 10
-226.566803
 20
142.587540
 11
-226.566803
 21
138.587540
  0
LINE
  8
0
 10
-218.566803
 20
142.587540
 11
-218.566803
 21
138.587540
  0
LINE
  8
0
 10
-222.566803
 20
142.230301
 11
-222.566803
 21
139.087540
  0
LINE
  8
0
 10
-217.666809
 20
138.587540
 11
-217.666809
 21
135.082550
  0
LINE
  8
0
 10
-227.466797
 20
138.587540
 11
-227.466797
 21
135.082550
  0
LINE
  8
0
 10
-227.548447
 20
79.359741
 11
-228.169052
 21
79.305420
  0
LINE
  8
0
 10
-227.548538
 20
80.214600
 11
-228.169174
 21
80.268860
  0
LINE
  8
0
 10
-222.566742
 20
104.168770
 11
-218.566757
 21
106.478142
  0
LINE
  8
0
 10
-218.566788
 20
111.096939
 11
-218.566788
 21
106.478165
  0
LINE
  8
0
 10
-222.566833
 20
113.406128
 11
-218.566818
 21
111.096718
  0
LINE
  8
0
 10
-226.566742
 20
111.096924
 11
-222.566757
 21
113.406319
  0
LINE
  8
0
 10
-226.566772
 20
111.096939
 11
-226.566772
 21
106.478165
  0
LINE
  8
0
 10
-226.566849
 20
106.477982
 11
-222.566833
 21
104.168564
  0
LINE
  8
0
  6
CENTER
 62
     2
 10
-204.290710
 20
94.287552
 11
-240.950897
 21
94.287552
  0
LINE
  8
0
  6
CENTER
 62
     2
 10
-233.566788
 20
107.287552
 11
-233.566788
 21
101.287552
  0
LINE
  8
0
  6
CENTER
 62
     2
 10
-233.566788
 20
87.287521
 11
-233.566788
 21
81.287521
  0
LINE
  8
0
  6
CENTER
 62
     2
 10
-230.566788
 20
104.287552
 11
-236.566788
 21
104.287552
  0
LINE
  8
0
  6
CENTER
 62
     2
 10
-230.566788
 20
84.287521
 11
-236.566788
 21
84.287521
  0
LINE
  8
0
 10
-217.666779
 20
58.632812
 11
-218.566788
 21
58.632812
  0
LINE
  8
0
 10
-226.566772
 20
58.632812
 11
-227.466766
 21
58.632812
  0
LINE
  8
0
 10
-224.746246
 20
129.587540
 11
-227.466751
 21
129.587540
  0
LINE
  8
0
 10
-217.666809
 20
133.092529
 11
-217.666809
 21
129.587540
  0
LINE
  8
0
 10
-224.746246
 20
138.587540
 11
-227.466812
 21
138.587540
  0
LINE
  8
0
 10
-227.466797
 20
133.092529
 11
-227.466797
 21
129.587540
  0
LINE
  8
0
 62
     4
 10
-227.466766
 20
70.787552
 11
-228.716782
 21
70.787552
  0
LINE
  8
0
 62
     4
 10
-230.816788
 20
66.187469
 11
-230.816788
 21
65.587463
  0
LINE
  8
0
 62
     4
 10
-230.816818
 20
66.187546
 11
-229.216843
 21
66.187546
  0
LINE
  8
0
 62
     4
 10
-228.516830
 20
64.187546
 11
-227.916824
 21
64.187546
  0
LINE
  8
0
 62
     4
 10
-229.216782
 20
66.787491
 11
-229.216782
 21
64.787491
  0
LINE
  8
0
 62
     4
 10
-227.216782
 20
65.187546
 11
-227.216782
 21
64.787491
  0
LINE
  8
0
 62
     4
 10
-229.216843
 20
66.787552
 11
-227.466766
 21
66.787552
  0
LINE
  8
0
 62
     4
 10
-228.716782
 20
70.787491
 11
-228.716782
 21
66.787491
  0
LINE
  8
0
 62
     4
 10
-228.516800
 20
64.187485
 11
-228.516800
 21
63.512283
  0
LINE
  8
0
 62
     4
 10
-229.966843
 20
64.787552
 11
-227.185577
 21
64.787552
  0
LINE
  8
0
 62
     4
 10
-230.116806
 20
65.587540
 11
-231.066818
 21
65.587540
  0
LINE
  8
0
 62
     4
 10
-227.916763
 20
64.187485
 11
-227.916763
 21
63.512283
  0
LINE
  8
0
 62
     4
 10
-227.185577
 20
64.987564
 11
-227.216843
 21
64.987564
  0
LINE
  8
0
 62
     4
 10
-229.816788
 20
65.287491
 11
-229.816788
 21
64.987503
  0
LINE
  8
0
 62
     4
 10
-229.816818
 20
64.987564
 11
-229.216843
 21
64.987564
  0
LINE
  8
0
 10
-145.829315
 20
-28.212437
 11
214.170685
 21
-28.212437
  0
LINE
  8
0
 10
214.170685
 20
-28.212471
 11
214.170685
 21
-3.212462
  0
LINE
  8
0
 10
219.870697
 20
-3.712410
 11
214.170685
 21
-3.712410
  0
LINE
  8
0
  6
CENTER
 62
     2
 10
34.170685
 20
1.719137
 11
34.170685
 21
-33.499744
  0
LINE
  8
0
 10
219.870697
 20
-8.212383
 11
221.270660
 21
-8.212383
  0
LINE
  8
0
 62
     4
 10
-98.282532
 20
-16.962410
 11
-98.282532
 21
-20.762419
  0
LINE
  8
0
 62
     4
 10
-93.282532
 20
-16.962412
 11
-93.282532
 21
-20.762419
  0
LINE
  8
0
 10
219.870667
 20
-19.712412
 11
214.170685
 21
-19.712412
  0
LINE
  8
0
 62
     4
 10
-83.329315
 20
-19.362427
 11
-83.329315
 21
-16.962429
  0
LINE
  8
0
 62
     4
 10
-84.329315
 20
-19.362427
 11
-84.329315
 21
-16.962429
  0
LINE
  8
0
 62
     4
 10
-98.282532
 20
-19.362425
 11
-108.782532
 21
-19.362425
  0
LINE
  8
0
 62
     4
 10
-83.329315
 20
-19.362425
 11
-93.282532
 21
-19.362425
  0
LINE
  8
0
 10
-145.829315
 20
-19.562429
 11
-98.282532
 21
-19.562429
  0
LINE
  8
0
 10
219.870697
 20
-15.212408
 11
214.170685
 21
-15.212408
  0
LINE
  8
0
 62
     4
 10
-108.782532
 20
-16.962406
 11
-108.782532
 21
-19.362415
  0
LINE
  8
0
 10
232.770660
 20
-15.712446
 11
223.870636
 21
-15.712446
  0
LINE
  8
0
 62
     2
 10
232.770660
 20
-15.112440
 11
223.870636
 21
-15.112440
  0
LINE
  8
0
 10
232.770660
 20
-10.712446
 11
223.870636
 21
-10.712446
  0
LINE
  8
0
 62
     2
 10
232.770660
 20
-11.312452
 11
223.870636
 21
-11.312452
  0
LINE
  8
0
 10
223.870667
 20
-17.212465
 11
223.870667
 21
-9.212454
  0
LINE
  8
0
 10
232.770660
 20
-15.712476
 11
232.770660
 21
-10.712477
  0
LINE
  8
0
 10
219.870697
 20
-19.712448
 11
219.870697
 21
-3.712444
  0
LINE
  8
0
 10
-145.829315
 20
-18.862383
 11
-145.829315
 21
-28.212410
  0
LINE
  8
0
 10
231.070679
 20
-10.712476
 11
231.070679
 21
-1.412439
  0
LINE
  8
0
 10
231.170685
 20
1.487600
 11
221.170685
 21
1.487600
  0
LINE
  8
0
 10
231.170685
 20
-0.112406
 11
221.170685
 21
-0.112406
  0
LINE
  8
0
 10
229.570679
 20
-8.212449
 11
229.570679
 21
-7.212445
  0
LINE
  8
0
 10
231.070679
 20
-5.712399
 11
221.270660
 21
-5.712399
  0
LINE
  8
0
 10
229.570679
 20
-7.212399
 11
222.770691
 21
-7.212399
  0
LINE
  8
0
 10
231.070679
 20
-1.412394
 11
221.270660
 21
-1.412394
  0
LINE
  8
0
 10
231.170685
 20
-0.112449
 11
231.170685
 21
1.487556
  0
LINE
  8
0
 10
221.170685
 20
-0.112440
 11
221.170685
 21
1.487566
  0
LINE
  8
0
 10
222.770691
 20
-8.212448
 11
222.770691
 21
-7.212433
  0
LINE
  8
0
 10
229.420685
 20
-1.412431
 11
229.420685
 21
-0.112445
  0
LINE
  8
0
 10
222.920685
 20
-1.412426
 11
222.920685
 21
-0.112436
  0
LINE
  8
0
 10
231.071365
 20
-5.713168
 11
229.571365
 21
-7.213152
  0
LINE
  8
0
 10
221.270996
 20
-5.712140
 11
222.770996
 21
-7.212161
  0
LINE
  8
0
 10
-145.829315
 20
-3.212404
 11
-145.829315
 21
-16.962397
  0
LINE
  8
0
 10
-151.529327
 20
-7.212404
 11
-152.529327
 21
-7.212404
  0
LINE
  8
0
 10
-151.529327
 20
-3.712431
 11
-145.829315
 21
-3.712431
  0
LINE
  8
0
 10
-151.529327
 20
-19.712431
 11
-145.829315
 21
-19.712431
  0
LINE
  8
0
 10
-152.529327
 20
-19.212421
 11
-152.529327
 21
-7.212389
  0
LINE
  8
0
 10
-151.529327
 20
-15.212429
 11
-145.829315
 21
-15.212429
  0
LINE
  8
0
 10
-151.529327
 20
-3.712409
 11
-151.529327
 21
-19.712406
  0
LINE
  8
0
 10
138.651321
 20
-13.212720
 11
140.960709
 21
-17.212696
  0
LINE
  8
0
 10
145.580719
 20
-17.212404
 11
140.961334
 21
-17.212404
  0
LINE
  8
0
 10
145.579926
 20
-9.212404
 11
140.961365
 21
-9.212404
  0
LINE
  8
0
 10
140.961502
 20
-9.212468
 11
138.652100
 21
-13.212470
  0
LINE
  8
0
 10
143.270721
 20
-18.112398
 11
155.070770
 21
-18.112398
  0
LINE
  8
0
 10
157.970734
 20
-18.212427
 11
157.970734
 21
-8.212427
  0
LINE
  8
0
 10
156.370758
 20
-18.212425
 11
156.370758
 21
-8.212427
  0
LINE
  8
0
 10
146.799164
 20
-16.612398
 11
149.270721
 21
-16.612398
  0
LINE
  8
0
 10
150.770752
 20
-18.112419
 11
150.770752
 21
-8.312431
  0
LINE
  8
0
 10
149.270752
 20
-16.612419
 11
149.270752
 21
-9.812431
  0
LINE
  8
0
 10
155.070770
 20
-18.112419
 11
155.070770
 21
-8.312432
  0
LINE
  8
0
 10
156.370758
 20
-18.212404
 11
157.970734
 21
-18.212404
  0
LINE
  8
0
 10
156.370758
 20
-8.212404
 11
157.970734
 21
-8.212404
  0
LINE
  8
0
 10
143.270752
 20
-8.312410
 11
155.070770
 21
-8.312410
  0
LINE
  8
0
 10
146.799194
 20
-9.812410
 11
149.270752
 21
-9.812410
  0
LINE
  8
0
 10
155.070770
 20
-16.462404
 11
156.370758
 21
-16.462404
  0
LINE
  8
0
 10
155.070770
 20
-9.962404
 11
156.370758
 21
-9.962404
  0
LINE
  8
0
 10
150.770050
 20
-18.113068
 11
149.270050
 21
-16.613070
  0
LINE
  8
0
 10
150.771454
 20
-8.313157
 11
149.271454
 21
-9.813170
  0
LINE
  8
0
 10
230.670685
 20
-18.212448
 11
230.670685
 21
-15.712476
  0
LINE
  8
0
 10
219.870697
 20
-18.212420
 11
230.670685
 21
-18.212420
  0
LINE
  8
0
 10
219.870667
 20
-17.212420
 11
223.870636
 21
-17.212420
  0
LINE
  8
0
 10
219.870697
 20
-9.212420
 11
223.870667
 21
-9.212420
  0
LINE
  8
0
 10
221.270660
 20
-9.212448
 11
221.270660
 21
-1.412428
  0
LINE
  8
0
 10
223.513397
 20
-13.212420
 11
219.870697
 21
-13.212420
  0
LINE
  8
0
 10
-145.829315
 20
-3.212431
 11
214.170685
 21
-3.212431
  0
LINE
  8
0
 10
-145.829315
 20
-6.212420
 11
214.170685
 21
-6.212420
  0
LINE
  8
0
 10
-145.829315
 20
-16.962421
 11
140.116791
 21
-16.962421
  0
LINE
  8
0
 10
-145.829315
 20
-19.562429
 11
-98.282532
 21
-19.562429
  0
LINE
  8
0
 10
-157.829636
 20
-8.592937
 11
-161.829605
 21
-10.902328
  0
LINE
  8
0
 10
-153.829315
 20
-15.521796
 11
-153.829315
 21
-10.903009
  0
LINE
  8
0
 10
-153.829376
 20
-10.903074
 11
-157.829376
 21
-8.593672
  0
LINE
  8
0
 10
-162.729294
 20
-18.212399
 11
-162.729294
 21
-1.412391
  0
LINE
  8
0
 10
-162.829300
 20
1.487562
 11
-152.829315
 21
1.487562
  0
LINE
  8
0
 10
-162.829300
 20
-0.112444
 11
-152.829315
 21
-0.112444
  0
LINE
  8
0
 10
-161.229309
 20
-9.683967
 11
-161.229309
 21
-7.212409
  0
LINE
  8
0
 10
-162.729294
 20
-5.712435
 11
-152.929321
 21
-5.712435
  0
LINE
  8
0
 10
-161.229309
 20
-7.212435
 11
-154.429321
 21
-7.212435
  0
LINE
  8
0
 10
-162.729294
 20
-1.412432
 11
-152.929321
 21
-1.412432
  0
LINE
  8
0
 10
-162.829300
 20
-0.112403
 11
-162.829300
 21
1.487603
  0
LINE
  8
0
 10
-152.829315
 20
-0.112406
 11
-152.829315
 21
1.487600
  0
LINE
  8
0
 10
-152.929321
 20
-13.212399
 11
-152.929321
 21
-1.412394
  0
LINE
  8
0
 10
-154.429321
 20
-9.683954
 11
-154.429321
 21
-7.212397
  0
LINE
  8
0
 10
-161.079315
 20
-1.412391
 11
-161.079315
 21
-0.112405
  0
LINE
  8
0
 10
-154.579315
 20
-1.412394
 11
-154.579315
 21
-0.112406
  0
LINE
  8
0
 10
-162.730026
 20
-5.713125
 11
-161.230042
 21
-7.213121
  0
LINE
  8
0
 10
-152.930069
 20
-5.711733
 11
-154.430099
 21
-7.211752
  0
LINE
  8
0
 10
157.970734
 20
-16.962421
 11
214.170685
 21
-16.962421
  0
LINE
  8
0
 10
147.890121
 20
-13.212719
 11
145.580734
 21
-17.212694
  0
LINE
  8
0
 10
145.579834
 20
-9.212448
 11
147.889267
 21
-13.212499
  0
LINE
  8
0
 10
-93.282532
 20
-19.562429
 11
214.170685
 21
-19.562429
  0
LINE
  8
0
 62
     4
 10
-96.631081
 20
-18.013905
 11
-94.934029
 21
-19.710957
  0
LINE
  8
0
  6
CENTER
 62
     2
 10
9.170685
 20
1.719141
 11
9.170685
 21
-33.499741
  0
LINE
  8
0
  6
CENTER
 62
     2
 10
59.170685
 20
1.719133
 11
59.170685
 21
-33.499748
  0
LINE
  8
0
 10
214.170685
 20
-20.762438
 11
-145.829315
 21
-20.762438
  0
LINE
  8
0
 62
     4
 10
-94.934036
 20
-18.013844
 11
-96.631096
 21
-19.710905
  0
LINE
  8
0
 10
-161.829315
 20
-15.521801
 11
-161.829315
 21
-10.902991
  0
LINE
  8
0
 10
-157.829346
 20
-17.831198
 11
-161.829315
 21
-15.521808
  0
LINE
  8
0
 10
-153.829361
 20
-15.521756
 11
-157.829269
 21
-17.831108
  0
LINE
  8
0
 10
-152.529327
 20
-18.212427
 11
-162.729294
 21
-18.212427
  0
LINE
  8
0
 10
-151.529327
 20
-19.212450
 11
-152.529327
 21
-19.212450
  0
LINE
  8
0
 10
-152.529327
 20
-8.212427
 11
-152.929321
 21
-8.212427
  0
LINE
  8
0
 10
231.070679
 20
-8.212420
 11
221.270660
 21
-8.212420
  0
LINE
  8
0
 62
     4
 10
-145.829315
 20
-15.862423
 11
-148.002426
 21
-15.862423
  0
LINE
  8
0
 62
     4
 10
-148.806000
 20
-18.862415
 11
-148.002136
 21
-15.862412
  0
LINE
  8
0
 62
     4
 10
-108.782532
 20
-18.862429
 11
-148.806259
 21
-18.862429
  0
LINE
  8
0
 62
     4
 10
-145.829346
 20
-93.712349
 11
-148.002457
 21
-93.712349
  0
LINE
  8
0
 62
     4
 10
-148.805984
 20
-96.712349
 11
-148.002121
 21
-93.712349
  0
LINE
  8
0
 62
     4
 10
-145.829346
 20
-96.712357
 11
-148.806290
 21
-96.712357
  0
LINE
  8
0
  6
CENTER
 62
     2
 10
34.170685
 20
-153.063965
 11
34.170685
 21
-87.955910
  0
LINE
  8
0
 10
-144.429321
 20
-132.462448
 11
-144.429321
 21
-137.212418
  0
LINE
  8
0
 10
-87.329315
 20
-117.212433
 11
-109.829315
 21
-117.212433
  0
LINE
  8
0
 10
-87.329315
 20
-124.212433
 11
-109.829315
 21
-124.212433
  0
LINE
  8
0
 10
-78.500130
 20
-153.912430
 11
-71.358711
 21
-153.912430
  0
LINE
  8
0
 10
-79.829315
 20
-165.012436
 11
-79.829315
 21
-164.412430
  0
LINE
  8
0
 10
-70.029327
 20
-165.012451
 11
-70.029327
 21
-156.012451
  0
LINE
  8
0
 10
-70.029427
 20
-156.012436
 11
-79.829414
 21
-156.012436
  0
LINE
  8
0
 10
-70.029427
 20
-165.012436
 11
-79.829414
 21
-165.012436
  0
LINE
  8
0
 10
-74.929420
 20
-161.712433
 11
-82.429420
 21
-161.712433
  0
LINE
  8
0
 10
-74.929420
 20
-160.312439
 11
-82.429420
 21
-160.312439
  0
LINE
  8
0
 10
-79.829758
 20
-164.412262
 11
-78.529770
 21
-161.712311
  0
LINE
  8
0
 10
-79.829117
 20
-157.612335
 11
-78.529114
 21
-160.312363
  0
LINE
  8
0
 10
-79.829315
 20
-157.612442
 11
-79.829315
 21
-156.012436
  0
LINE
  8
0
 10
-82.429420
 20
-165.912430
 11
-86.729408
 21
-165.912430
  0
LINE
  8
0
 10
-89.629333
 20
-166.012421
 11
-89.629333
 21
-156.012421
  0
LINE
  8
0
 10
-88.029327
 20
-166.012421
 11
-88.029327
 21
-156.012421
  0
LINE
  8
0
 10
-79.829414
 20
-164.412430
 11
-80.929420
 21
-164.412430
  0
LINE
  8
0
 10
-82.429321
 20
-165.912430
 11
-82.429321
 21
-156.112442
  0
LINE
  8
0
 10
-80.929321
 20
-164.412430
 11
-80.929321
 21
-161.712448
  0
LINE
  8
0
 10
-86.729340
 20
-165.912430
 11
-86.729340
 21
-156.112442
  0
LINE
  8
0
 10
-88.029396
 20
-166.012436
 11
-89.629402
 21
-166.012436
  0
LINE
  8
0
 10
-88.029396
 20
-156.012436
 11
-89.629402
 21
-156.012436
  0
LINE
  8
0
 10
-82.429420
 20
-156.112427
 11
-86.729408
 21
-156.112427
  0
LINE
  8
0
 10
-79.829414
 20
-157.612427
 11
-80.929420
 21
-157.612427
  0
LINE
  8
0
 10
-86.729408
 20
-164.262436
 11
-88.029396
 21
-164.262436
  0
LINE
  8
0
 10
-86.729408
 20
-157.762436
 11
-88.029396
 21
-157.762436
  0
LINE
  8
0
 10
-80.929321
 20
-160.312454
 11
-80.929321
 21
-157.612442
  0
LINE
  8
0
 10
-82.429420
 20
-165.912292
 11
-80.929413
 21
-164.412308
  0
LINE
  8
0
 10
-82.429161
 20
-156.112183
 11
-80.929161
 21
-157.612198
  0
LINE
  8
0
 10
-71.029427
 20
-154.512436
 11
-78.829414
 21
-154.512436
  0
LINE
  8
0
 10
-70.679420
 20
-153.912430
 11
-79.179420
 21
-153.912430
  0
LINE
  8
0
 10
-78.179321
 20
-156.012436
 11
-78.179321
 21
-154.512436
  0
LINE
  8
0
 10
-71.679321
 20
-156.012436
 11
-71.679321
 21
-154.512436
  0
LINE
  8
0
 10
-78.829315
 20
-154.512436
 11
-78.829315
 21
-153.912430
  0
LINE
  8
0
 10
-71.029327
 20
-154.512436
 11
-71.029327
 21
-153.912430
  0
LINE
  8
0
 10
-72.429329
 20
-181.512436
 11
-77.429329
 21
-181.512436
  0
LINE
  8
0
 10
-77.429321
 20
-181.512421
 11
-77.429321
 21
-177.512421
  0
LINE
  8
0
 10
-72.429321
 20
-181.512421
 11
-72.429321
 21
-177.512421
  0
LINE
  8
0
 10
-72.429329
 20
-177.512436
 11
-77.429329
 21
-177.512436
  0
LINE
  8
0
 10
-71.465309
 20
-169.012436
 11
-78.393532
 21
-169.012436
  0
LINE
  8
0
 10
-70.929329
 20
-169.812424
 11
-78.929329
 21
-169.812424
  0
LINE
  8
0
 10
-70.929329
 20
-172.312424
 11
-78.929329
 21
-172.312424
  0
LINE
  8
0
 10
-78.929321
 20
-172.312408
 11
-78.929321
 21
-169.812408
  0
LINE
  8
0
 10
-70.929321
 20
-172.312408
 11
-70.929321
 21
-169.812408
  0
LINE
  8
0
 10
-79.548126
 20
-168.655167
 11
-79.548126
 21
-165.012436
  0
LINE
  8
0
 10
-77.238708
 20
-168.655167
 11
-77.238708
 21
-165.012436
  0
LINE
  8
0
 10
-72.619904
 20
-168.655167
 11
-72.619904
 21
-165.012436
  0
LINE
  8
0
 10
-70.310516
 20
-168.655182
 11
-70.310516
 21
-165.012451
  0
LINE
  8
0
 10
-77.429321
 20
-169.812424
 11
-77.429321
 21
-169.012436
  0
LINE
  8
0
 10
-72.429321
 20
-169.812424
 11
-72.429321
 21
-169.012436
  0
LINE
  8
0
 10
-73.429321
 20
-177.512436
 11
-73.429321
 21
-172.312424
  0
LINE
  8
0
 10
-76.429321
 20
-177.512436
 11
-76.429321
 21
-172.312424
  0
LINE
  8
0
 62
     2
 10
-76.158813
 20
-177.512436
 11
-76.158813
 21
-172.312424
  0
LINE
  8
0
 62
     2
 10
-73.699829
 20
-177.512436
 11
-73.699829
 21
-172.312424
  0
LINE
  8
0
 10
-70.429321
 20
-137.212433
 11
-70.429321
 21
-131.212433
  0
LINE
  8
0
 10
-80.129303
 20
-130.212418
 11
-70.429321
 21
-130.212418
  0
LINE
  8
0
 10
-70.429321
 20
-138.712387
 11
-70.429321
 21
-130.212402
  0
LINE
  8
0
 10
-86.929321
 20
-141.212433
 11
-86.929321
 21
-100.212433
  0
LINE
  8
0
 10
-87.329285
 20
-129.712418
 11
-88.829285
 21
-129.712418
  0
LINE
  8
0
 10
-88.829315
 20
-129.712433
 11
-88.829315
 21
-140.712433
  0
LINE
  8
0
 10
-87.329315
 20
-129.712433
 11
-87.329315
 21
-140.712433
  0
LINE
  8
0
 10
-81.229309
 20
-127.712440
 11
-81.229309
 21
-141.212433
  0
LINE
  8
0
 10
-142.929321
 20
-137.212418
 11
-142.929321
 21
-104.212402
  0
LINE
  8
0
 10
-88.829285
 20
-132.212418
 11
-109.829315
 21
-132.212418
  0
LINE
  8
0
 10
-86.929291
 20
-130.212418
 11
-87.329285
 21
-130.212418
  0
LINE
  8
0
 10
-88.329315
 20
-108.712433
 11
-86.929321
 21
-108.712433
  0
LINE
  8
0
 62
     2
 10
-88.329315
 20
-108.212433
 11
-86.929321
 21
-108.212433
  0
LINE
  8
0
 10
-58.329330
 20
-108.712471
 11
-74.929321
 21
-108.712471
  0
LINE
  8
0
 62
     2
 10
-58.329330
 20
-108.112465
 11
-74.929321
 21
-108.112465
  0
LINE
  8
0
 10
-142.929321
 20
-132.462448
 11
-144.429321
 21
-132.462448
  0
LINE
  8
0
 10
-108.329376
 20
-108.962418
 11
-108.329376
 21
-104.212418
  0
LINE
  8
0
 10
-109.829315
 20
-108.962418
 11
-108.329346
 21
-108.962418
  0
LINE
  8
0
 10
-162.329330
 20
-102.712425
 11
-162.329330
 21
-110.212425
  0
LINE
  8
0
 10
-152.529327
 20
-111.212433
 11
-162.329330
 21
-111.212433
  0
LINE
  8
0
 10
-153.429321
 20
-102.712433
 11
-162.329300
 21
-102.712433
  0
LINE
  8
0
 10
-153.929321
 20
-102.712433
 11
-155.729309
 21
-102.712433
  0
LINE
  8
0
 10
-161.729309
 20
-102.112427
 11
-153.929321
 21
-102.112427
  0
LINE
  8
0
 10
-161.829315
 20
-87.612427
 11
-153.829315
 21
-87.612427
  0
LINE
  8
0
 10
-155.329346
 20
-86.812416
 11
-155.329346
 21
-87.612404
  0
LINE
  8
0
 10
-160.329346
 20
-86.812416
 11
-160.329346
 21
-87.612404
  0
LINE
  8
0
 10
-154.579346
 20
-100.612396
 11
-154.579346
 21
-102.112396
  0
LINE
  8
0
 10
-161.079346
 20
-100.612404
 11
-161.079346
 21
-102.112404
  0
LINE
  8
0
 10
-153.929352
 20
-102.112396
 11
-153.929352
 21
-102.712402
  0
LINE
  8
0
 10
-161.729340
 20
-102.112419
 11
-161.729340
 21
-102.712425
  0
LINE
  8
0
 10
-162.729294
 20
-91.612427
 11
-152.929321
 21
-91.612427
  0
LINE
  8
0
 10
-162.729294
 20
-100.612427
 11
-152.929321
 21
-100.612427
  0
LINE
  8
0
 10
-153.829346
 20
-87.612411
 11
-153.829346
 21
-91.612396
  0
LINE
  8
0
 10
-161.829346
 20
-87.612419
 11
-161.829346
 21
-91.612419
  0
LINE
  8
0
 10
-157.829346
 20
-87.969673
 11
-157.829346
 21
-91.612404
  0
LINE
  8
0
 10
-162.329330
 20
-102.712425
 11
-162.329330
 21
-111.212402
  0
LINE
  8
0
 10
-152.529327
 20
-101.212433
 11
-153.429321
 21
-101.212433
  0
LINE
  8
0
 10
-151.529327
 20
-150.512405
 11
-151.529327
 21
-90.912399
  0
LINE
  8
0
 10
-153.429352
 20
-101.212402
 11
-153.429352
 21
-102.712402
  0
LINE
  8
0
 10
-152.529327
 20
-112.212402
 11
-152.529327
 21
-100.212402
  0
LINE
  8
0
 10
-80.229309
 20
-129.212433
 11
-81.229309
 21
-129.212433
  0
LINE
  8
0
 10
-152.529327
 20
-112.212448
 11
-151.529327
 21
-112.212448
  0
LINE
  8
0
 10
-152.529327
 20
-100.212448
 11
-151.529327
 21
-100.212448
  0
LINE
  8
0
 10
-87.329346
 20
-124.212440
 11
-87.329346
 21
-117.212433
  0
LINE
  8
0
 62
     2
 10
-109.829315
 20
-123.404594
 11
-109.829315
 21
-118.014511
  0
LINE
  8
0
 10
-142.929321
 20
-124.212433
 11
-145.829315
 21
-124.212433
  0
LINE
  8
0
 10
-142.929321
 20
-117.212433
 11
-145.829315
 21
-117.212433
  0
LINE
  8
0
 10
-144.429321
 20
-132.712433
 11
-145.829315
 21
-132.712433
  0
LINE
  8
0
 62
     2
 10
-144.429321
 20
-133.212433
 11
-145.829315
 21
-133.212433
  0
LINE
  8
0
 62
     2
 10
-144.429291
 20
-137.212433
 11
-145.829315
 21
-137.212433
  0
LINE
  8
0
 10
-164.429306
 20
-132.712387
 11
-155.529297
 21
-132.712387
  0
LINE
  8
0
 62
     2
 10
-164.429306
 20
-133.312393
 11
-155.529297
 21
-133.312393
  0
LINE
  8
0
 10
-155.172028
 20
-137.521790
 11
-151.529297
 21
-137.521790
  0
LINE
  8
0
 10
-164.429306
 20
-137.712387
 11
-155.529266
 21
-137.712387
  0
LINE
  8
0
 62
     2
 10
-164.429276
 20
-137.112381
 11
-155.529266
 21
-137.112381
  0
LINE
  8
0
 10
-155.529327
 20
-131.212357
 11
-155.529327
 21
-138.156601
  0
LINE
  8
0
 10
-164.429306
 20
-132.712357
 11
-164.429306
 21
-137.712357
  0
LINE
  8
0
 10
-155.172028
 20
-130.593597
 11
-151.529327
 21
-130.593597
  0
LINE
  8
0
 10
-155.529816
 20
-131.212128
 11
-155.172546
 21
-130.593353
  0
LINE
  8
0
 10
-155.172028
 20
-132.902985
 11
-151.529327
 21
-132.902985
  0
LINE
  8
0
 10
-155.529327
 20
-139.212418
 11
-155.529327
 21
-132.268204
  0
LINE
  8
0
 10
-155.172028
 20
-139.831192
 11
-151.529297
 21
-139.831192
  0
LINE
  8
0
 10
-155.529602
 20
-139.212601
 11
-155.172348
 21
-139.831375
  0
LINE
  8
0
 10
-88.329346
 20
-108.712433
 11
-88.329346
 21
-103.712463
  0
LINE
  8
0
 10
-109.829315
 20
-137.212433
 11
-109.829315
 21
-104.212418
  0
LINE
  8
0
 10
-145.829346
 20
-150.712418
 11
-145.829346
 21
-90.712402
  0
LINE
  8
0
 10
-70.679321
 20
-140.812393
 11
-70.679321
 21
-141.712418
  0
LINE
  8
0
 10
-79.179321
 20
-140.812408
 11
-79.179321
 21
-141.712433
  0
LINE
  8
0
 10
-159.929321
 20
-102.712433
 11
-161.729309
 21
-102.712433
  0
LINE
  8
0
 10
-78.929321
 20
-127.712425
 11
-78.929321
 21
-100.212425
  0
LINE
  8
0
 10
-78.929306
 20
-127.712433
 11
-81.229309
 21
-127.712433
  0
LINE
  8
0
 10
6.020687
 20
-96.512436
 11
-145.829346
 21
-96.512436
  0
LINE
  8
0
 10
6.020666
 20
-144.912430
 11
-145.829346
 21
-144.912430
  0
LINE
  8
0
 10
-142.129333
 20
-137.212418
 11
-142.129333
 21
-104.212402
  0
LINE
  8
0
 10
-136.129333
 20
-137.212418
 11
-136.129333
 21
-104.212418
  0
LINE
  8
0
 10
-136.129333
 20
-117.712433
 11
-142.129333
 21
-117.712433
  0
LINE
  8
0
 10
-136.129333
 20
-123.712433
 11
-142.129333
 21
-123.712433
  0
LINE
  8
0
 10
-136.129303
 20
-136.712433
 11
-142.129303
 21
-136.712433
  0
LINE
  8
0
 10
-136.129333
 20
-104.712433
 11
-142.129333
 21
-104.712433
  0
LINE
  8
0
 10
-145.829285
 20
-150.512436
 11
-151.529297
 21
-150.512436
  0
LINE
  8
0
 10
-145.829315
 20
-90.912430
 11
-151.529327
 21
-90.912430
  0
LINE
  8
0
 10
-145.829285
 20
-143.912430
 11
-151.529297
 21
-143.912430
  0
LINE
  8
0
 10
-145.829315
 20
-97.512421
 11
-151.529327
 21
-97.512421
  0
LINE
  8
0
  6
CENTER
 62
     2
 10
222.076447
 20
-120.712448
 11
-155.275497
 21
-120.712448
  0
LINE
  8
0
 10
212.770676
 20
-108.962448
 11
212.770676
 21
-104.212479
  0
LINE
  8
0
 10
155.670685
 20
-124.212448
 11
178.170654
 21
-124.212448
  0
LINE
  8
0
 10
155.670685
 20
-117.212448
 11
178.170654
 21
-117.212448
  0
LINE
  8
0
 10
146.841370
 20
-87.512451
 11
139.699951
 21
-87.512451
  0
LINE
  8
0
 10
148.170670
 20
-76.412430
 11
148.170670
 21
-77.012436
  0
LINE
  8
0
 10
138.370667
 20
-76.412415
 11
138.370667
 21
-85.412415
  0
LINE
  8
0
 10
138.370697
 20
-85.412445
 11
148.170685
 21
-85.412445
  0
LINE
  8
0
 10
138.370697
 20
-76.412445
 11
148.170685
 21
-76.412445
  0
LINE
  8
0
 10
143.270691
 20
-79.712448
 11
150.770691
 21
-79.712448
  0
LINE
  8
0
 10
143.270691
 20
-81.112442
 11
150.770691
 21
-81.112442
  0
LINE
  8
0
 10
148.170563
 20
-77.012367
 11
146.870575
 21
-79.712341
  0
LINE
  8
0
 10
148.170731
 20
-83.812431
 11
146.870728
 21
-81.112404
  0
LINE
  8
0
 10
148.170670
 20
-83.812424
 11
148.170670
 21
-85.412430
  0
LINE
  8
0
 10
150.770691
 20
-75.512451
 11
155.070679
 21
-75.512451
  0
LINE
  8
0
 10
157.970642
 20
-75.412445
 11
157.970642
 21
-85.412445
  0
LINE
  8
0
 10
156.370636
 20
-75.412445
 11
156.370636
 21
-85.412445
  0
LINE
  8
0
 10
148.170685
 20
-77.012451
 11
149.270691
 21
-77.012451
  0
LINE
  8
0
 10
150.770660
 20
-75.512436
 11
150.770660
 21
-85.312424
  0
LINE
  8
0
 10
149.270660
 20
-77.012436
 11
149.270660
 21
-79.712418
  0
LINE
  8
0
 10
155.070648
 20
-75.512436
 11
155.070648
 21
-85.312424
  0
LINE
  8
0
 10
156.370667
 20
-75.412445
 11
157.970673
 21
-75.412445
  0
LINE
  8
0
 10
156.370667
 20
-85.412445
 11
157.970673
 21
-85.412445
  0
LINE
  8
0
 10
150.770691
 20
-85.312454
 11
155.070679
 21
-85.312454
  0
LINE
  8
0
 10
148.170685
 20
-83.812454
 11
149.270691
 21
-83.812454
  0
LINE
  8
0
 10
155.070679
 20
-77.162445
 11
156.370667
 21
-77.162445
  0
LINE
  8
0
 10
155.070679
 20
-83.662445
 11
156.370667
 21
-83.662445
  0
LINE
  8
0
 10
149.270660
 20
-81.112427
 11
149.270660
 21
-83.812424
  0
LINE
  8
0
 10
150.770554
 20
-75.512390
 11
149.270569
 21
-77.012375
  0
LINE
  8
0
 10
150.770691
 20
-85.312401
 11
149.270691
 21
-83.812408
  0
LINE
  8
0
 10
139.370667
 20
-86.912445
 11
147.170654
 21
-86.912445
  0
LINE
  8
0
 10
139.020660
 20
-87.512451
 11
147.520660
 21
-87.512451
  0
LINE
  8
0
 10
146.520660
 20
-85.412422
 11
146.520660
 21
-86.912422
  0
LINE
  8
0
 10
140.020660
 20
-85.412422
 11
140.020660
 21
-86.912422
  0
LINE
  8
0
 10
147.170654
 20
-86.912422
 11
147.170654
 21
-87.512428
  0
LINE
  8
0
 10
139.370667
 20
-86.912422
 11
139.370667
 21
-87.512428
  0
LINE
  8
0
 10
-160.329346
 20
-75.112427
 11
-155.329346
 21
-75.112427
  0
LINE
  8
0
 10
-155.329346
 20
-75.112396
 11
-155.329346
 21
-79.112396
  0
LINE
  8
0
 10
-160.329346
 20
-75.112396
 11
-160.329346
 21
-79.112396
  0
LINE
  8
0
 10
-160.329346
 20
-79.112427
 11
-155.329346
 21
-79.112427
  0
LINE
  8
0
 10
139.806580
 20
-72.412445
 11
146.734802
 21
-72.412445
  0
LINE
  8
0
 10
-161.829346
 20
-86.812439
 11
-153.829330
 21
-86.812439
  0
LINE
  8
0
 10
-161.829346
 20
-84.312439
 11
-153.829330
 21
-84.312439
  0
LINE
  8
0
 10
-153.829330
 20
-84.312408
 11
-153.829330
 21
-86.812408
  0
LINE
  8
0
 10
-161.829346
 20
-84.312408
 11
-161.829346
 21
-86.812408
  0
LINE
  8
0
 10
147.889481
 20
-72.769699
 11
147.889481
 21
-76.412430
  0
LINE
  8
0
 10
145.580048
 20
-72.769691
 11
145.580048
 21
-76.412422
  0
LINE
  8
0
 10
140.961243
 20
-72.769691
 11
140.961243
 21
-76.412422
  0
LINE
  8
0
 10
138.651855
 20
-72.769684
 11
138.651855
 21
-76.412415
  0
LINE
  8
0
 10
145.770660
 20
-71.612434
 11
145.770660
 21
-72.412422
  0
LINE
  8
0
 10
140.770660
 20
-71.612434
 11
140.770660
 21
-72.412422
  0
LINE
  8
0
 10
-159.329346
 20
-79.112358
 11
-159.329346
 21
-84.312370
  0
LINE
  8
0
 10
-156.329346
 20
-79.112358
 11
-156.329346
 21
-84.312370
  0
LINE
  8
0
 62
     2
 10
-156.599854
 20
-79.112358
 11
-156.599854
 21
-84.312370
  0
LINE
  8
0
 62
     2
 10
-159.058838
 20
-79.112358
 11
-159.058838
 21
-84.312370
  0
LINE
  8
0
 10
138.770660
 20
-104.212456
 11
138.770660
 21
-110.212456
  0
LINE
  8
0
 10
148.470673
 20
-111.212463
 11
138.770660
 21
-111.212463
  0
LINE
  8
0
 10
138.770660
 20
-102.712456
 11
138.770660
 21
-111.212479
  0
LINE
  8
0
 10
155.270660
 20
-100.212448
 11
155.270660
 21
-141.212448
  0
LINE
  8
0
 10
155.670654
 20
-111.712463
 11
157.170654
 21
-111.712463
  0
LINE
  8
0
 10
157.170654
 20
-111.712448
 11
157.170654
 21
-100.712448
  0
LINE
  8
0
 10
155.670654
 20
-111.712448
 11
155.670654
 21
-100.712418
  0
LINE
  8
0
 10
149.570679
 20
-113.712448
 11
149.570679
 21
-100.212448
  0
LINE
  8
0
 10
211.270676
 20
-104.212479
 11
211.270676
 21
-137.212479
  0
LINE
  8
0
 10
157.170654
 20
-109.212463
 11
178.170685
 21
-109.212463
  0
LINE
  8
0
 10
155.270660
 20
-111.212463
 11
155.670654
 21
-111.212463
  0
LINE
  8
0
 10
156.670670
 20
-132.712448
 11
155.270660
 21
-132.712448
  0
LINE
  8
0
 62
     2
 10
156.670670
 20
-133.212448
 11
155.270660
 21
-133.212448
  0
LINE
  8
0
 10
143.270706
 20
-131.212372
 11
143.270706
 21
-137.212463
  0
LINE
  8
0
 10
143.627945
 20
-130.593613
 11
147.270660
 21
-130.593613
  0
LINE
  8
0
 10
143.270737
 20
-131.212433
 11
143.627991
 21
-130.593643
  0
LINE
  8
0
 10
143.627945
 20
-132.903000
 11
147.270660
 21
-132.903000
  0
LINE
  8
0
 10
143.270706
 20
-139.212799
 11
143.270706
 21
-132.268219
  0
LINE
  8
0
 10
211.270691
 20
-108.962433
 11
212.770645
 21
-108.962433
  0
LINE
  8
0
 10
176.670700
 20
-132.462448
 11
176.670700
 21
-137.212448
  0
LINE
  8
0
 10
178.170654
 20
-132.462463
 11
176.670685
 21
-132.462463
  0
LINE
  8
0
 10
230.670685
 20
-138.712433
 11
230.670685
 21
-130.212479
  0
LINE
  8
0
 10
220.870682
 20
-130.212448
 11
230.670685
 21
-130.212448
  0
LINE
  8
0
 10
221.770691
 20
-138.712448
 11
230.670685
 21
-138.712448
  0
LINE
  8
0
 10
222.270691
 20
-138.712448
 11
224.070679
 21
-138.712448
  0
LINE
  8
0
 10
228.670685
 20
-166.312454
 11
223.670685
 21
-166.312454
  0
LINE
  8
0
 10
223.670685
 20
-166.312485
 11
223.670685
 21
-162.312485
  0
LINE
  8
0
 10
228.670685
 20
-166.312485
 11
228.670685
 21
-162.312485
  0
LINE
  8
0
 10
228.670685
 20
-162.312454
 11
223.670685
 21
-162.312454
  0
LINE
  8
0
 10
230.070679
 20
-139.312454
 11
222.270691
 21
-139.312454
  0
LINE
  8
0
 10
230.170654
 20
-153.812454
 11
222.170670
 21
-153.812454
  0
LINE
  8
0
 10
230.170685
 20
-154.612442
 11
222.170685
 21
-154.612442
  0
LINE
  8
0
 10
230.170685
 20
-157.112442
 11
222.170685
 21
-157.112442
  0
LINE
  8
0
 10
222.170685
 20
-157.112473
 11
222.170685
 21
-154.612473
  0
LINE
  8
0
 10
230.170685
 20
-157.112473
 11
230.170685
 21
-154.612473
  0
LINE
  8
0
 10
223.670685
 20
-154.612427
 11
223.670685
 21
-153.812439
  0
LINE
  8
0
 10
228.670685
 20
-154.612427
 11
228.670685
 21
-153.812439
  0
LINE
  8
0
 10
227.670685
 20
-162.312439
 11
227.670685
 21
-157.112427
  0
LINE
  8
0
 10
224.670685
 20
-162.312439
 11
224.670685
 21
-157.112427
  0
LINE
  8
0
 62
     2
 10
224.941193
 20
-162.312439
 11
224.941193
 21
-157.112427
  0
LINE
  8
0
 62
     2
 10
227.400177
 20
-162.312439
 11
227.400177
 21
-157.112427
  0
LINE
  8
0
 10
222.920685
 20
-140.812439
 11
222.920685
 21
-139.312439
  0
LINE
  8
0
 10
229.420685
 20
-140.812439
 11
229.420685
 21
-139.312439
  0
LINE
  8
0
 10
222.270691
 20
-139.312439
 11
222.270691
 21
-138.712433
  0
LINE
  8
0
 10
230.070679
 20
-139.312439
 11
230.070679
 21
-138.712433
  0
LINE
  8
0
 10
231.070648
 20
-149.812454
 11
221.270676
 21
-149.812454
  0
LINE
  8
0
 10
231.070679
 20
-140.812454
 11
221.270691
 21
-140.812454
  0
LINE
  8
0
 10
222.170685
 20
-153.812439
 11
222.170685
 21
-149.812439
  0
LINE
  8
0
 10
230.170685
 20
-153.812439
 11
230.170685
 21
-149.812439
  0
LINE
  8
0
 10
226.170685
 20
-153.455170
 11
226.170685
 21
-149.812439
  0
LINE
  8
0
 10
221.270676
 20
-149.812439
 11
221.270676
 21
-140.812439
  0
LINE
  8
0
 10
231.070679
 20
-149.812439
 11
231.070679
 21
-140.812439
  0
LINE
  8
0
 10
220.870682
 20
-140.212448
 11
221.770691
 21
-140.212448
  0
LINE
  8
0
 10
219.870682
 20
-90.912460
 11
219.870682
 21
-150.512451
  0
LINE
  8
0
 10
221.770676
 20
-140.212433
 11
221.770676
 21
-138.712433
  0
LINE
  8
0
 10
220.870682
 20
-129.212448
 11
220.870682
 21
-141.212433
  0
LINE
  8
0
 10
148.570679
 20
-112.212448
 11
149.570679
 21
-112.212448
  0
LINE
  8
0
 10
220.870667
 20
-129.212433
 11
219.870667
 21
-129.212433
  0
LINE
  8
0
 10
220.870697
 20
-141.212433
 11
219.870697
 21
-141.212433
  0
LINE
  8
0
 10
155.670685
 20
-117.212448
 11
155.670685
 21
-124.212440
  0
LINE
  8
0
 62
     2
 10
178.170654
 20
-118.020294
 11
178.170654
 21
-123.410362
  0
LINE
  8
0
 10
211.270691
 20
-117.212448
 11
214.170670
 21
-117.212448
  0
LINE
  8
0
 10
211.270691
 20
-124.212448
 11
214.170670
 21
-124.212448
  0
LINE
  8
0
 10
212.770645
 20
-108.712448
 11
214.170670
 21
-108.712448
  0
LINE
  8
0
 62
     2
 10
212.770645
 20
-108.212448
 11
214.170670
 21
-108.212448
  0
LINE
  8
0
 62
     2
 10
212.770645
 20
-104.212448
 11
214.170670
 21
-104.212448
  0
LINE
  8
0
 10
156.670685
 20
-132.712433
 11
156.670685
 21
-137.712402
  0
LINE
  8
0
 10
178.170654
 20
-104.212463
 11
178.170654
 21
-137.212448
  0
LINE
  8
0
 10
214.170670
 20
-90.712479
 11
214.170670
 21
-150.712463
  0
LINE
  8
0
 10
139.020660
 20
-100.612465
 11
139.020660
 21
-99.712456
  0
LINE
  8
0
 10
147.520660
 20
-100.612442
 11
147.520660
 21
-99.712448
  0
LINE
  8
0
 10
228.270691
 20
-138.712448
 11
230.070679
 21
-138.712448
  0
LINE
  8
0
 10
147.270660
 20
-113.712456
 11
147.270660
 21
-141.212463
  0
LINE
  8
0
 10
147.270660
 20
-113.712448
 11
149.570679
 21
-113.712448
  0
LINE
  8
0
 10
-145.829315
 20
-137.212448
 11
-88.929321
 21
-137.212448
  0
LINE
  8
0
 10
-145.829346
 20
-104.212448
 11
-88.329346
 21
-104.212448
  0
LINE
  8
0
 10
-145.829315
 20
-141.512451
 11
-88.801086
 21
-141.512451
  0
LINE
  8
0
 10
-145.829346
 20
-99.912445
 11
-88.801102
 21
-99.912445
  0
LINE
  8
0
 10
12.320669
 20
-144.912445
 11
56.020695
 21
-144.912445
  0
LINE
  8
0
 10
12.320686
 20
-96.512451
 11
56.020695
 21
-96.512451
  0
LINE
  8
0
 10
62.320698
 20
-144.912445
 11
214.170654
 21
-144.912445
  0
LINE
  8
0
 10
62.320683
 20
-96.512451
 11
214.170670
 21
-96.512451
  0
LINE
  8
0
 10
210.470688
 20
-104.212479
 11
210.470688
 21
-137.212479
  0
LINE
  8
0
 10
204.470688
 20
-104.212463
 11
204.470688
 21
-137.212463
  0
LINE
  8
0
 10
204.470673
 20
-123.712448
 11
210.470673
 21
-123.712448
  0
LINE
  8
0
 10
204.470673
 20
-117.712448
 11
210.470673
 21
-117.712448
  0
LINE
  8
0
 10
204.470673
 20
-104.712448
 11
210.470673
 21
-104.712448
  0
LINE
  8
0
 10
204.470688
 20
-136.712448
 11
210.470688
 21
-136.712448
  0
LINE
  8
0
 10
214.170654
 20
-90.912445
 11
219.870667
 21
-90.912445
  0
LINE
  8
0
 10
214.170670
 20
-150.512451
 11
219.870682
 21
-150.512451
  0
LINE
  8
0
 10
214.170639
 20
-97.512436
 11
219.870667
 21
-97.512436
  0
LINE
  8
0
 10
214.170670
 20
-143.912445
 11
219.870682
 21
-143.912445
  0
LINE
  8
0
 10
-162.729324
 20
-91.612396
 11
-162.729324
 21
-100.612419
  0
LINE
  8
0
 10
-152.929352
 20
-91.612396
 11
-152.929352
 21
-100.612396
  0
LINE
  8
0
 10
-89.929321
 20
-139.712433
 11
-89.929321
 21
-137.212433
  0
LINE
  8
0
 10
158.270660
 20
-101.712448
 11
158.270660
 21
-104.212448
  0
LINE
  8
0
 10
158.270660
 20
-137.212433
 11
158.270660
 21
-139.712448
  0
LINE
  8
0
 10
-89.929321
 20
-104.212433
 11
-89.929321
 21
-101.712433
  0
LINE
  8
0
 10
157.270660
 20
-104.212448
 11
214.170670
 21
-104.212448
  0
LINE
  8
0
 10
156.670685
 20
-137.212448
 11
214.170685
 21
-137.212448
  0
LINE
  8
0
 10
157.142426
 20
-141.512451
 11
214.170685
 21
-141.512451
  0
LINE
  8
0
 10
157.142471
 20
-99.912445
 11
214.170670
 21
-99.912445
  0
LINE
  8
0
 10
-87.929321
 20
-99.712448
 11
156.270660
 21
-99.712448
  0
LINE
  8
0
 10
-87.929321
 20
-141.712448
 11
156.270660
 21
-141.712448
  0
LINE
  8
0
 10
-86.929321
 20
-100.212448
 11
-78.929321
 21
-100.212448
  0
LINE
  8
0
 10
-86.929321
 20
-141.212448
 11
-81.229309
 21
-141.212448
  0
LINE
  8
0
 10
149.570679
 20
-100.212448
 11
155.270660
 21
-100.212448
  0
LINE
  8
0
 10
147.270660
 20
-141.212448
 11
155.270660
 21
-141.212448
  0
LINE
  8
0
 10
-88.329315
 20
-103.712463
 11
-86.929321
 21
-103.712463
  0
LINE
  8
0
 62
     2
 10
-88.329315
 20
-104.212463
 11
-86.929321
 21
-104.212463
  0
LINE
  8
0
 10
-58.329330
 20
-103.712433
 11
-74.929337
 21
-103.712433
  0
LINE
  8
0
 62
     2
 10
-58.329330
 20
-104.312439
 11
-74.929352
 21
-104.312439
  0
LINE
  8
0
 10
155.670654
 20
-100.712433
 11
157.170654
 21
-100.712433
  0
LINE
  8
0
 10
155.270660
 20
-101.212433
 11
155.670654
 21
-101.212433
  0
LINE
  8
0
 10
148.570679
 20
-100.212448
 11
149.570679
 21
-100.212448
  0
LINE
  8
0
 10
-87.329285
 20
-140.712448
 11
-88.829315
 21
-140.712448
  0
LINE
  8
0
 10
-86.929291
 20
-140.212448
 11
-87.329285
 21
-140.212448
  0
LINE
  8
0
 10
-80.229309
 20
-141.212433
 11
-81.229309
 21
-141.212433
  0
LINE
  8
0
 10
143.270477
 20
-139.212585
 11
143.627731
 21
-139.831360
  0
LINE
  8
0
 10
143.627960
 20
-137.521866
 11
147.270676
 21
-137.521866
  0
LINE
  8
0
 10
143.627960
 20
-139.831253
 11
147.270676
 21
-139.831253
  0
LINE
  8
0
 10
156.670685
 20
-137.712418
 11
155.270660
 21
-137.712418
  0
LINE
  8
0
 62
     2
 10
156.670685
 20
-137.212418
 11
155.270660
 21
-137.212418
  0
LINE
  8
0
 10
138.770660
 20
-102.712463
 11
148.470673
 21
-102.712463
  0
LINE
  8
0
 10
139.020660
 20
-100.612473
 11
147.520660
 21
-100.612473
  0
LINE
  8
0
 10
139.270660
 20
-102.712456
 11
139.270660
 21
-100.612465
  0
LINE
  8
0
 10
147.270660
 20
-102.712456
 11
147.270660
 21
-100.612450
  0
LINE
  8
0
 10
139.020676
 20
-90.712448
 11
139.020676
 21
-87.512405
  0
LINE
  8
0
 10
147.520676
 20
-90.712456
 11
147.520676
 21
-87.512413
  0
LINE
  8
0
 10
-70.429321
 20
-138.712418
 11
-80.129303
 21
-138.712418
  0
LINE
  8
0
 10
-70.679321
 20
-140.812408
 11
-79.179321
 21
-140.812408
  0
LINE
  8
0
 10
-70.929321
 20
-138.712387
 11
-70.929321
 21
-140.812393
  0
LINE
  8
0
 10
-78.929321
 20
-138.712387
 11
-78.929321
 21
-140.812393
  0
LINE
  8
0
 10
-70.679321
 20
-150.712433
 11
-70.679321
 21
-153.912476
  0
LINE
  8
0
 10
-79.179321
 20
-150.712418
 11
-79.179321
 21
-153.912460
  0
LINE
  8
0
 10
-74.929352
 20
-110.212517
 11
-74.929352
 21
-104.212425
  0
LINE
  8
0
 10
-75.286591
 20
-110.831268
 11
-78.929321
 21
-110.831268
  0
LINE
  8
0
 10
-74.929420
 20
-110.212502
 11
-75.286667
 21
-110.831253
  0
LINE
  8
0
 10
-75.286591
 20
-108.521866
 11
-78.929321
 21
-108.521866
  0
LINE
  8
0
 10
-74.929352
 20
-102.212059
 11
-74.929352
 21
-109.156670
  0
LINE
  8
0
 10
-75.286591
 20
-101.593628
 11
-78.929321
 21
-101.593628
  0
LINE
  8
0
 10
-75.286591
 20
-103.903030
 11
-78.929321
 21
-103.903030
  0
LINE
  8
0
 10
-74.929291
 20
-102.212288
 11
-75.286545
 21
-101.593506
  0
LINE
  8
0
 10
-58.329330
 20
-108.712463
 11
-58.329330
 21
-103.712433
  0
LINE
  8
0
 10
232.770660
 20
-108.712479
 11
223.870636
 21
-108.712479
  0
LINE
  8
0
 62
     2
 10
232.770660
 20
-108.112473
 11
223.870636
 21
-108.112473
  0
LINE
  8
0
 10
223.513397
 20
-103.903091
 11
219.870667
 21
-103.903091
  0
LINE
  8
0
 10
232.770660
 20
-103.712479
 11
223.870636
 21
-103.712479
  0
LINE
  8
0
 62
     2
 10
232.770660
 20
-104.312485
 11
223.870636
 21
-104.312485
  0
LINE
  8
0
 10
223.870667
 20
-110.212502
 11
223.870667
 21
-103.268288
  0
LINE
  8
0
 10
232.770660
 20
-108.712509
 11
232.770660
 21
-103.712509
  0
LINE
  8
0
 10
223.513397
 20
-110.831284
 11
219.870667
 21
-110.831284
  0
LINE
  8
0
 10
223.870972
 20
-110.212692
 11
223.513718
 21
-110.831474
  0
LINE
  8
0
 10
223.513397
 20
-108.521896
 11
219.870667
 21
-108.521896
  0
LINE
  8
0
 10
223.870667
 20
-102.212440
 11
223.870667
 21
-109.156685
  0
LINE
  8
0
 10
223.513397
 20
-101.593689
 11
219.870667
 21
-101.593689
  0
LINE
  8
0
 10
223.870712
 20
-102.212471
 11
223.513458
 21
-101.593689
  0
LINE
  8
0
 10
-145.829346
 20
-90.712448
 11
214.170670
 21
-90.712448
  0
LINE
  8
0
 10
-145.829346
 20
-150.712448
 11
214.170654
 21
-150.712448
  0
LINE
  8
0
 10
-81.229340
 20
-128.211945
 11
-86.929352
 21
-128.211945
  0
LINE
  8
0
 10
-78.929352
 20
-109.711945
 11
-86.929352
 21
-109.711945
  0
LINE
  8
0
 10
149.570663
 20
-113.212936
 11
155.270645
 21
-113.212936
  0
LINE
  8
0
 10
147.270630
 20
-131.712936
 11
155.270645
 21
-131.712936
  0
LINE
  8
0
 10
126.670685
 20
-137.712448
 11
143.270706
 21
-137.712448
  0
LINE
  8
0
 62
     2
 10
126.670685
 20
-137.112442
 11
143.270721
 21
-137.112442
  0
LINE
  8
0
 62
     2
 10
126.670685
 20
-133.312424
 11
143.270691
 21
-133.312424
  0
LINE
  8
0
 10
126.670685
 20
-132.712418
 11
143.270691
 21
-132.712418
  0
LINE
  8
0
 10
126.670685
 20
-132.712433
 11
126.670685
 21
-137.712463
  0
LINE
  8
0
 10
-80.229309
 20
-129.212448
 11
-80.229309
 21
-141.212448
  0
LINE
  8
0
 10
148.570679
 20
-112.212448
 11
148.570679
 21
-100.212448
  0
LINE
  8
0
 62
     2
 10
144.500153
 20
-63.912422
 11
144.500153
 21
-69.112434
  0
LINE
  8
0
 62
     2
 10
142.041168
 20
-63.912422
 11
142.041168
 21
-69.112434
  0
LINE
  8
0
 10
140.770660
 20
-59.912445
 11
145.770660
 21
-59.912445
  0
LINE
  8
0
 10
145.770660
 20
-59.912460
 11
145.770660
 21
-63.912460
  0
LINE
  8
0
 10
140.770660
 20
-59.912460
 11
140.770660
 21
-63.912460
  0
LINE
  8
0
 10
140.770660
 20
-63.912445
 11
145.770660
 21
-63.912445
  0
LINE
  8
0
 10
139.270660
 20
-71.612457
 11
147.270691
 21
-71.612457
  0
LINE
  8
0
 10
139.270660
 20
-69.112457
 11
147.270691
 21
-69.112457
  0
LINE
  8
0
 10
147.270676
 20
-69.112473
 11
147.270676
 21
-71.612473
  0
LINE
  8
0
 10
139.270660
 20
-69.112473
 11
139.270660
 21
-71.612473
  0
LINE
  8
0
 10
141.770660
 20
-63.912422
 11
141.770660
 21
-69.112434
  0
LINE
  8
0
 10
144.770660
 20
-63.912422
 11
144.770660
 21
-69.112434
  0
LINE
  8
0
  6
CENTER
 62
     2
 10
-133.114578
 20
-110.712448
 11
-144.980362
 21
-110.712448
  0
LINE
  8
0
  6
CENTER
 62
     2
 10
14.170689
 20
-95.712440
 11
4.170689
 21
-95.712440
  0
LINE
  8
0
  6
CENTER
 62
     2
 10
9.170685
 20
-100.712433
 11
9.170685
 21
-90.712433
  0
LINE
  8
0
  6
CENTER
 62
     2
 10
9.170685
 20
-140.712448
 11
9.170685
 21
-150.712448
  0
LINE
  8
0
  6
CENTER
 62
     2
 10
14.170681
 20
-145.712463
 11
4.170681
 21
-145.712463
  0
LINE
  8
0
  6
CENTER
 62
     2
 10
-133.114578
 20
-130.712448
 11
-144.980362
 21
-130.712448
  0
LINE
  8
0
  6
CENTER
 62
     2
 10
201.455948
 20
-130.712448
 11
213.321732
 21
-130.712448
  0
LINE
  8
0
  6
CENTER
 62
     2
 10
201.455948
 20
-110.712448
 11
213.321732
 21
-110.712448
  0
LINE
  8
0
  6
CENTER
 62
     2
 10
59.170685
 20
-140.712463
 11
59.170685
 21
-150.712463
  0
LINE
  8
0
  6
CENTER
 62
     2
 10
54.170681
 20
-145.712463
 11
64.170685
 21
-145.712463
  0
LINE
  8
0
  6
CENTER
 62
     2
 10
59.170685
 20
-100.712448
 11
59.170685
 21
-90.712448
  0
LINE
  8
0
  6
CENTER
 62
     2
 10
54.170689
 20
-95.712440
 11
64.170685
 21
-95.712440
  0
ARC
  8
0
 10
139.806549
 20
48.032166
 40
2.044652
 50
235.615860
 51
304.384552
  0
ARC
  8
0
 10
146.734772
 20
48.032166
 40
2.044660
 50
235.615509
 51
304.384491
  0
CIRCLE
  8
0
 10
34.170658
 20
69.287552
 40
3.000000
  0
ARC
  8
0
 10
34.170666
 20
118.287552
 40
3.000000
 50
180.000000
 51
0.000000
  0
ARC
  8
0
 10
221.826096
 20
76.323410
 40
2.044655
 50
325.615936
 51
34.384079
  0
ARC
  8
0
 10
216.228012
 20
79.787491
 40
7.642709
 50
342.412079
 51
17.587961
  0
ARC
  8
0
 10
221.826065
 20
83.251633
 40
2.044655
 50
325.615936
 51
34.384079
  0
ARC
  8
0
 10
216.228012
 20
79.787582
 40
7.642721
 50
342.412170
 51
17.588015
  0
ARC
  8
0
 10
224.170731
 20
121.610855
 40
5.776707
 50
69.743835
 51
110.256142
  0
ARC
  8
0
 10
228.170731
 20
121.610855
 40
5.776714
 50
69.743858
 51
110.256165
  0
CIRCLE
  8
0
 10
226.170715
 20
119.387527
 40
2.000000
  0
CIRCLE
  8
0
 10
226.170715
 20
119.387527
 40
5.000000
  0
ARC
  8
0
 10
-74.929268
 20
134.944855
 40
7.642728
 50
72.412018
 51
107.587982
  0
ARC
  8
0
 10
-78.393364
 20
140.542938
 40
2.044659
 50
55.615746
 51
124.384254
  0
ARC
  8
0
 10
-71.465157
 20
140.542938
 40
2.044659
 50
55.615746
 51
124.384254
  0
ARC
  8
0
 10
-153.484680
 20
112.251694
 40
2.044655
 50
145.615921
 51
214.384079
  0
ARC
  8
0
 10
-147.886597
 20
108.787613
 40
7.642711
 50
162.412033
 51
197.587967
  0
ARC
  8
0
 10
-153.484650
 20
105.323471
 40
2.044655
 50
145.615921
 51
214.384079
  0
ARC
  8
0
 10
-147.886597
 20
108.787521
 40
7.642709
 50
162.412094
 51
197.587967
  0
CIRCLE
  8
0
 62
     2
 10
59.170719
 20
119.287552
 40
2.000000
  0
CIRCLE
  8
0
 10
59.170719
 20
119.287552
 40
1.500000
  0
CIRCLE
  8
0
 62
     2
 10
59.170712
 20
69.287582
 40
2.000000
  0
CIRCLE
  8
0
 10
59.170712
 20
69.287582
 40
1.500000
  0
ARC
  8
0
 10
-155.829346
 20
66.964218
 40
5.776711
 50
249.743851
 51
290.256165
  0
ARC
  8
0
 10
-159.829346
 20
66.964218
 40
5.776711
 50
249.743851
 51
290.256165
  0
CIRCLE
  8
0
 10
-157.829315
 20
69.187576
 40
2.000000
  0
CIRCLE
  8
0
 10
-157.829315
 20
69.187576
 40
5.000000
  0
ARC
  8
0
 10
151.770660
 20
49.087521
 40
0.499994
 50
156.421890
 51
180.000000
  0
ARC
  8
0
 10
143.270660
 20
53.630249
 40
7.642724
 50
252.412018
 51
287.587982
  0
CIRCLE
  8
0
 10
9.170650
 20
69.287582
 40
1.500000
  0
CIRCLE
  8
0
 62
     2
 10
9.170650
 20
69.287582
 40
2.000000
  0
CIRCLE
  8
0
 10
9.170658
 20
119.287552
 40
1.500000
  0
CIRCLE
  8
0
 62
     2
 10
9.170658
 20
119.287552
 40
2.000000
  0
CIRCLE
  8
0
 10
-222.566788
 20
108.787552
 40
4.000000
  0
CIRCLE
  8
0
 62
     2
 10
-233.566788
 20
104.287552
 40
2.000000
  0
CIRCLE
  8
0
 10
-233.566788
 20
104.287552
 40
1.500000
  0
ARC
  8
0
 10
-222.566772
 20
79.787521
 40
4.999997
 50
315.572968
 51
224.427109
  0
ARC
  8
0
 10
-230.189285
 20
114.787552
 40
0.500000
 50
90.000000
 51
150.000076
  0
ARC
  8
0
 10
-233.866791
 20
120.287552
 40
4.000000
 50
90.000000
 51
157.668365
  0
CIRCLE
  8
0
 62
     2
 10
-233.566788
 20
84.287521
 40
2.000000
  0
CIRCLE
  8
0
 10
-233.566788
 20
84.287521
 40
1.500000
  0
ARC
  8
0
 10
-230.189255
 20
73.787521
 40
0.500001
 50
209.999924
 51
270.000000
  0
ARC
  8
0
 10
-233.866776
 20
68.287521
 40
4.000000
 50
202.331741
 51
270.000000
  0
ARC
  8
0
 10
-233.364685
 20
77.287521
 40
0.500001
 50
29.999931
 51
90.000000
  0
ARC
  8
0
 10
-233.364700
 20
111.287552
 40
0.500000
 50
270.000000
 51
330.000061
  0
ARC
  8
0
 10
-220.566772
 20
51.764267
 40
5.776707
 50
249.743835
 51
290.256165
  0
ARC
  8
0
 10
-224.566772
 20
51.764267
 40
5.776711
 50
249.743851
 51
290.256165
  0
ARC
  8
0
 10
-222.566757
 20
68.830246
 40
7.642724
 50
252.412018
 51
287.587982
  0
ARC
  8
0
 10
-219.102646
 20
63.232162
 40
2.044652
 50
235.615860
 51
304.384125
  0
ARC
  8
0
 10
-226.030869
 20
63.232162
 40
2.044652
 50
235.615860
 51
304.384491
  0
ARC
  8
0
 10
-220.566772
 20
136.810806
 40
5.776714
 50
69.743858
 51
110.256142
  0
ARC
  8
0
 10
-224.566772
 20
136.810806
 40
5.776714
 50
69.743858
 51
110.256142
  0
CIRCLE
  8
0
 10
-228.081940
 20
78.309738
 40
0.400000
  0
ARC
  8
0
 10
-228.081940
 20
78.309738
 40
0.999998
 50
95.000153
 51
289.038483
  0
ARC
  8
0
 10
-222.266769
 20
79.787521
 40
5.999996
 50
203.818970
 51
233.724731
  0
ARC
  8
0
 10
-222.266769
 20
79.787521
 40
6.000006
 50
299.450287
 51
156.181091
  0
ARC
  8
0
 10
-228.081940
 20
81.265305
 40
0.999997
 50
70.961510
 51
260.521790
  0
CIRCLE
  8
0
 10
-228.081940
 20
81.265305
 40
0.400000
  0
CIRCLE
  8
0
 10
-222.566788
 20
108.787552
 40
2.500000
  0
CIRCLE
  8
0
 62
     2
 10
-222.566788
 20
108.787552
 40
1.800000
  0
CIRCLE
  8
0
 10
-222.566803
 20
134.087540
 40
2.000000
  0
CIRCLE
  8
0
 10
-222.566803
 20
134.087540
 40
5.000000
  0
ARC
  8
0
 62
     4
 10
-230.116806
 20
65.287491
 40
0.300003
 50
0.000000
 51
90.000000
  0
ARC
  8
0
 62
     4
 10
-228.216843
 20
65.315384
 40
1.827885
 50
196.785873
 51
260.553528
  0
ARC
  8
0
 62
     4
 10
-226.716843
 20
68.787491
 40
1.499998
 50
119.996681
 51
240.003326
  0
ARC
  8
0
 62
     4
 10
-228.216843
 20
65.315384
 40
1.827884
 50
279.446472
 51
304.345734
  0
CIRCLE
  8
0
 10
-157.829315
 20
-13.212399
 40
4.000000
  0
CIRCLE
  8
0
 62
     4
 10
-95.782532
 20
-18.862415
 40
1.750000
  0
CIRCLE
  8
0
 10
143.270752
 20
-13.212428
 40
4.900000
  0
CIRCLE
  8
0
 10
143.270752
 20
-13.212428
 40
4.000000
  0
ARC
  8
0
 10
218.094025
 20
-15.212451
 40
5.776652
 50
339.743774
 51
20.256411
  0
ARC
  8
0
 10
218.094025
 20
-11.212451
 40
5.776652
 50
339.743774
 51
20.256411
  0
CIRCLE
  8
0
 10
-157.829315
 20
-13.212399
 40
2.500000
  0
CIRCLE
  8
0
 10
-157.829315
 20
-13.212399
 40
4.900000
  0
CIRCLE
  8
0
 10
143.270752
 20
-13.212428
 40
2.500000
  0
ARC
  8
0
 10
221.825974
 20
-102.748367
 40
2.044655
 50
325.615936
 51
34.384079
  0
ARC
  8
0
 10
216.227921
 20
-106.212448
 40
7.642721
 50
342.412170
 51
17.588015
  0
ARC
  8
0
 10
-83.429390
 20
-165.912430
 40
0.500000
 50
0.000000
 51
23.577766
  0
ARC
  8
0
 10
-74.929405
 20
-161.369705
 40
7.642723
 50
252.412125
 51
287.588165
  0
ARC
  8
0
 10
-78.393517
 20
-166.967773
 40
2.044655
 50
235.615921
 51
304.384247
  0
ARC
  8
0
 10
-71.465294
 20
-166.967773
 40
2.044659
 50
235.615753
 51
304.384247
  0
ARC
  8
0
 62
     2
 10
-69.929405
 20
-164.884537
 40
1.827881
 50
257.962677
 51
260.553802
  0
ARC
  8
0
 10
-159.829315
 20
-93.389130
 40
5.776714
 50
69.743858
 51
110.256165
  0
ARC
  8
0
 10
-155.829315
 20
-93.389130
 40
5.776714
 50
69.743858
 51
110.256310
  0
ARC
  8
0
 10
-147.886566
 20
-135.212357
 40
7.642709
 50
162.412094
 51
197.588013
  0
ARC
  8
0
 10
-153.484619
 20
-138.676529
 40
2.044655
 50
145.615921
 51
214.384079
  0
ARC
  8
0
 10
-147.886566
 20
-135.212448
 40
7.642723
 50
162.412125
 51
197.588013
  0
ARC
  8
0
 10
-153.484619
 20
-131.748306
 40
2.044655
 50
145.615921
 51
214.384079
  0
CIRCLE
  8
0
 10
9.170666
 20
-145.712433
 40
3.250000
  0
CIRCLE
  8
0
 10
9.170689
 20
-95.712433
 40
3.250000
  0
CIRCLE
  8
0
 10
9.170666
 20
-145.712433
 40
1.650000
  0
CIRCLE
  8
0
 10
9.170689
 20
-95.712433
 40
1.650000
  0
ARC
  8
0
 10
143.270660
 20
-80.055153
 40
7.642728
 50
72.412018
 51
107.587997
  0
ARC
  8
0
 10
146.734772
 20
-74.457085
 40
2.044648
 50
55.615803
 51
124.384552
  0
ARC
  8
0
 10
139.806549
 20
-74.457085
 40
2.044657
 50
55.615448
 51
124.384201
  0
ARC
  8
0
 62
     2
 10
138.270660
 20
-76.540321
 40
1.827890
 50
77.962486
 51
80.553558
  0
ARC
  8
0
 10
145.315338
 20
-131.748291
 40
2.044655
 50
145.615921
 51
214.384079
  0
ARC
  8
0
 10
150.913391
 20
-135.212433
 40
7.642708
 50
162.411728
 51
197.588013
  0
ARC
  8
0
 10
228.170670
 20
-148.035736
 40
5.776714
 50
249.743866
 51
290.256134
  0
ARC
  8
0
 10
224.170670
 20
-148.035736
 40
5.776714
 50
249.743866
 51
290.256348
  0
ARC
  8
0
 10
-87.929321
 20
-101.712433
 40
2.000000
 50
90.000000
 51
180.000000
  0
ARC
  8
0
 10
156.270660
 20
-101.712448
 40
2.000000
 50
0.000000
 51
90.000000
  0
ARC
  8
0
 10
-87.929337
 20
-139.712418
 40
2.000000
 50
180.000000
 51
270.000000
  0
ARC
  8
0
 10
156.270660
 20
-139.712463
 40
2.000000
 50
270.000000
 51
0.000000
  0
ARC
  8
0
 10
145.315353
 20
-138.676575
 40
2.044655
 50
145.615921
 51
214.384079
  0
ARC
  8
0
 10
-76.973999
 20
-109.676575
 40
2.044655
 50
325.615936
 51
34.384197
  0
ARC
  8
0
 10
-82.572021
 20
-106.212433
 40
7.642717
 50
342.411682
 51
17.588430
  0
ARC
  8
0
 10
-76.973999
 20
-102.748291
 40
2.044655
 50
325.615936
 51
34.384079
  0
ARC
  8
0
 10
221.825974
 20
-109.676590
 40
2.044655
 50
325.615936
 51
34.384079
  0
ARC
  8
0
 10
216.227921
 20
-106.212509
 40
7.642721
 50
342.412170
 51
17.588015
  0
CIRCLE
  8
0
 10
59.170696
 20
-145.712433
 40
3.250000
  0
CIRCLE
  8
0
 10
59.170696
 20
-145.712433
 40
1.650000
  0
CIRCLE
  8
0
 10
59.170689
 20
-95.712448
 40
3.250000
  0
CIRCLE
  8
0
 10
59.170689
 20
-95.712448
 40
1.650000
  0
TEXT
  8
0
 10
174.200241
 20
180.830002
 40
6.300000
  1
DATE: MAY ,1993
 50
0.000000
 41
1.052632
 51
0.000000
  7
STANDARD
  0
TEXT
  8
0
 10
167.564667
 20
-192.100006
 40
9.000000
  1
KOGANEI CORP.
 50
0.000000
 41
1.052632
 51
0.000000
  7
STANDARD
  0
TEXT
  8
0
 10
-269.149719
 20
180.830002
 40
6.300000
  1
HANDLING MODULE
 50
0.000000
 41
1.052632
 51
0.000000
  7
STANDARD
  0
TEXT
  8
0
 10
-270.049713
 20
155.830002
 40
6.300000
  1
MODEL:SHM72S-LL
 50
0.000000
 41
1.052632
 51
0.000000
  7
STANDARD
  0
ENDSEC
  0
EOF
