  0
SECTION
  2
HEADER
  0
ENDSEC
  0
SECTION
  2
TABLES
  0
TABLE
  2
LTYPE
 70
     4
  0
LTYPE
  2
CONTINUOUS
 70
    64
  3
Solid line
 72
    65
 73
     0
 40
0.000000
  0
LTYPE
  2
DASHED
 70
    64
  3
__ __ __ __ __ __ __ __ __ __ __ __ __ __ __
 72
    65
 73
     2
 40
3.500000
 49
2.000000
 49
-1.500000
  0
LTYPE
  2
CENTER
 70
    64
  3
____ _ ____ _ ____ _ ____ _ ____ _ ____ _ ____
 72
    65
 73
     4
 40
17.500000
 49
13.000000
 49
-1.500000
 49
1.500000
 49
-1.500000
  0
LTYPE
  2
PHANTOM
 70
    64
  3
_____ _ _ _____ _ _ _____ _ _ _____ _ _ ____  
 72
    65
 73
     6
 40
15.500000
 49
8.000000
 49
-1.500000
 49
1.500000
 49
-1.500000
 49
1.500000
 49
-1.500000
  0
LTYPE
  2
DASHED1
 70
    64
  3
__ __ __ __ __ __ __ __ __ __ __ __ __ __ __
 72
    65
 73
     2
 40
1.500000
 49
1.000000
 49
-0.500000
  0
LTYPE
  2
DASHED2
 70
    64
  3
__ __ __ __ __ __ __ __ __ __ __ __ __ __ __
 72
    65
 73
     2
 40
3.500000
 49
2.500000
 49
-1.000000
  0
LTYPE
  2
DASHED3
 70
    64
  3
__ __ __ __ __ __ __ __ __ __ __ __ __ __ __
 72
    65
 73
     2
 40
6.000000
 49
4.000000
 49
-2.000000
  0
LTYPE
  2
DASHED4
 70
    64
  3
__ __ __ __ __ __ __ __ __ __ __ __ __ __ __
 72
    65
 73
     2
 40
12.000000
 49
10.000000
 49
-2.000000
  0
LTYPE
  2
DASHED5
 70
    64
  3
__ __ __ __ __ __ __ __ __ __ __ __ __ __ __
 72
    65
 73
     2
 40
17.000000
 49
15.000000
 49
-2.000000
  0
LTYPE
  2
DASHED6
 70
    64
  3
__ __ __ __ __ __ __ __ __ __ __ __ __ __ __
 72
    65
 73
     2
 40
29.000000
 49
27.000000
 49
-2.000000
  0
LTYPE
  2
PHANTOM1
 70
    64
  3
_____ _ _ _____ _ _ _____ _ _ _____ _ _ ____  
 72
    65
 73
     6
 40
31.000000
 49
25.000000
 49
-1.500000
 49
1.000000
 49
-1.000000
 49
1.000000
 49
-1.500000
  0
LTYPE
  2
PHANTOM2
 70
    64
  3
_____ _ _ _____ _ _ _____ _ _ _____ _ _ ____  
 72
    65
 73
     6
 40
36.000000
 49
27.000000
 49
-1.500000
 49
2.500000
 49
-1.000000
 49
2.500000
 49
-1.500000
  0
LTYPE
  2
PHANTOM3
 70
    64
  3
_____ _ _ _____ _ _ _____ _ _ _____ _ _ ____  
 72
    65
 73
     6
 40
78.000000
 49
64.000000
 49
-2.000000
 49
4.000000
 49
-2.000000
 49
4.000000
 49
-2.000000
  0
LTYPE
  2
CENTER1
 70
    64
  3
____ _ ____ _ ____ _ ____ _ ____ _ ____ _ ____
 72
    65
 73
     4
 40
19.000000
 49
14.000000
 49
-1.000000
 49
3.000000
 49
-1.000000
  0
LTYPE
  2
CENTER2
 70
    64
  3
____ _ ____ _ ____ _ ____ _ ____ _ ____ _ ____
 72
    65
 73
     4
 40
28.500000
 49
25.000000
 49
-1.000000
 49
1.500000
 49
-1.000000
  0
LTYPE
  2
CENTER3
 70
    64
  3
____ _ ____ _ ____ _ ____ _ ____ _ ____ _ ____
 72
    65
 73
     4
 40
31.500000
 49
27.000000
 49
-1.000000
 49
2.500000
 49
-1.000000
  0
LTYPE
  2
CENTER4
 70
    64
  3
____ _ ____ _ ____ _ ____ _ ____ _ ____ _ ____
 72
    65
 73
     4
 40
50.000000
 49
45.000000
 49
-1.000000
 49
3.000000
 49
-1.000000
  0
LTYPE
  2
CENTER5
 70
    64
  3
____ _ ____ _ ____ _ ____ _ ____ _ ____ _ ____
 72
    65
 73
     4
 40
100.000000
 49
92.000000
 49
-2.000000
 49
4.000000
 49
-2.000000
  0
LTYPE
  2
SBK1
 70
    64
  3
______ _ _ _ ______ _ _ _ ______ _ _ _ _____  
 72
    65
 73
     8
 40
60.500000
 49
45.000000
 49
-2.000000
 49
2.500000
 49
-2.000000
 49
2.500000
 49
-2.000000
 49
2.500000
 49
-2.000000
  0
LTYPE
  2
SBK2
 70
    64
  3
______ _ _ _ ______ _ _ _ ______ _ _ _ _____  
 72
    65
 73
     8
 40
84.000000
 49
64.000000
 49
-2.000000
 49
4.000000
 49
-2.000000
 49
4.000000
 49
-2.000000
 49
4.000000
 49
-2.000000
  0
LTYPE
  2
STCH
 70
    64
  3
__ __ __ __ __ __ __ __ __ __ __ __ __ __ __
 72
    65
 73
     2
 40
3.000000
 49
1.000000
 49
-2.000000
  0
LTYPE
  2
MTCH
 70
    64
  3
_____ _ _ _____ _ _ _____ _ _ _____ _ _ ____  
 72
    65
 73
     6
 40
80.000000
 49
66.000000
 49
-2.000000
 49
4.000000
 49
-2.000000
 49
4.000000
 49
-2.000000
  0
ENDTAB
  0
TABLE
  2
LAYER
 70
     1
  0
LAYER
  2
0
 70
     0
 62
     7
  6
CONTINUOUS
  0
ENDTAB
  0
TABLE
  2
STYLE
 70
     1
  0
STYLE
  2
STANDARD
 70
     0
 40
0.000000
 41
1.000000
 50
0.000000
 71
     0
 42
0.200000
  3
txt
  4
BIGFONT
  0
ENDTAB
  0
TABLE
  2
VIEW
 70
     0
  0
ENDTAB
  0
ENDSEC
  0
SECTION
  2
BLOCKS
  0
ENDSEC
  0
SECTION
  2
ENTITIES
  0
LINE
  8
0
 10
-281.250000
 20
195.500000
 11
282.099976
 21
195.500000
  0
LINE
  8
0
 10
-281.250000
 20
195.500000
 11
-281.250000
 21
-195.000000
  0
LINE
  8
0
 10
282.099976
 20
195.500000
 11
282.099976
 21
-195.000000
  0
LINE
  8
0
 10
-281.250000
 20
-195.000000
 11
282.099976
 21
-195.000000
  0
LINE
  8
0
 10
162.099976
 20
-175.000000
 11
162.099976
 21
-195.000000
  0
LINE
  8
0
 10
162.099976
 20
-175.000000
 11
282.099976
 21
-175.000000
  0
LINE
  8
0
 10
162.099976
 20
175.500000
 11
282.099976
 21
175.500000
  0
LINE
  8
0
 10
-281.250000
 20
175.500000
 11
-161.250000
 21
175.500000
  0
LINE
  8
0
 10
162.099976
 20
195.500000
 11
162.099976
 21
175.500000
  0
LINE
  8
0
 10
-161.250000
 20
195.500000
 11
-161.250000
 21
175.500000
  0
LINE
  8
0
 10
183.749176
 20
44.689697
 11
183.749176
 21
124.289711
  0
LINE
  8
0
 10
178.049194
 20
44.489700
 11
178.049194
 21
124.489693
  0
LINE
  8
0
  6
CENTER
 62
     2
 10
-134.775055
 20
84.489723
 11
189.106262
 21
84.489723
  0
LINE
  8
0
 10
183.749176
 20
44.689728
 11
178.049194
 21
44.689728
  0
LINE
  8
0
 10
183.749176
 20
124.289734
 11
178.049194
 21
124.289734
  0
LINE
  8
0
  6
CENTER
 62
     2
 10
64.549179
 20
51.989731
 11
56.549179
 21
51.989731
  0
LINE
  8
0
  6
CENTER
 62
     2
 10
60.549194
 20
46.381443
 11
60.549194
 21
55.989723
  0
LINE
  8
0
  6
CENTER
 62
     2
 10
64.549179
 20
116.989731
 11
56.549179
 21
116.989731
  0
LINE
  8
0
  6
CENTER
 62
     2
 10
60.549194
 20
120.989731
 11
60.549194
 21
112.989723
  0
LINE
  8
0
 10
25.049187
 20
124.489716
 11
25.049187
 21
115.989716
  0
LINE
  8
0
 10
31.049187
 20
124.489716
 11
31.049187
 21
115.989716
  0
LINE
  8
0
  6
CENTER
 62
     2
 10
23.064659
 20
51.989723
 11
33.116589
 21
51.989723
  0
LINE
  8
0
 10
201.649200
 20
68.989738
 11
187.749146
 21
68.989738
  0
LINE
  8
0
 62
     2
 10
201.649170
 20
68.389732
 11
187.749146
 21
68.389732
  0
LINE
  8
0
 10
187.391907
 20
64.180344
 11
183.749207
 21
64.180344
  0
LINE
  8
0
 10
201.649200
 20
63.989731
 11
187.749146
 21
63.989731
  0
LINE
  8
0
 62
     2
 10
201.649170
 20
64.589737
 11
187.749146
 21
64.589737
  0
LINE
  8
0
 10
187.749176
 20
70.489738
 11
187.749176
 21
62.489380
  0
LINE
  8
0
 10
201.649170
 20
68.989746
 11
201.649170
 21
63.989735
  0
LINE
  8
0
 10
187.391876
 20
71.108528
 11
183.749176
 21
71.108528
  0
LINE
  8
0
 10
187.749298
 20
70.489738
 11
187.392044
 21
71.108513
  0
LINE
  8
0
 10
187.391907
 20
68.799126
 11
183.749207
 21
68.799126
  0
LINE
  8
0
 10
187.749573
 20
62.489471
 11
187.392334
 21
61.870720
  0
LINE
  8
0
 10
187.391907
 20
61.870941
 11
183.749207
 21
61.870941
  0
LINE
  8
0
 10
194.649323
 20
105.989677
 11
194.649323
 21
97.489723
  0
LINE
  8
0
 10
184.749329
 20
97.489716
 11
194.649323
 21
97.489716
  0
LINE
  8
0
 10
184.749329
 20
107.489716
 11
185.649261
 21
107.489716
  0
LINE
  8
0
 10
185.649292
 20
107.489677
 11
185.649292
 21
105.989677
  0
LINE
  8
0
 10
185.649261
 20
105.989716
 11
194.649261
 21
105.989716
  0
LINE
  8
0
 10
186.249268
 20
105.989716
 11
194.049255
 21
105.989716
  0
LINE
  8
0
 10
192.649323
 20
133.589722
 11
187.649323
 21
133.589722
  0
LINE
  8
0
 10
187.649323
 20
133.589722
 11
187.649323
 21
129.589722
  0
LINE
  8
0
 10
192.649323
 20
133.589722
 11
192.649323
 21
129.589722
  0
LINE
  8
0
 10
192.649323
 20
129.589722
 11
187.649323
 21
129.589722
  0
LINE
  8
0
 10
194.049255
 20
106.589722
 11
186.249268
 21
106.589722
  0
LINE
  8
0
 10
194.149261
 20
121.089722
 11
186.149261
 21
121.089722
  0
LINE
  8
0
 10
194.149323
 20
121.889709
 11
186.149323
 21
121.889709
  0
LINE
  8
0
 10
194.149323
 20
124.389709
 11
186.149323
 21
124.389709
  0
LINE
  8
0
 10
186.149323
 20
124.389717
 11
186.149323
 21
121.889717
  0
LINE
  8
0
 10
194.149323
 20
124.389709
 11
194.149323
 21
121.889709
  0
LINE
  8
0
 10
187.649323
 20
121.889671
 11
187.649323
 21
121.089684
  0
LINE
  8
0
 10
192.649323
 20
121.889664
 11
192.649323
 21
121.089676
  0
LINE
  8
0
 10
191.649323
 20
129.589691
 11
191.649323
 21
124.389671
  0
LINE
  8
0
 10
188.649323
 20
129.589691
 11
188.649323
 21
124.389671
  0
LINE
  8
0
 62
     2
 10
188.919830
 20
129.589691
 11
188.919830
 21
124.389671
  0
LINE
  8
0
 62
     2
 10
191.378815
 20
129.589691
 11
191.378815
 21
124.389671
  0
LINE
  8
0
 10
186.899323
 20
108.089668
 11
186.899323
 21
106.589668
  0
LINE
  8
0
 10
193.399323
 20
108.089668
 11
193.399323
 21
106.589668
  0
LINE
  8
0
 10
186.249329
 20
106.589668
 11
186.249329
 21
105.989677
  0
LINE
  8
0
 10
194.049316
 20
106.589668
 11
194.049316
 21
105.989677
  0
LINE
  8
0
 10
194.049255
 20
105.989716
 11
186.249268
 21
105.989716
  0
LINE
  8
0
 10
195.049255
 20
117.089722
 11
193.149292
 21
117.089722
  0
LINE
  8
0
 10
195.049255
 20
108.089722
 11
185.249268
 21
108.089722
  0
LINE
  8
0
 10
186.149323
 20
121.089684
 11
186.149323
 21
117.089668
  0
LINE
  8
0
 10
194.149323
 20
121.089676
 11
194.149323
 21
117.089661
  0
LINE
  8
0
 10
190.149323
 20
120.732414
 11
190.149323
 21
118.089699
  0
LINE
  8
0
 10
185.249329
 20
117.089668
 11
185.249329
 21
114.084709
  0
LINE
  8
0
 10
195.049316
 20
117.089661
 11
195.049316
 21
114.084709
  0
LINE
  8
0
 10
184.749329
 20
93.989723
 11
184.749329
 21
110.989723
  0
LINE
  8
0
 10
184.749298
 20
110.989731
 11
183.749298
 21
110.989731
  0
LINE
  8
0
 10
184.749298
 20
93.989731
 11
183.749298
 21
93.989731
  0
LINE
  8
0
 10
187.149292
 20
117.089722
 11
185.249268
 21
117.089722
  0
LINE
  8
0
 10
195.049316
 20
112.094673
 11
195.049316
 21
108.089668
  0
LINE
  8
0
 10
185.249329
 20
112.094673
 11
185.249329
 21
108.089668
  0
LINE
  8
0
 10
90.249283
 20
33.589706
 11
90.249283
 21
34.189713
  0
LINE
  8
0
 10
100.049271
 20
33.589687
 11
100.049271
 21
42.589687
  0
LINE
  8
0
 10
100.049255
 20
42.589706
 11
90.249268
 21
42.589706
  0
LINE
  8
0
 10
100.049255
 20
33.589706
 11
90.249268
 21
33.589706
  0
LINE
  8
0
 10
95.149261
 20
36.889725
 11
87.649261
 21
36.889725
  0
LINE
  8
0
 10
95.149261
 20
38.289719
 11
87.649261
 21
38.289719
  0
LINE
  8
0
 10
90.249153
 20
34.189754
 11
91.549156
 21
36.889713
  0
LINE
  8
0
 10
90.249214
 20
40.989643
 11
91.549217
 21
38.289619
  0
LINE
  8
0
 10
90.249283
 20
40.989700
 11
90.249283
 21
42.589706
  0
LINE
  8
0
 10
87.649261
 20
32.689713
 11
83.349258
 21
32.689713
  0
LINE
  8
0
 10
80.449280
 20
32.589699
 11
80.449280
 21
42.589699
  0
LINE
  8
0
 10
82.049286
 20
32.589699
 11
82.049286
 21
42.589699
  0
LINE
  8
0
 10
90.249268
 20
34.189713
 11
89.149261
 21
34.189713
  0
LINE
  8
0
 10
87.649277
 20
32.689713
 11
87.649277
 21
42.489700
  0
LINE
  8
0
 10
89.149277
 20
34.189713
 11
89.149277
 21
36.889694
  0
LINE
  8
0
 10
83.349274
 20
32.689705
 11
83.349274
 21
42.489693
  0
LINE
  8
0
 10
82.049271
 20
32.589706
 11
80.449265
 21
32.589706
  0
LINE
  8
0
 10
82.049255
 20
42.589706
 11
80.449249
 21
42.589706
  0
LINE
  8
0
 10
87.649261
 20
42.489731
 11
83.349243
 21
42.489731
  0
LINE
  8
0
 10
90.249268
 20
40.989731
 11
89.149261
 21
40.989731
  0
LINE
  8
0
 10
83.349258
 20
34.339706
 11
82.049271
 21
34.339706
  0
LINE
  8
0
 10
83.349243
 20
40.839706
 11
82.049255
 21
40.839706
  0
LINE
  8
0
 10
89.149277
 20
38.289719
 11
89.149277
 21
40.989700
  0
LINE
  8
0
 10
87.649368
 20
32.689545
 11
89.149376
 21
34.189564
  0
LINE
  8
0
 10
87.649284
 20
42.489742
 11
89.149284
 21
40.989758
  0
LINE
  8
0
 10
99.049255
 20
44.089706
 11
91.249268
 21
44.089706
  0
LINE
  8
0
 10
91.899277
 20
42.589703
 11
91.899277
 21
44.089703
  0
LINE
  8
0
 10
98.399277
 20
42.589703
 11
98.399277
 21
44.089703
  0
LINE
  8
0
 10
91.249283
 20
44.089703
 11
91.249283
 21
44.489727
  0
LINE
  8
0
 10
99.049271
 20
44.089687
 11
99.049271
 21
44.489712
  0
LINE
  8
0
 10
97.649284
 20
17.089706
 11
92.649284
 21
17.089706
  0
LINE
  8
0
 10
92.649277
 20
17.089714
 11
92.649277
 21
21.089710
  0
LINE
  8
0
 10
97.649277
 20
17.089714
 11
97.649277
 21
21.089710
  0
LINE
  8
0
 10
97.649284
 20
21.089706
 11
92.649284
 21
21.089706
  0
LINE
  8
0
 10
98.613373
 20
29.589706
 11
91.685150
 21
29.589706
  0
LINE
  8
0
 10
99.149277
 20
28.789719
 11
91.149277
 21
28.789719
  0
LINE
  8
0
 10
99.149277
 20
26.289719
 11
91.149277
 21
26.289719
  0
LINE
  8
0
 10
91.149277
 20
26.289726
 11
91.149277
 21
28.789726
  0
LINE
  8
0
 10
99.149277
 20
26.289722
 11
99.149277
 21
28.789722
  0
LINE
  8
0
 10
90.530472
 20
29.946976
 11
90.530472
 21
33.589706
  0
LINE
  8
0
 10
92.839890
 20
29.946972
 11
92.839890
 21
33.589703
  0
LINE
  8
0
 10
97.458694
 20
29.946972
 11
97.458694
 21
33.589703
  0
LINE
  8
0
 10
99.768082
 20
29.946957
 11
99.768082
 21
33.589687
  0
LINE
  8
0
 10
92.649277
 20
28.789715
 11
92.649277
 21
29.589703
  0
LINE
  8
0
 10
97.649277
 20
28.789715
 11
97.649277
 21
29.589703
  0
LINE
  8
0
 10
96.649277
 20
21.089703
 11
96.649277
 21
26.289715
  0
LINE
  8
0
 10
93.649277
 20
21.089703
 11
93.649277
 21
26.289715
  0
LINE
  8
0
 62
     2
 10
93.919785
 20
21.089703
 11
93.919785
 21
26.289715
  0
LINE
  8
0
 62
     2
 10
96.378769
 20
21.089703
 11
96.378769
 21
26.289715
  0
LINE
  8
0
  6
CENTER
 62
     2
 10
28.049141
 20
138.009979
 11
28.049141
 21
32.088303
  0
LINE
  8
0
 10
-127.650810
 20
124.289726
 11
-127.650810
 21
44.689713
  0
LINE
  8
0
 10
-121.950829
 20
124.489716
 11
178.049194
 21
124.489716
  0
LINE
  8
0
 10
-121.950798
 20
44.489723
 11
178.049164
 21
44.489723
  0
LINE
  8
0
 10
-121.950813
 20
124.489708
 11
-121.950813
 21
44.489716
  0
LINE
  8
0
 10
-121.950813
 20
64.489723
 11
178.049164
 21
64.489723
  0
LINE
  8
0
 10
-121.950829
 20
104.489716
 11
178.049133
 21
104.489716
  0
LINE
  8
0
 10
-127.650810
 20
124.289734
 11
-121.950829
 21
124.289734
  0
LINE
  8
0
 10
-127.650810
 20
44.689720
 11
-121.950798
 21
44.689720
  0
LINE
  8
0
  6
CENTER
 62
     2
 10
-8.450817
 20
116.989716
 11
-0.450813
 21
116.989716
  0
LINE
  8
0
  6
CENTER
 62
     2
 10
-4.450813
 20
120.989716
 11
-4.450813
 21
112.989723
  0
LINE
  8
0
  6
CENTER
 62
     2
 10
-8.450813
 20
51.989723
 11
-0.450813
 21
51.989723
  0
LINE
  8
0
  6
CENTER
 62
     2
 10
-4.450813
 20
46.707447
 11
-4.450813
 21
55.989723
  0
LINE
  8
0
 10
-145.550812
 20
99.989716
 11
-131.650787
 21
99.989716
  0
LINE
  8
0
 62
     2
 10
-145.550812
 20
100.589722
 11
-131.650787
 21
100.589722
  0
LINE
  8
0
 10
-131.293549
 20
104.799103
 11
-127.650810
 21
104.799103
  0
LINE
  8
0
 10
-145.550812
 20
104.989716
 11
-131.650787
 21
104.989716
  0
LINE
  8
0
 62
     2
 10
-145.550812
 20
104.389709
 11
-131.650787
 21
104.389709
  0
LINE
  8
0
 10
-131.650787
 20
98.489677
 11
-131.650787
 21
106.490044
  0
LINE
  8
0
 10
-145.550812
 20
99.989708
 11
-145.550812
 21
104.989716
  0
LINE
  8
0
 10
-131.293549
 20
97.870926
 11
-127.650810
 21
97.870926
  0
LINE
  8
0
 10
-131.651001
 20
98.489594
 11
-131.293747
 21
97.870819
  0
LINE
  8
0
 10
-131.293549
 20
100.180328
 11
-127.650810
 21
100.180328
  0
LINE
  8
0
 10
-131.651123
 20
106.489899
 11
-131.293869
 21
107.108673
  0
LINE
  8
0
 10
-131.293549
 20
107.108521
 11
-127.650810
 21
107.108521
  0
LINE
  8
0
 10
-138.550964
 20
62.989738
 11
-138.550964
 21
71.489731
  0
LINE
  8
0
 10
-128.650940
 20
71.489738
 11
-138.550964
 21
71.489738
  0
LINE
  8
0
 10
-128.650940
 20
61.489738
 11
-129.550903
 21
61.489738
  0
LINE
  8
0
 10
-129.550903
 20
61.489738
 11
-129.550903
 21
62.989738
  0
LINE
  8
0
 10
-129.550903
 20
62.989738
 11
-138.550903
 21
62.989738
  0
LINE
  8
0
 10
-130.150909
 20
62.989738
 11
-137.950897
 21
62.989738
  0
LINE
  8
0
 10
-136.550934
 20
35.389732
 11
-131.550934
 21
35.389732
  0
LINE
  8
0
 10
-131.550934
 20
35.389725
 11
-131.550934
 21
39.389725
  0
LINE
  8
0
 10
-136.550964
 20
35.389729
 11
-136.550964
 21
39.389729
  0
LINE
  8
0
 10
-136.550934
 20
39.389732
 11
-131.550934
 21
39.389732
  0
LINE
  8
0
 10
-137.950897
 20
62.389732
 11
-130.150909
 21
62.389732
  0
LINE
  8
0
 10
-138.050903
 20
47.889732
 11
-130.050903
 21
47.889732
  0
LINE
  8
0
 10
-138.050934
 20
47.089745
 11
-130.050934
 21
47.089745
  0
LINE
  8
0
 10
-138.050934
 20
44.589745
 11
-130.050934
 21
44.589745
  0
LINE
  8
0
 10
-130.050934
 20
44.589737
 11
-130.050934
 21
47.089737
  0
LINE
  8
0
 10
-138.050964
 20
44.589741
 11
-138.050964
 21
47.089741
  0
LINE
  8
0
 10
-131.550934
 20
47.089745
 11
-131.550934
 21
47.889732
  0
LINE
  8
0
 10
-136.550964
 20
47.089748
 11
-136.550964
 21
47.889736
  0
LINE
  8
0
 10
-135.550964
 20
39.389732
 11
-135.550964
 21
44.589745
  0
LINE
  8
0
 10
-132.550964
 20
39.389732
 11
-132.550964
 21
44.589745
  0
LINE
  8
0
 62
     2
 10
-132.821472
 20
39.389732
 11
-132.821472
 21
44.589745
  0
LINE
  8
0
 62
     2
 10
-135.280457
 20
39.389732
 11
-135.280457
 21
44.589745
  0
LINE
  8
0
 10
-130.800934
 20
60.889748
 11
-130.800934
 21
62.389748
  0
LINE
  8
0
 10
-137.300964
 20
60.889748
 11
-137.300964
 21
62.389748
  0
LINE
  8
0
 10
-130.150940
 20
62.389748
 11
-130.150940
 21
62.989738
  0
LINE
  8
0
 10
-137.950958
 20
62.389748
 11
-137.950958
 21
62.989738
  0
LINE
  8
0
 10
-137.950897
 20
62.989738
 11
-130.150909
 21
62.989738
  0
LINE
  8
0
 10
-138.950897
 20
51.889732
 11
-137.050934
 21
51.889732
  0
LINE
  8
0
 10
-138.950897
 20
60.889732
 11
-129.150909
 21
60.889732
  0
LINE
  8
0
 10
-130.050934
 20
47.889732
 11
-130.050934
 21
51.889748
  0
LINE
  8
0
 10
-138.050964
 20
47.889736
 11
-138.050964
 21
51.889751
  0
LINE
  8
0
 10
-134.050964
 20
48.247002
 11
-134.050964
 21
50.889725
  0
LINE
  8
0
 10
-129.150940
 20
51.889748
 11
-129.150940
 21
54.894707
  0
LINE
  8
0
 10
-138.950958
 20
51.889751
 11
-138.950958
 21
54.894707
  0
LINE
  8
0
 10
-128.650940
 20
74.989693
 11
-128.650940
 21
57.989693
  0
LINE
  8
0
 10
-128.650940
 20
57.989723
 11
-127.650932
 21
57.989723
  0
LINE
  8
0
 10
-128.650940
 20
74.989723
 11
-127.650932
 21
74.989723
  0
LINE
  8
0
 10
-131.050934
 20
51.889732
 11
-129.150909
 21
51.889732
  0
LINE
  8
0
 10
-138.950958
 20
56.884743
 11
-138.950958
 21
60.889748
  0
LINE
  8
0
 10
-129.150940
 20
56.884743
 11
-129.150940
 21
60.889748
  0
LINE
  8
0
 10
-34.150902
 20
135.389740
 11
-34.150902
 21
134.789734
  0
LINE
  8
0
 10
-43.950890
 20
135.389740
 11
-43.950890
 21
126.389740
  0
LINE
  8
0
 10
-43.950890
 20
126.389740
 11
-34.150902
 21
126.389740
  0
LINE
  8
0
 10
-43.950897
 20
135.389740
 11
-34.150906
 21
135.389740
  0
LINE
  8
0
 10
-39.050903
 20
132.089722
 11
-31.550900
 21
132.089722
  0
LINE
  8
0
 10
-39.050903
 20
130.689728
 11
-31.550900
 21
130.689728
  0
LINE
  8
0
 10
-34.150738
 20
134.789673
 11
-35.450741
 21
132.089691
  0
LINE
  8
0
 10
-34.150764
 20
127.989830
 11
-35.450775
 21
130.689865
  0
LINE
  8
0
 10
-34.150902
 20
127.989738
 11
-34.150902
 21
126.389732
  0
LINE
  8
0
 10
-31.550900
 20
136.289734
 11
-27.250896
 21
136.289734
  0
LINE
  8
0
 10
-24.350899
 20
136.389740
 11
-24.350899
 21
126.389748
  0
LINE
  8
0
 10
-25.950905
 20
136.389740
 11
-25.950905
 21
126.389748
  0
LINE
  8
0
 10
-34.150906
 20
134.789734
 11
-33.050900
 21
134.789734
  0
LINE
  8
0
 10
-31.550896
 20
136.289734
 11
-31.550896
 21
126.489738
  0
LINE
  8
0
 10
-33.050896
 20
134.789734
 11
-33.050896
 21
132.089752
  0
LINE
  8
0
 10
-27.250893
 20
136.289734
 11
-27.250893
 21
126.489754
  0
LINE
  8
0
 10
-25.950909
 20
136.389740
 11
-24.350903
 21
136.389740
  0
LINE
  8
0
 10
-25.950890
 20
126.389740
 11
-24.350883
 21
126.389740
  0
LINE
  8
0
 10
-31.550896
 20
126.489716
 11
-27.250877
 21
126.489716
  0
LINE
  8
0
 10
-34.150902
 20
127.989716
 11
-33.050896
 21
127.989716
  0
LINE
  8
0
 10
-27.250896
 20
134.639740
 11
-25.950909
 21
134.639740
  0
LINE
  8
0
 10
-27.250877
 20
128.139740
 11
-25.950890
 21
128.139740
  0
LINE
  8
0
 10
-33.050896
 20
130.689728
 11
-33.050896
 21
127.989738
  0
LINE
  8
0
 10
-31.550980
 20
136.289841
 11
-33.050980
 21
134.789841
  0
LINE
  8
0
 10
-31.550858
 20
126.489754
 11
-33.050854
 21
127.989731
  0
LINE
  8
0
 10
-42.950890
 20
124.889740
 11
-35.150902
 21
124.889740
  0
LINE
  8
0
 10
-35.800896
 20
126.389740
 11
-35.800896
 21
124.889755
  0
LINE
  8
0
 10
-42.300896
 20
126.389740
 11
-42.300896
 21
124.889755
  0
LINE
  8
0
 10
-35.150902
 20
124.889755
 11
-35.150902
 21
124.489731
  0
LINE
  8
0
 10
-42.950890
 20
124.889755
 11
-42.950890
 21
124.489731
  0
LINE
  8
0
 10
-41.550903
 20
151.889740
 11
-36.550903
 21
151.889740
  0
LINE
  8
0
 10
-36.550896
 20
151.889740
 11
-36.550896
 21
147.889740
  0
LINE
  8
0
 10
-41.550896
 20
151.889740
 11
-41.550896
 21
147.889740
  0
LINE
  8
0
 10
-41.550903
 20
147.889740
 11
-36.550903
 21
147.889740
  0
LINE
  8
0
 10
-42.515015
 20
139.389740
 11
-35.586792
 21
139.389740
  0
LINE
  8
0
 10
-43.050903
 20
140.189728
 11
-35.050903
 21
140.189728
  0
LINE
  8
0
 10
-43.050903
 20
142.689728
 11
-35.050903
 21
142.689728
  0
LINE
  8
0
 10
-35.050896
 20
142.689728
 11
-35.050896
 21
140.189728
  0
LINE
  8
0
 10
-43.050896
 20
142.689728
 11
-43.050896
 21
140.189728
  0
LINE
  8
0
 10
-34.432091
 20
139.032471
 11
-34.432091
 21
135.389740
  0
LINE
  8
0
 10
-36.741508
 20
139.032471
 11
-36.741508
 21
135.389740
  0
LINE
  8
0
 10
-41.360313
 20
139.032471
 11
-41.360313
 21
135.389740
  0
LINE
  8
0
 10
-43.669701
 20
139.032471
 11
-43.669701
 21
135.389740
  0
LINE
  8
0
 10
-36.550896
 20
140.189728
 11
-36.550896
 21
139.389740
  0
LINE
  8
0
 10
-41.550896
 20
140.189728
 11
-41.550896
 21
139.389740
  0
LINE
  8
0
 10
-40.550896
 20
147.889740
 11
-40.550896
 21
142.689728
  0
LINE
  8
0
 10
-37.550896
 20
147.889740
 11
-37.550896
 21
142.689728
  0
LINE
  8
0
 62
     2
 10
-37.821404
 20
147.889740
 11
-37.821404
 21
142.689728
  0
LINE
  8
0
 62
     2
 10
-40.280388
 20
147.889740
 11
-40.280388
 21
142.689728
  0
LINE
  8
0
 62
     4
 10
-138.050934
 20
49.489723
 11
-146.832764
 21
49.489723
  0
LINE
  8
0
 62
     4
 10
-138.950928
 20
52.489723
 11
-146.028961
 21
52.489723
  0
LINE
  8
0
 62
     1
 10
-145.424850
 20
54.744694
 11
-147.677994
 21
46.335937
  0
LINE
  8
0
 10
-201.327515
 20
104.989723
 11
-201.327515
 21
124.489716
  0
LINE
  8
0
 10
-201.327560
 20
104.989738
 11
-201.527557
 21
104.789742
  0
LINE
  8
0
 10
-201.327499
 20
63.989723
 11
-201.527542
 21
64.189766
  0
LINE
  8
0
 10
-201.327515
 20
63.989723
 11
-201.327515
 21
60.889725
  0
LINE
  8
0
  6
CENTER
 62
     2
 10
-227.327515
 20
96.897392
 11
-227.327515
 21
102.263199
  0
LINE
  8
0
  6
CENTER
 62
     2
 10
-224.636887
 20
99.489693
 11
-231.707657
 21
99.489693
  0
LINE
  8
0
  6
CENTER
 62
     2
 10
-227.327515
 20
72.082054
 11
-227.327515
 21
66.874443
  0
LINE
  8
0
  6
CENTER
 62
     2
 10
-224.636887
 20
69.489693
 11
-231.707657
 21
69.489693
  0
LINE
  8
0
 10
-211.256821
 20
62.989693
 11
-218.398239
 21
62.989693
  0
LINE
  8
0
 10
-209.927521
 20
51.889725
 11
-209.927521
 21
52.489731
  0
LINE
  8
0
 10
-219.727509
 20
51.889725
 11
-219.727509
 21
60.889725
  0
LINE
  8
0
 10
-219.727524
 20
60.889694
 11
-209.927536
 21
60.889694
  0
LINE
  8
0
 10
-219.727524
 20
51.889694
 11
-209.927536
 21
51.889694
  0
LINE
  8
0
 10
-214.827560
 20
55.189682
 11
-207.327560
 21
55.189682
  0
LINE
  8
0
 10
-214.827560
 20
56.589676
 11
-207.327560
 21
56.589676
  0
LINE
  8
0
 10
-209.927597
 20
52.489693
 11
-211.227600
 21
55.189701
  0
LINE
  8
0
 10
-209.927521
 20
59.289753
 11
-211.227524
 21
56.589745
  0
LINE
  8
0
 10
-209.927521
 20
59.289719
 11
-209.927521
 21
60.889725
  0
LINE
  8
0
 10
-207.327560
 20
50.989700
 11
-203.027542
 21
50.989700
  0
LINE
  8
0
 10
-200.127533
 20
50.889725
 11
-200.127533
 21
60.889725
  0
LINE
  8
0
 10
-201.727509
 20
50.889725
 11
-201.727509
 21
60.889725
  0
LINE
  8
0
 10
-209.927536
 20
52.489700
 11
-208.827560
 21
52.489700
  0
LINE
  8
0
 10
-207.327515
 20
50.989731
 11
-207.327515
 21
60.789719
  0
LINE
  8
0
 10
-208.827515
 20
52.489731
 11
-208.827515
 21
55.189713
  0
LINE
  8
0
 10
-203.027496
 20
50.989731
 11
-203.027496
 21
60.789719
  0
LINE
  8
0
 10
-201.727554
 20
50.889694
 11
-200.127548
 21
50.889694
  0
LINE
  8
0
 10
-201.727554
 20
60.889694
 11
-200.127548
 21
60.889694
  0
LINE
  8
0
 10
-207.327560
 20
60.789688
 11
-203.027542
 21
60.789688
  0
LINE
  8
0
 10
-209.927536
 20
59.289688
 11
-208.827560
 21
59.289688
  0
LINE
  8
0
 10
-203.027542
 20
52.639694
 11
-201.727554
 21
52.639694
  0
LINE
  8
0
 10
-203.027542
 20
59.139694
 11
-201.727554
 21
59.139694
  0
LINE
  8
0
 10
-208.827515
 20
56.589706
 11
-208.827515
 21
59.289719
  0
LINE
  8
0
 10
-207.327576
 20
50.989700
 11
-208.827591
 21
52.489712
  0
LINE
  8
0
 10
-207.327652
 20
60.789795
 11
-208.827637
 21
59.289803
  0
LINE
  8
0
 10
-218.727524
 20
62.389687
 11
-210.927536
 21
62.389687
  0
LINE
  8
0
 10
-218.727524
 20
62.989693
 11
-210.927536
 21
62.989693
  0
LINE
  8
0
 10
-211.577515
 20
60.889725
 11
-211.577515
 21
62.389717
  0
LINE
  8
0
 10
-218.077515
 20
60.889725
 11
-218.077515
 21
62.389717
  0
LINE
  8
0
 10
-210.927521
 20
62.389717
 11
-210.927521
 21
62.989723
  0
LINE
  8
0
 10
-218.727509
 20
62.389717
 11
-218.727509
 21
62.989723
  0
LINE
  8
0
 10
-217.327530
 20
35.389698
 11
-212.327530
 21
35.389698
  0
LINE
  8
0
 10
-212.327515
 20
35.389725
 11
-212.327515
 21
39.389725
  0
LINE
  8
0
 10
-217.327515
 20
35.389725
 11
-217.327515
 21
39.389725
  0
LINE
  8
0
 10
-217.327530
 20
39.389698
 11
-212.327530
 21
39.389698
  0
LINE
  8
0
 10
-218.291672
 20
47.889694
 11
-211.363449
 21
47.889694
  0
LINE
  8
0
 10
-218.827530
 20
47.089706
 11
-210.827530
 21
47.089706
  0
LINE
  8
0
 10
-218.827530
 20
44.589706
 11
-210.827530
 21
44.589706
  0
LINE
  8
0
 10
-210.827515
 20
44.589737
 11
-210.827515
 21
47.089737
  0
LINE
  8
0
 10
-218.827515
 20
44.589737
 11
-218.827515
 21
47.089737
  0
LINE
  8
0
 10
-210.208710
 20
48.246994
 11
-210.208710
 21
51.889725
  0
LINE
  8
0
 10
-212.518127
 20
48.246994
 11
-212.518127
 21
51.889725
  0
LINE
  8
0
 10
-217.136932
 20
48.246994
 11
-217.136932
 21
51.889725
  0
LINE
  8
0
 10
-219.446320
 20
48.246994
 11
-219.446320
 21
51.889725
  0
LINE
  8
0
 10
-212.327515
 20
47.089737
 11
-212.327515
 21
47.889725
  0
LINE
  8
0
 10
-217.327515
 20
47.089737
 11
-217.327515
 21
47.889725
  0
LINE
  8
0
 10
-216.327515
 20
39.389725
 11
-216.327515
 21
44.589737
  0
LINE
  8
0
 10
-213.327515
 20
39.389725
 11
-213.327515
 21
44.589737
  0
LINE
  8
0
 62
     2
 10
-213.598022
 20
39.389725
 11
-213.598022
 21
44.589737
  0
LINE
  8
0
 62
     2
 10
-216.057007
 20
39.389725
 11
-216.057007
 21
44.589737
  0
LINE
  8
0
 10
-201.327515
 20
50.889725
 11
-201.327515
 21
44.489731
  0
LINE
  8
0
 10
-201.827515
 20
59.139725
 11
-201.827515
 21
124.289734
  0
LINE
  8
0
 10
-201.827560
 20
124.289703
 11
-206.327560
 21
124.289703
  0
LINE
  8
0
 10
-221.827515
 20
112.829010
 11
-221.827515
 21
111.989716
  0
LINE
  8
0
 10
-223.327560
 20
81.489693
 11
-231.327560
 21
81.489693
  0
LINE
  8
0
 10
-223.327560
 20
87.489693
 11
-231.327560
 21
87.489693
  0
LINE
  8
0
 10
-221.827515
 20
53.189743
 11
-221.827515
 21
115.989716
  0
LINE
  8
0
 10
-223.327515
 20
81.489723
 11
-223.327515
 21
87.489723
  0
LINE
  8
0
 10
-231.327515
 20
116.189743
 11
-231.327515
 21
122.426224
  0
LINE
  8
0
 10
-229.327515
 20
117.339737
 11
-229.327515
 21
116.639725
  0
LINE
  8
0
 10
-231.327515
 20
112.789734
 11
-231.327515
 21
108.489746
  0
LINE
  8
0
 10
-223.727524
 20
124.489685
 11
-227.827560
 21
124.489685
  0
LINE
  8
0
 10
-218.327560
 20
115.989685
 11
-222.527542
 21
115.989685
  0
LINE
  8
0
 10
-231.327515
 20
87.489738
 11
-231.327515
 21
107.489738
  0
LINE
  8
0
 10
-221.827560
 20
112.489700
 11
-223.738724
 21
112.489700
  0
LINE
  8
0
 10
-221.827515
 20
112.489716
 11
-221.827515
 21
111.489716
  0
LINE
  8
0
 10
-221.827560
 20
111.989700
 11
-222.827560
 21
111.989700
  0
LINE
  8
0
 10
-229.327560
 20
116.189697
 11
-231.327560
 21
116.189697
  0
LINE
  8
0
 10
-229.327560
 20
112.789688
 11
-231.327560
 21
112.789688
  0
LINE
  8
0
 10
-229.327515
 20
111.639771
 11
-229.327515
 21
112.789764
  0
LINE
  8
0
 10
-226.827560
 20
111.639694
 11
-229.327560
 21
111.639694
  0
LINE
  8
0
 10
-226.827515
 20
117.339706
 11
-226.827515
 21
111.639740
  0
LINE
  8
0
 10
-229.327515
 20
117.339737
 11
-229.327515
 21
116.189743
  0
LINE
  8
0
 10
-226.827560
 20
117.339691
 11
-229.327560
 21
117.339691
  0
LINE
  8
0
 10
-218.327515
 20
115.989716
 11
-218.327515
 21
121.189728
  0
LINE
  8
0
 10
-222.527496
 20
115.989716
 11
-222.527496
 21
118.689728
  0
LINE
  8
0
 10
-224.677521
 20
118.689728
 11
-224.677521
 21
121.189728
  0
LINE
  8
0
 10
-222.527542
 20
118.689697
 11
-224.677536
 21
118.689697
  0
LINE
  8
0
 10
-223.727524
 20
121.189697
 11
-224.677536
 21
121.189697
  0
LINE
  8
0
 10
-223.727509
 20
121.189728
 11
-223.727509
 21
124.489716
  0
LINE
  8
0
 10
-218.227509
 20
115.789703
 11
-218.227509
 21
124.289734
  0
LINE
  8
0
 10
-219.927521
 20
121.189728
 11
-219.927521
 21
124.489716
  0
LINE
  8
0
 10
-211.027542
 20
124.489685
 11
-219.927536
 21
124.489685
  0
LINE
  8
0
 10
-222.527496
 20
52.989731
 11
-222.527496
 21
50.289719
  0
LINE
  8
0
 10
-224.677521
 20
50.289719
 11
-224.677521
 21
47.789719
  0
LINE
  8
0
 10
-222.527542
 20
50.289688
 11
-224.677536
 21
50.289688
  0
LINE
  8
0
 10
-223.727524
 20
47.789688
 11
-224.677536
 21
47.789688
  0
LINE
  8
0
 10
-223.727509
 20
47.789719
 11
-223.727509
 21
44.489731
  0
LINE
  8
0
 10
-207.627533
 20
46.489731
 11
-207.627533
 21
44.489700
  0
LINE
  8
0
 10
-219.727524
 20
52.989700
 11
-222.527542
 21
52.989700
  0
LINE
  8
0
 10
-211.027542
 20
44.489700
 11
-213.327560
 21
44.489700
  0
LINE
  8
0
 10
-224.171661
 20
112.239693
 11
-226.192398
 21
108.739685
  0
LINE
  8
0
 10
-222.827515
 20
107.489723
 11
-222.827515
 21
111.989716
  0
LINE
  8
0
 10
-231.327515
 20
52.789734
 11
-231.327515
 21
46.553253
  0
LINE
  8
0
 10
-229.327515
 20
51.639740
 11
-229.327515
 21
52.339752
  0
LINE
  8
0
 10
-231.327515
 20
56.189758
 11
-231.327515
 21
60.489746
  0
LINE
  8
0
 10
-223.727524
 20
44.489700
 11
-227.827560
 21
44.489700
  0
LINE
  8
0
 10
-231.327515
 20
81.489738
 11
-231.327515
 21
61.489738
  0
LINE
  8
0
 10
-229.327560
 20
52.789688
 11
-231.327560
 21
52.789688
  0
LINE
  8
0
 10
-229.327560
 20
56.189713
 11
-231.327560
 21
56.189713
  0
LINE
  8
0
 10
-229.327515
 20
57.339722
 11
-229.327515
 21
56.189728
  0
LINE
  8
0
 10
-226.827560
 20
57.339706
 11
-229.327560
 21
57.339706
  0
LINE
  8
0
 10
-226.827515
 20
51.639771
 11
-226.827515
 21
57.339752
  0
LINE
  8
0
 10
-229.327515
 20
51.639740
 11
-229.327515
 21
52.789734
  0
LINE
  8
0
 10
-226.827560
 20
51.639694
 11
-229.327560
 21
51.639694
  0
LINE
  8
0
 10
-224.171844
 20
56.739750
 11
-226.192581
 21
60.239754
  0
LINE
  8
0
 10
-221.827560
 20
56.489700
 11
-223.738724
 21
56.489700
  0
LINE
  8
0
 10
-221.827560
 20
56.989700
 11
-222.827560
 21
56.989700
  0
LINE
  8
0
 10
-222.827515
 20
61.489723
 11
-222.827515
 21
56.989731
  0
LINE
  8
0
 10
-217.327530
 20
17.089432
 11
-212.327530
 21
17.089432
  0
LINE
  8
0
 10
-212.327515
 20
17.089462
 11
-212.327515
 21
21.089462
  0
LINE
  8
0
 10
-217.327515
 20
17.089462
 11
-217.327515
 21
21.089462
  0
LINE
  8
0
 10
-217.327530
 20
21.089436
 11
-212.327530
 21
21.089436
  0
LINE
  8
0
 10
-218.827499
 20
29.589436
 11
-210.827499
 21
29.589436
  0
LINE
  8
0
 10
-218.827530
 20
28.789448
 11
-210.827530
 21
28.789448
  0
LINE
  8
0
 10
-218.827530
 20
26.289448
 11
-210.827530
 21
26.289448
  0
LINE
  8
0
 10
-210.827515
 20
26.289474
 11
-210.827515
 21
28.789474
  0
LINE
  8
0
 10
-218.827515
 20
26.289474
 11
-218.827515
 21
28.789474
  0
LINE
  8
0
 10
-212.327515
 20
28.789505
 11
-212.327515
 21
29.589493
  0
LINE
  8
0
 10
-217.327515
 20
28.789505
 11
-217.327515
 21
29.589493
  0
LINE
  8
0
 10
-216.327515
 20
21.089523
 11
-216.327515
 21
26.289536
  0
LINE
  8
0
 10
-213.327515
 20
21.089523
 11
-213.327515
 21
26.289536
  0
LINE
  8
0
 62
     2
 10
-213.598022
 20
21.089523
 11
-213.598022
 21
26.289536
  0
LINE
  8
0
 62
     2
 10
-216.057007
 20
21.089523
 11
-216.057007
 21
26.289536
  0
LINE
  8
0
 10
-211.577515
 20
42.589523
 11
-211.577515
 21
44.489700
  0
LINE
  8
0
 10
-218.077515
 20
42.589523
 11
-218.077515
 21
44.489700
  0
LINE
  8
0
 10
-219.727493
 20
33.589436
 11
-217.827530
 21
33.589436
  0
LINE
  8
0
 10
-219.727493
 20
42.589436
 11
-217.250839
 21
42.589436
  0
LINE
  8
0
 10
-210.827515
 20
29.589493
 11
-210.827515
 21
33.589523
  0
LINE
  8
0
 10
-218.827515
 20
29.589493
 11
-218.827515
 21
33.589523
  0
LINE
  8
0
 10
-214.827515
 20
29.946762
 11
-214.827515
 21
32.589462
  0
LINE
  8
0
 10
-209.927521
 20
33.589523
 11
-209.927521
 21
36.594467
  0
LINE
  8
0
 10
-219.727509
 20
33.589523
 11
-219.727509
 21
36.594467
  0
LINE
  8
0
 10
-211.827530
 20
33.589436
 11
-209.927505
 21
33.589436
  0
LINE
  8
0
 10
-209.927521
 20
38.584488
 11
-209.927521
 21
42.589523
  0
LINE
  8
0
 10
-219.727509
 20
38.584488
 11
-219.727509
 21
42.589523
  0
LINE
  8
0
 10
-222.827560
 20
61.489693
 11
-231.327560
 21
61.489693
  0
LINE
  8
0
 10
-222.827560
 20
107.489693
 11
-231.327560
 21
107.489693
  0
LINE
  8
0
 10
-226.625473
 20
60.489700
 11
-231.327560
 21
60.489700
  0
LINE
  8
0
 10
-226.625473
 20
108.489700
 11
-231.327560
 21
108.489700
  0
LINE
  8
0
 10
-222.327515
 20
56.989731
 11
-222.327515
 21
111.989716
  0
LINE
  8
0
 10
-221.827560
 20
115.789688
 11
-218.227524
 21
115.789688
  0
LINE
  8
0
 10
-219.727524
 20
53.189713
 11
-221.827560
 21
53.189713
  0
LINE
  8
0
 10
-201.527496
 20
64.189751
 11
-201.527496
 21
104.789726
  0
LINE
  8
0
 10
-201.827515
 20
52.639725
 11
-201.827515
 21
44.689743
  0
LINE
  8
0
 10
-212.327515
 20
119.789734
 11
-212.327515
 21
124.289734
  0
LINE
  8
0
 10
-206.327560
 20
119.789703
 11
-212.327560
 21
119.789703
  0
LINE
  8
0
 10
-206.327515
 20
119.789734
 11
-206.327515
 21
124.289734
  0
LINE
  8
0
 10
-219.927536
 20
121.189697
 11
-218.227524
 21
121.189697
  0
LINE
  8
0
 10
-219.927521
 20
47.789719
 11
-219.927521
 21
44.489731
  0
LINE
  8
0
 10
-219.927536
 20
47.789688
 11
-218.227524
 21
47.789688
  0
LINE
  8
0
 10
-216.327560
 20
44.489700
 11
-219.927536
 21
44.489700
  0
LINE
  8
0
 10
-206.477524
 20
119.989685
 11
-212.177536
 21
119.989685
  0
LINE
  8
0
 10
-206.477509
 20
119.989716
 11
-206.477509
 21
122.489716
  0
LINE
  8
0
 10
-212.177521
 20
119.989716
 11
-212.177521
 21
122.489716
  0
LINE
  8
0
 10
-211.027542
 20
122.489685
 11
-212.177536
 21
122.489685
  0
LINE
  8
0
 10
-212.327560
 20
124.289703
 11
-218.227524
 21
124.289703
  0
LINE
  8
0
 10
-211.027496
 20
122.489716
 11
-211.027496
 21
124.489716
  0
LINE
  8
0
 10
-207.627533
 20
122.489716
 11
-207.627533
 21
124.489716
  0
LINE
  8
0
 10
-207.627548
 20
122.489685
 11
-206.477524
 21
122.489685
  0
LINE
  8
0
 10
-201.327560
 20
44.489700
 11
-207.627548
 21
44.489700
  0
LINE
  8
0
 10
-201.827560
 20
44.689682
 11
-206.327560
 21
44.689682
  0
LINE
  8
0
 10
-206.327515
 20
49.189713
 11
-206.327515
 21
44.689713
  0
LINE
  8
0
 10
-206.477509
 20
48.989731
 11
-206.477509
 21
46.489731
  0
LINE
  8
0
 10
-207.627548
 20
46.489700
 11
-206.477524
 21
46.489700
  0
LINE
  8
0
 10
-206.477524
 20
48.989700
 11
-210.208725
 21
48.989700
  0
LINE
  8
0
 10
-206.327560
 20
49.189682
 11
-210.208725
 21
49.189682
  0
LINE
  8
0
 10
-213.598022
 20
42.589436
 11
-212.462570
 21
42.589436
  0
LINE
  8
0
 10
-217.327530
 20
151.889954
 11
-212.327530
 21
151.889954
  0
LINE
  8
0
 10
-212.327515
 20
151.889984
 11
-212.327515
 21
147.889984
  0
LINE
  8
0
 10
-217.327515
 20
151.889984
 11
-217.327515
 21
147.889984
  0
LINE
  8
0
 10
-217.327530
 20
147.889954
 11
-212.327530
 21
147.889954
  0
LINE
  8
0
 10
-218.827499
 20
139.389954
 11
-210.827499
 21
139.389954
  0
LINE
  8
0
 10
-218.827530
 20
140.189941
 11
-210.827530
 21
140.189941
  0
LINE
  8
0
 10
-218.827530
 20
142.689941
 11
-210.827530
 21
142.689941
  0
LINE
  8
0
 10
-210.827515
 20
142.689972
 11
-210.827515
 21
140.189972
  0
LINE
  8
0
 10
-218.827515
 20
142.689972
 11
-218.827515
 21
140.189972
  0
LINE
  8
0
 10
-212.327515
 20
140.189941
 11
-212.327515
 21
139.389954
  0
LINE
  8
0
 10
-217.327515
 20
140.189941
 11
-217.327515
 21
139.389954
  0
LINE
  8
0
 10
-216.327515
 20
147.889954
 11
-216.327515
 21
142.689941
  0
LINE
  8
0
 10
-213.327515
 20
147.889954
 11
-213.327515
 21
142.689941
  0
LINE
  8
0
 62
     2
 10
-213.598022
 20
147.889954
 11
-213.598022
 21
142.689941
  0
LINE
  8
0
 62
     2
 10
-216.057007
 20
147.889954
 11
-216.057007
 21
142.689941
  0
LINE
  8
0
 10
-211.577515
 20
126.389923
 11
-211.577515
 21
124.489716
  0
LINE
  8
0
 10
-218.077515
 20
126.389923
 11
-218.077515
 21
124.489716
  0
LINE
  8
0
 10
-219.727493
 20
126.389954
 11
-209.927536
 21
126.389954
  0
LINE
  8
0
 10
-210.827515
 20
139.389954
 11
-210.827515
 21
135.389923
  0
LINE
  8
0
 10
-218.827515
 20
139.389954
 11
-218.827515
 21
135.389923
  0
LINE
  8
0
 10
-214.827515
 20
139.032684
 11
-214.827515
 21
135.389984
  0
LINE
  8
0
 10
-219.727524
 20
135.389954
 11
-209.927505
 21
135.389954
  0
LINE
  8
0
 10
-209.927521
 20
135.389984
 11
-209.927521
 21
126.389923
  0
LINE
  8
0
 10
-219.727509
 20
135.389984
 11
-219.727509
 21
126.389923
  0
LINE
  8
0
 10
-214.827576
 20
97.870895
 11
-210.827576
 21
100.180298
  0
LINE
  8
0
 10
-218.827621
 20
100.180328
 11
-214.827591
 21
97.870911
  0
LINE
  8
0
 10
-218.827515
 20
104.799126
 11
-218.827515
 21
100.180321
  0
LINE
  8
0
 10
-218.827576
 20
104.799187
 11
-214.827560
 21
107.108589
  0
LINE
  8
0
 10
-214.827591
 20
107.108505
 11
-210.827560
 21
104.799088
  0
LINE
  8
0
 10
-210.827515
 20
104.799126
 11
-210.827515
 21
100.180321
  0
LINE
  8
0
 10
-219.809265
 20
66.062271
 11
-220.429886
 21
66.007973
  0
LINE
  8
0
 10
-219.809265
 20
66.916946
 11
-220.429886
 21
66.971237
  0
LINE
  8
0
 10
-201.327530
 20
124.489685
 11
-207.627548
 21
124.489685
  0
LINE
  8
0
  6
CENTER
 62
     2
 10
-192.084885
 20
84.489693
 11
-237.271835
 21
84.489693
  0
LINE
  8
0
 62
     4
 10
-222.827560
 20
48.989700
 11
-219.446320
 21
48.989700
  0
LINE
  8
0
 62
     4
 10
-220.827515
 20
48.989670
 11
-220.827515
 21
46.989670
  0
LINE
  8
0
 62
     4
 10
-222.827515
 20
48.989670
 11
-222.827515
 21
46.989670
  0
LINE
  8
0
 62
     4
 10
-222.127548
 20
46.389694
 11
-221.527542
 21
46.389694
  0
LINE
  8
0
 62
     4
 10
-220.227509
 20
47.489670
 11
-220.227509
 21
47.189651
  0
LINE
  8
0
 62
     4
 10
-224.427536
 20
48.389694
 11
-222.827560
 21
48.389694
  0
LINE
  8
0
 62
     4
 10
-224.427521
 20
48.389664
 11
-224.427521
 21
47.789658
  0
LINE
  8
0
 62
     4
 10
-223.427536
 20
47.189682
 11
-222.827560
 21
47.189682
  0
LINE
  8
0
 62
     4
 10
-223.427521
 20
47.489670
 11
-223.427521
 21
47.189651
  0
LINE
  8
0
 62
     4
 10
-220.227524
 20
47.189682
 11
-220.827560
 21
47.189682
  0
LINE
  8
0
 62
     4
 10
-219.227524
 20
48.389694
 11
-220.827560
 21
48.389694
  0
LINE
  8
0
 62
     4
 10
-221.227509
 20
48.989670
 11
-221.227509
 21
46.989670
  0
LINE
  8
0
 62
     4
 10
-222.427521
 20
48.989670
 11
-222.427521
 21
46.989670
  0
LINE
  8
0
 62
     4
 10
-221.527496
 20
46.389664
 11
-221.527496
 21
45.714462
  0
LINE
  8
0
 62
     4
 10
-219.227509
 20
48.389664
 11
-219.227509
 21
47.789658
  0
LINE
  8
0
 62
     4
 10
-223.577560
 20
46.989700
 11
-220.077560
 21
46.989700
  0
LINE
  8
0
 62
     4
 10
-222.127533
 20
46.389664
 11
-222.127533
 21
45.714462
  0
LINE
  8
0
 62
     4
 10
-222.327515
 20
52.989670
 11
-222.327515
 21
48.989670
  0
LINE
  8
0
  6
CENTER
 62
     2
 10
-147.356567
 20
-25.010187
 11
206.971954
 21
-25.010187
  0
LINE
  8
0
 10
-128.450806
 20
-29.010185
 11
-128.450806
 21
-19.010155
  0
LINE
  8
0
 10
-127.650803
 20
-19.010185
 11
-128.450806
 21
-19.010185
  0
LINE
  8
0
 10
-121.950806
 20
-11.510212
 11
178.049164
 21
-11.510212
  0
LINE
  8
0
 10
-121.950806
 20
-41.510208
 11
178.049164
 21
-41.510208
  0
LINE
  8
0
 10
-121.950806
 20
-17.810204
 11
178.049164
 21
-17.810204
  0
LINE
  8
0
 10
-121.950806
 20
-11.510176
 11
-121.950806
 21
-30.110170
  0
LINE
  8
0
 10
-127.650803
 20
-12.010212
 11
-121.950806
 21
-12.010212
  0
LINE
  8
0
 10
97.458199
 20
-21.010401
 11
99.767578
 21
-25.010307
  0
LINE
  8
0
 10
90.530083
 20
-25.010338
 11
92.839470
 21
-29.010313
  0
LINE
  8
0
 10
97.458519
 20
-29.010155
 11
92.839714
 21
-29.010155
  0
LINE
  8
0
 10
97.458549
 20
-21.010157
 11
92.839745
 21
-21.010157
  0
LINE
  8
0
 10
99.767967
 20
-25.010254
 11
97.458611
 21
-29.010212
  0
LINE
  8
0
 10
92.839668
 20
-21.010141
 11
90.530258
 21
-25.010143
  0
LINE
  8
0
 10
95.149132
 20
-29.910118
 11
83.349106
 21
-29.910118
  0
LINE
  8
0
 10
80.449120
 20
-30.010193
 11
80.449120
 21
-20.010193
  0
LINE
  8
0
 10
82.049126
 20
-30.010193
 11
82.049126
 21
-20.010193
  0
LINE
  8
0
 10
91.620682
 20
-28.410120
 11
89.149124
 21
-28.410120
  0
LINE
  8
0
 10
87.649132
 20
-29.910160
 11
87.649132
 21
-20.110172
  0
LINE
  8
0
 10
89.149132
 20
-28.410160
 11
89.149132
 21
-21.610172
  0
LINE
  8
0
 10
83.349113
 20
-29.910156
 11
83.349113
 21
-20.110168
  0
LINE
  8
0
 10
82.049118
 20
-30.010155
 11
80.449112
 21
-30.010155
  0
LINE
  8
0
 10
82.049126
 20
-20.010155
 11
80.449120
 21
-20.010155
  0
LINE
  8
0
 10
95.149132
 20
-20.110130
 11
83.349113
 21
-20.110130
  0
LINE
  8
0
 10
91.620689
 20
-21.610132
 11
89.149132
 21
-21.610132
  0
LINE
  8
0
 10
83.349106
 20
-28.260157
 11
82.049118
 21
-28.260157
  0
LINE
  8
0
 10
83.349113
 20
-21.760157
 11
82.049126
 21
-21.760157
  0
LINE
  8
0
 10
87.649384
 20
-29.910437
 11
89.149399
 21
-28.410421
  0
LINE
  8
0
 10
87.648979
 20
-20.110388
 11
89.148964
 21
-21.610382
  0
LINE
  8
0
 10
-138.550781
 20
-22.510201
 11
-145.550781
 21
-22.510201
  0
LINE
  8
0
 10
-138.150818
 20
-27.510201
 11
-145.550781
 21
-27.510201
  0
LINE
  8
0
 10
-145.550781
 20
-22.510174
 11
-145.550781
 21
-27.510174
  0
LINE
  8
0
 62
     2
 10
-138.167419
 20
-26.910202
 11
-145.550781
 21
-26.910202
  0
LINE
  8
0
 62
     2
 10
-138.550781
 20
-23.110199
 11
-145.550781
 21
-23.110199
  0
LINE
  8
0
 10
-128.450806
 20
-20.010185
 11
-128.750793
 21
-20.010185
  0
LINE
  8
0
 10
-138.150818
 20
-26.949234
 11
-138.150818
 21
-29.010183
  0
LINE
  8
0
 10
-121.950806
 20
-21.210209
 11
76.038551
 21
-21.210209
  0
LINE
  8
0
 10
-121.950806
 20
-13.510212
 11
178.049164
 21
-13.510212
  0
LINE
  8
0
 10
-127.650803
 20
-12.010175
 11
-127.650803
 21
-29.010172
  0
LINE
  8
0
 62
     4
 10
-89.450813
 20
-32.242229
 11
-89.450813
 21
-30.110176
  0
LINE
  8
0
 62
     4
 10
-90.450813
 20
-32.510208
 11
-99.404030
 21
-32.510208
  0
LINE
  8
0
 62
     4
 10
-115.450806
 20
-30.110172
 11
-115.450806
 21
-32.510174
  0
LINE
  8
0
 62
     4
 10
-115.450806
 20
-32.010208
 11
-145.894928
 21
-32.010208
  0
LINE
  8
0
 62
     4
 10
-121.950806
 20
-29.010208
 11
-145.091064
 21
-29.010208
  0
LINE
  8
0
 62
     4
 10
-104.404022
 20
-30.110174
 11
-104.404022
 21
-33.910172
  0
LINE
  8
0
 62
     4
 10
-99.404030
 20
-30.110174
 11
-99.404030
 21
-33.910172
  0
LINE
  8
0
 62
     4
 10
-104.404022
 20
-32.510208
 11
-115.450806
 21
-32.510208
  0
LINE
  8
0
 62
     4
 10
-90.450813
 20
-32.510178
 11
-90.450813
 21
-30.110176
  0
LINE
  8
0
 62
     4
 10
-89.450874
 20
-32.242168
 11
-90.450844
 21
-32.510113
  0
LINE
  8
0
 10
-121.950806
 20
-33.910206
 11
178.049164
 21
-33.910206
  0
LINE
  8
0
 10
-99.404030
 20
-32.710209
 11
178.049164
 21
-32.710209
  0
LINE
  8
0
 10
-121.950806
 20
-32.710209
 11
-104.404022
 21
-32.710209
  0
LINE
  8
0
 10
-121.950806
 20
-28.410202
 11
-127.650803
 21
-28.410202
  0
LINE
  8
0
 10
-121.950806
 20
-22.510201
 11
-127.650803
 21
-22.510201
  0
LINE
  8
0
 10
-121.950806
 20
-16.510201
 11
-127.650803
 21
-16.510201
  0
LINE
  8
0
 62
     2
 10
-146.633286
 20
-34.765053
 11
-144.380142
 21
-26.356298
  0
LINE
  8
0
 10
-121.950806
 20
-32.010170
 11
-121.950806
 21
-41.510178
  0
LINE
  8
0
 10
178.049103
 20
-30.110207
 11
-121.950806
 21
-30.110207
  0
LINE
  8
0
 10
184.549103
 20
-21.010212
 11
184.549103
 21
-19.010204
  0
LINE
  8
0
 10
183.749115
 20
-19.010185
 11
184.549103
 21
-19.010185
  0
LINE
  8
0
 10
178.049103
 20
-11.510221
 11
178.049103
 21
-41.510231
  0
LINE
  8
0
 10
183.749115
 20
-12.010212
 11
178.049103
 21
-12.010212
  0
LINE
  8
0
 10
194.649078
 20
-22.510225
 11
194.649078
 21
-13.210205
  0
LINE
  8
0
 10
194.749115
 20
-10.310200
 11
184.749115
 21
-10.310200
  0
LINE
  8
0
 10
194.749115
 20
-11.910206
 11
184.749115
 21
-11.910206
  0
LINE
  8
0
 10
193.149078
 20
-20.010212
 11
193.149078
 21
-19.010212
  0
LINE
  8
0
 10
194.649078
 20
-17.510201
 11
184.849091
 21
-17.510201
  0
LINE
  8
0
 10
193.149078
 20
-19.010201
 11
186.349091
 21
-19.010201
  0
LINE
  8
0
 10
194.649078
 20
-13.210194
 11
184.849091
 21
-13.210194
  0
LINE
  8
0
 10
194.749115
 20
-11.910217
 11
194.749115
 21
-10.310211
  0
LINE
  8
0
 10
184.749115
 20
-11.910216
 11
184.749115
 21
-10.310210
  0
LINE
  8
0
 10
184.849091
 20
-21.010212
 11
184.849091
 21
-13.210204
  0
LINE
  8
0
 10
186.349091
 20
-20.010212
 11
186.349091
 21
-19.010212
  0
LINE
  8
0
 10
192.999115
 20
-13.210205
 11
192.999115
 21
-11.910217
  0
LINE
  8
0
 10
186.499115
 20
-13.210204
 11
186.499115
 21
-11.910216
  0
LINE
  8
0
 10
194.649445
 20
-17.510574
 11
193.149429
 21
-19.010584
  0
LINE
  8
0
 10
184.849274
 20
-17.510077
 11
186.349274
 21
-19.010078
  0
LINE
  8
0
 10
187.749176
 20
-22.510201
 11
201.649078
 21
-22.510201
  0
LINE
  8
0
 10
187.749176
 20
-27.510201
 11
201.649078
 21
-27.510201
  0
LINE
  8
0
 10
201.649078
 20
-22.510227
 11
201.649078
 21
-27.510227
  0
LINE
  8
0
 62
     2
 10
187.749176
 20
-26.910202
 11
201.649078
 21
-26.910202
  0
LINE
  8
0
 62
     2
 10
187.749176
 20
-23.110199
 11
201.649078
 21
-23.110199
  0
LINE
  8
0
 10
184.549103
 20
-20.010185
 11
184.849091
 21
-20.010185
  0
LINE
  8
0
 10
178.049103
 20
-21.210209
 11
98.242699
 21
-21.210209
  0
LINE
  8
0
 10
178.049103
 20
-32.010201
 11
183.749115
 21
-32.010201
  0
LINE
  8
0
 10
183.749115
 20
-12.010222
 11
183.749115
 21
-32.010223
  0
LINE
  8
0
 10
178.049103
 20
-28.410202
 11
183.749115
 21
-28.410202
  0
LINE
  8
0
 10
178.049103
 20
-22.510201
 11
183.749115
 21
-22.510201
  0
LINE
  8
0
 10
178.049103
 20
-16.510201
 11
183.749115
 21
-16.510201
  0
LINE
  8
0
 10
183.749115
 20
-29.010187
 11
187.749176
 21
-29.010187
  0
LINE
  8
0
 10
183.749115
 20
-21.010187
 11
187.749176
 21
-21.010187
  0
LINE
  8
0
 10
187.749176
 20
-29.010212
 11
187.749176
 21
-21.010212
  0
LINE
  8
0
 10
187.391907
 20
-25.010187
 11
183.749115
 21
-25.010187
  0
LINE
  8
0
 10
-129.650818
 20
-27.319555
 11
-130.847153
 21
-28.010267
  0
LINE
  8
0
 10
-133.650970
 20
-20.391130
 11
-137.650955
 21
-22.700518
  0
LINE
  8
0
 10
-137.650818
 20
-27.319550
 11
-137.650818
 21
-22.700745
  0
LINE
  8
0
 10
-129.650818
 20
-27.319580
 11
-129.650818
 21
-22.700775
  0
LINE
  8
0
 10
-136.454590
 20
-28.010193
 11
-137.650772
 21
-27.319584
  0
LINE
  8
0
 10
-129.650711
 20
-22.700647
 11
-133.650711
 21
-20.391241
  0
LINE
  8
0
 10
-138.550781
 20
-25.010162
 11
-138.550781
 21
-13.210155
  0
LINE
  8
0
 10
-138.650818
 20
-10.310200
 11
-128.650818
 21
-10.310200
  0
LINE
  8
0
 10
-138.650818
 20
-11.910206
 11
-128.650818
 21
-11.910206
  0
LINE
  8
0
 10
-137.050781
 20
-21.481720
 11
-137.050781
 21
-19.010162
  0
LINE
  8
0
 10
-138.550781
 20
-17.510201
 11
-128.750793
 21
-17.510201
  0
LINE
  8
0
 10
-137.050781
 20
-19.010201
 11
-130.250793
 21
-19.010201
  0
LINE
  8
0
 10
-138.550781
 20
-13.210194
 11
-128.750793
 21
-13.210194
  0
LINE
  8
0
 10
-138.650818
 20
-11.910168
 11
-138.650818
 21
-10.310162
  0
LINE
  8
0
 10
-128.650818
 20
-11.910169
 11
-128.650818
 21
-10.310163
  0
LINE
  8
0
 10
-128.750793
 20
-25.010162
 11
-128.750793
 21
-13.210156
  0
LINE
  8
0
 10
-130.250793
 20
-21.481720
 11
-130.250793
 21
-19.010162
  0
LINE
  8
0
 10
-136.900818
 20
-13.210155
 11
-136.900818
 21
-11.910168
  0
LINE
  8
0
 10
-130.400818
 20
-13.210156
 11
-130.400818
 21
-11.910169
  0
LINE
  8
0
 10
-138.551041
 20
-17.510418
 11
-137.051025
 21
-19.010427
  0
LINE
  8
0
 10
-128.751129
 20
-17.509928
 11
-130.251129
 21
-19.009926
  0
LINE
  8
0
 10
80.449120
 20
-21.210209
 11
76.038597
 21
-21.210209
  0
LINE
  8
0
  6
CENTER
 62
     2
 10
28.049147
 20
-3.680681
 11
28.049147
 21
-44.617012
  0
LINE
  8
0
  6
CENTER
 62
     2
 10
-4.450853
 20
-3.680676
 11
-4.450853
 21
-44.617008
  0
LINE
  8
0
  6
CENTER
 62
     2
 10
60.549149
 20
-3.680686
 11
60.549149
 21
-44.617016
  0
LINE
  8
0
 62
     4
 10
-101.055542
 20
-32.858746
 11
-102.752594
 21
-31.161695
  0
LINE
  8
0
 62
     4
 10
-101.055527
 20
-31.161636
 11
-102.752579
 21
-32.858688
  0
LINE
  8
0
 10
184.849091
 20
-20.010187
 11
194.649078
 21
-20.010187
  0
LINE
  8
0
  6
CENTER
 62
     2
 10
-131.877930
 20
-124.510223
 11
189.429718
 21
-124.510223
  0
LINE
  8
0
 10
-121.818626
 20
-164.510223
 11
178.181458
 21
-164.510223
  0
LINE
  8
0
 10
-121.818626
 20
-84.510223
 11
178.181458
 21
-84.510223
  0
LINE
  8
0
 10
90.781448
 20
-103.010231
 11
90.781448
 21
-111.510239
  0
LINE
  8
0
 10
100.681442
 20
-111.510231
 11
90.781448
 21
-111.510231
  0
LINE
  8
0
 10
99.381424
 20
-103.010231
 11
90.781448
 21
-103.010231
  0
LINE
  8
0
 10
100.681442
 20
-101.510201
 11
99.381439
 21
-101.510201
  0
LINE
  8
0
 10
111.181473
 20
-120.010216
 11
136.281479
 21
-120.010216
  0
LINE
  8
0
 10
111.181473
 20
-129.010223
 11
136.281479
 21
-129.010223
  0
LINE
  8
0
 10
178.181488
 20
-84.710213
 11
183.881500
 21
-84.710213
  0
LINE
  8
0
 10
178.181488
 20
-164.310242
 11
183.881470
 21
-164.310242
  0
LINE
  8
0
 10
109.281448
 20
-110.510216
 11
136.281479
 21
-110.510216
  0
LINE
  8
0
 10
107.381454
 20
-101.510201
 11
107.781448
 21
-101.510201
  0
LINE
  8
0
 10
107.781433
 20
-100.510239
 11
107.781433
 21
-112.510239
  0
LINE
  8
0
 10
109.281433
 20
-100.510239
 11
109.281433
 21
-112.510239
  0
LINE
  8
0
 10
107.381454
 20
-111.510201
 11
107.781448
 21
-111.510201
  0
LINE
  8
0
 10
107.781448
 20
-100.510201
 11
109.281448
 21
-100.510201
  0
LINE
  8
0
 10
107.781448
 20
-112.510201
 11
109.281448
 21
-112.510201
  0
LINE
  8
0
 10
107.381439
 20
-148.510254
 11
107.381439
 21
-100.510254
  0
LINE
  8
0
 10
99.381409
 20
-101.510239
 11
99.381409
 21
-103.010239
  0
LINE
  8
0
 10
101.681442
 20
-114.010254
 11
101.681442
 21
-100.510254
  0
LINE
  8
0
 10
109.281448
 20
-102.510216
 11
136.281479
 21
-102.510216
  0
LINE
  8
0
 10
100.681442
 20
-112.510231
 11
100.681442
 21
-100.510239
  0
LINE
  8
0
 62
     2
 10
108.781494
 20
-140.510223
 11
107.381439
 21
-140.510223
  0
LINE
  8
0
 62
     2
 10
108.781494
 20
-144.510223
 11
107.381439
 21
-144.510223
  0
LINE
  8
0
 10
176.781433
 20
-109.260201
 11
175.281464
 21
-109.260201
  0
LINE
  8
0
 10
176.781403
 20
-109.260277
 11
176.781403
 21
-103.760277
  0
LINE
  8
0
 10
176.781433
 20
-103.760201
 11
175.281464
 21
-103.760201
  0
LINE
  8
0
 10
107.381439
 20
-140.010223
 11
108.781494
 21
-140.010223
  0
LINE
  8
0
 10
107.381439
 20
-145.010223
 11
108.781494
 21
-145.010223
  0
LINE
  8
0
 10
78.781433
 20
-140.010193
 11
93.381485
 21
-140.010193
  0
LINE
  8
0
 62
     2
 10
78.781448
 20
-140.610199
 11
93.381485
 21
-140.610199
  0
LINE
  8
0
 10
78.781433
 20
-145.010208
 11
93.381485
 21
-145.010208
  0
LINE
  8
0
 62
     2
 10
78.781433
 20
-144.410187
 11
93.381485
 21
-144.410187
  0
LINE
  8
0
 10
78.781433
 20
-140.010208
 11
78.781433
 21
-145.010223
  0
LINE
  8
0
 10
101.681473
 20
-112.510201
 11
100.681473
 21
-112.510201
  0
LINE
  8
0
 10
101.681473
 20
-100.510201
 11
100.681473
 21
-100.510201
  0
LINE
  8
0
 10
183.881439
 20
-84.710289
 11
183.881439
 21
-164.310287
  0
LINE
  8
0
 10
194.781464
 20
-146.010300
 11
194.781464
 21
-137.510223
  0
LINE
  8
0
 10
184.881439
 20
-137.510193
 11
194.781464
 21
-137.510193
  0
LINE
  8
0
 10
192.781464
 20
-173.610229
 11
187.781433
 21
-173.610229
  0
LINE
  8
0
 10
187.781433
 20
-173.610245
 11
187.781433
 21
-169.610245
  0
LINE
  8
0
 10
192.781464
 20
-173.610245
 11
192.781464
 21
-169.610245
  0
LINE
  8
0
 10
192.781464
 20
-169.610229
 11
187.781433
 21
-169.610229
  0
LINE
  8
0
 10
194.181488
 20
-146.610214
 11
186.381500
 21
-146.610214
  0
LINE
  8
0
 10
194.281494
 20
-161.110229
 11
186.281494
 21
-161.110229
  0
LINE
  8
0
 10
194.281464
 20
-161.910217
 11
186.281433
 21
-161.910217
  0
LINE
  8
0
 10
194.281464
 20
-164.410217
 11
186.281433
 21
-164.410217
  0
LINE
  8
0
 10
186.281433
 20
-164.410233
 11
186.281433
 21
-161.910233
  0
LINE
  8
0
 10
194.281464
 20
-164.410233
 11
194.281464
 21
-161.910233
  0
LINE
  8
0
 10
187.781433
 20
-161.910294
 11
187.781433
 21
-161.110306
  0
LINE
  8
0
 10
192.781464
 20
-161.910294
 11
192.781464
 21
-161.110306
  0
LINE
  8
0
 10
191.781464
 20
-169.610306
 11
191.781464
 21
-164.410294
  0
LINE
  8
0
 10
188.781433
 20
-169.610306
 11
188.781433
 21
-164.410294
  0
LINE
  8
0
 62
     2
 10
189.051941
 20
-169.610306
 11
189.051941
 21
-164.410294
  0
LINE
  8
0
 62
     2
 10
191.510956
 20
-169.610306
 11
191.510956
 21
-164.410294
  0
LINE
  8
0
 10
187.031433
 20
-148.110275
 11
187.031433
 21
-146.610291
  0
LINE
  8
0
 10
193.531464
 20
-148.110275
 11
193.531464
 21
-146.610291
  0
LINE
  8
0
 10
186.381470
 20
-146.610291
 11
186.381470
 21
-146.010300
  0
LINE
  8
0
 10
194.181488
 20
-146.610291
 11
194.181488
 21
-146.010300
  0
LINE
  8
0
 10
195.181488
 20
-157.110229
 11
185.381500
 21
-157.110229
  0
LINE
  8
0
 10
195.181488
 20
-148.110229
 11
185.381500
 21
-148.110229
  0
LINE
  8
0
 10
186.281433
 20
-161.110306
 11
186.281433
 21
-157.110275
  0
LINE
  8
0
 10
194.281464
 20
-161.110306
 11
194.281464
 21
-157.110275
  0
LINE
  8
0
 10
190.281433
 20
-160.753036
 11
190.281433
 21
-157.110275
  0
LINE
  8
0
 10
185.381470
 20
-157.110275
 11
185.381470
 21
-148.110275
  0
LINE
  8
0
 10
195.181488
 20
-157.110275
 11
195.181488
 21
-148.110275
  0
LINE
  8
0
 10
184.881439
 20
-147.510239
 11
186.181488
 21
-147.510239
  0
LINE
  8
0
 10
176.281494
 20
-138.510223
 11
175.281464
 21
-138.510223
  0
LINE
  8
0
 10
178.181458
 20
-147.510239
 11
177.781494
 21
-147.510239
  0
LINE
  8
0
 10
178.181458
 20
-137.510223
 11
177.781494
 21
-137.510223
  0
LINE
  8
0
 10
177.781494
 20
-148.510254
 11
176.281494
 21
-148.510254
  0
LINE
  8
0
 10
177.781494
 20
-136.510223
 11
176.281494
 21
-136.510223
  0
LINE
  8
0
 10
177.781464
 20
-136.510315
 11
177.781464
 21
-148.510300
  0
LINE
  8
0
 10
176.281464
 20
-136.510300
 11
176.281464
 21
-148.510300
  0
LINE
  8
0
 10
186.181458
 20
-147.510300
 11
186.181458
 21
-146.010300
  0
LINE
  8
0
 10
176.281494
 20
-146.510208
 11
175.281464
 21
-146.510208
  0
LINE
  8
0
 10
175.281433
 20
-148.510269
 11
175.281433
 21
-100.510284
  0
LINE
  8
0
 10
136.281448
 20
-100.510277
 11
136.281448
 21
-148.510269
  0
LINE
  8
0
 10
184.881439
 20
-136.510300
 11
184.881439
 21
-148.510300
  0
LINE
  8
0
 62
     2
 10
176.781433
 20
-108.510201
 11
178.181458
 21
-108.510201
  0
LINE
  8
0
 62
     2
 10
176.781433
 20
-104.510201
 11
178.181488
 21
-104.510201
  0
LINE
  8
0
 10
134.781509
 20
-139.760223
 11
136.281479
 21
-139.760223
  0
LINE
  8
0
 10
134.781479
 20
-139.760284
 11
134.781479
 21
-145.260284
  0
LINE
  8
0
 10
134.781509
 20
-145.260223
 11
136.281479
 21
-145.260223
  0
LINE
  8
0
 10
178.181458
 20
-109.010201
 11
176.781433
 21
-109.010201
  0
LINE
  8
0
 10
178.181458
 20
-104.010201
 11
176.781433
 21
-104.010201
  0
LINE
  8
0
 10
178.181458
 20
-164.510269
 11
178.181458
 21
-84.510277
  0
LINE
  8
0
 10
201.781464
 20
-109.010239
 11
187.881470
 21
-109.010239
  0
LINE
  8
0
 62
     2
 10
201.781464
 20
-108.410233
 11
187.881470
 21
-108.410233
  0
LINE
  8
0
 10
187.524200
 20
-104.200844
 11
183.881470
 21
-104.200844
  0
LINE
  8
0
 10
201.781464
 20
-104.010239
 11
187.881470
 21
-104.010239
  0
LINE
  8
0
 62
     2
 10
201.781464
 20
-104.610245
 11
187.881470
 21
-104.610245
  0
LINE
  8
0
 10
187.881470
 20
-110.510300
 11
187.881470
 21
-102.510139
  0
LINE
  8
0
 10
201.781464
 20
-109.010262
 11
201.781464
 21
-104.010269
  0
LINE
  8
0
 10
187.524200
 20
-111.129028
 11
183.881470
 21
-111.129028
  0
LINE
  8
0
 10
187.881500
 20
-110.510376
 11
187.524246
 21
-111.129150
  0
LINE
  8
0
 10
187.524200
 20
-108.819633
 11
183.881470
 21
-108.819633
  0
LINE
  8
0
 10
187.524200
 20
-101.891449
 11
183.881470
 21
-101.891449
  0
LINE
  8
0
 10
187.881760
 20
-102.510094
 11
187.524475
 21
-101.891296
  0
LINE
  8
0
 10
186.181488
 20
-146.010208
 11
194.781494
 21
-146.010208
  0
LINE
  8
0
 10
183.881470
 20
-136.510223
 11
184.881470
 21
-136.510223
  0
LINE
  8
0
 10
183.881470
 20
-148.510254
 11
184.881470
 21
-148.510254
  0
LINE
  8
0
 10
108.781479
 20
-140.010269
 11
108.781479
 21
-145.010269
  0
LINE
  8
0
 10
101.681458
 20
-114.010216
 11
97.381454
 21
-114.010216
  0
LINE
  8
0
 10
97.381439
 20
-148.510254
 11
97.381439
 21
-114.010246
  0
LINE
  8
0
 10
97.581421
 20
-72.910248
 11
97.581421
 21
-72.710251
  0
LINE
  8
0
 10
90.381454
 20
-73.610237
 11
90.381454
 21
-74.210243
  0
LINE
  8
0
 10
100.181427
 20
-73.610245
 11
100.181427
 21
-82.610245
  0
LINE
  8
0
 10
100.181465
 20
-82.610207
 11
90.381477
 21
-82.610207
  0
LINE
  8
0
 10
100.181465
 20
-73.610207
 11
90.381477
 21
-73.610207
  0
LINE
  8
0
 10
95.281471
 20
-76.910225
 11
87.781471
 21
-76.910225
  0
LINE
  8
0
 10
95.281471
 20
-78.310219
 11
87.781471
 21
-78.310219
  0
LINE
  8
0
 10
90.381493
 20
-74.210197
 11
91.681480
 21
-76.910179
  0
LINE
  8
0
 10
90.381317
 20
-81.010147
 11
91.681328
 21
-78.310112
  0
LINE
  8
0
 10
90.381454
 20
-81.010231
 11
90.381454
 21
-82.610237
  0
LINE
  8
0
 10
87.781471
 20
-72.710213
 11
83.481468
 21
-72.710213
  0
LINE
  8
0
 10
80.581436
 20
-72.610237
 11
80.581436
 21
-82.610237
  0
LINE
  8
0
 10
82.181442
 20
-72.610237
 11
82.181442
 21
-82.610237
  0
LINE
  8
0
 10
90.381477
 20
-74.210213
 11
89.281471
 21
-74.210213
  0
LINE
  8
0
 10
87.781448
 20
-72.710243
 11
87.781448
 21
-82.510231
  0
LINE
  8
0
 10
89.281448
 20
-74.210243
 11
89.281448
 21
-76.910225
  0
LINE
  8
0
 10
83.481430
 20
-72.710243
 11
83.481430
 21
-82.510231
  0
LINE
  8
0
 10
82.181480
 20
-72.610207
 11
80.581474
 21
-72.610207
  0
LINE
  8
0
 10
82.181465
 20
-82.610207
 11
80.581459
 21
-82.610207
  0
LINE
  8
0
 10
87.781471
 20
-82.510231
 11
83.481453
 21
-82.510231
  0
LINE
  8
0
 10
90.381477
 20
-81.010231
 11
89.281471
 21
-81.010231
  0
LINE
  8
0
 10
83.481468
 20
-74.360207
 11
82.181480
 21
-74.360207
  0
LINE
  8
0
 10
83.481453
 20
-80.860207
 11
82.181465
 21
-80.860207
  0
LINE
  8
0
 10
89.281448
 20
-78.310234
 11
89.281448
 21
-81.010231
  0
LINE
  8
0
 10
87.781487
 20
-72.710159
 11
89.281517
 21
-74.210182
  0
LINE
  8
0
 10
87.781448
 20
-82.510284
 11
89.281433
 21
-81.010292
  0
LINE
  8
0
 10
99.181465
 20
-84.110207
 11
91.381477
 21
-84.110207
  0
LINE
  8
0
 10
92.031448
 20
-82.610245
 11
92.031448
 21
-84.110245
  0
LINE
  8
0
 10
98.531433
 20
-82.610245
 11
98.531433
 21
-84.110245
  0
LINE
  8
0
 10
91.381454
 20
-84.110245
 11
91.381454
 21
-84.510254
  0
LINE
  8
0
 10
99.181427
 20
-84.110245
 11
99.181427
 21
-84.510254
  0
LINE
  8
0
 10
97.781441
 20
-57.110207
 11
92.781456
 21
-57.110207
  0
LINE
  8
0
 10
92.781448
 20
-57.110214
 11
92.781448
 21
-61.110218
  0
LINE
  8
0
 10
97.781433
 20
-57.110214
 11
97.781433
 21
-61.110218
  0
LINE
  8
0
 10
97.781441
 20
-61.110207
 11
92.781456
 21
-61.110207
  0
LINE
  8
0
 10
98.745583
 20
-69.610207
 11
91.817360
 21
-69.610207
  0
LINE
  8
0
 10
99.281441
 20
-68.810219
 11
91.281456
 21
-68.810219
  0
LINE
  8
0
 10
99.281441
 20
-66.310219
 11
91.281456
 21
-66.310219
  0
LINE
  8
0
 10
91.281448
 20
-66.310226
 11
91.281448
 21
-68.810226
  0
LINE
  8
0
 10
99.281433
 20
-66.310226
 11
99.281433
 21
-68.810226
  0
LINE
  8
0
 10
90.662643
 20
-69.967506
 11
90.662643
 21
-73.610237
  0
LINE
  8
0
 10
92.972061
 20
-69.967514
 11
92.972061
 21
-73.610245
  0
LINE
  8
0
 10
97.590851
 20
-69.967514
 11
97.590851
 21
-73.610245
  0
LINE
  8
0
 10
99.900238
 20
-69.967514
 11
99.900238
 21
-73.610245
  0
LINE
  8
0
 10
92.781448
 20
-68.810257
 11
92.781448
 21
-69.610245
  0
LINE
  8
0
 10
97.781433
 20
-68.810257
 11
97.781433
 21
-69.610245
  0
LINE
  8
0
 10
96.781433
 20
-61.110241
 11
96.781433
 21
-66.310257
  0
LINE
  8
0
 10
93.781448
 20
-61.110241
 11
93.781448
 21
-66.310257
  0
LINE
  8
0
 62
     2
 10
94.051956
 20
-61.110241
 11
94.051956
 21
-66.310257
  0
LINE
  8
0
 62
     2
 10
96.510925
 20
-61.110241
 11
96.510925
 21
-66.310257
  0
LINE
  8
0
 10
99.281433
 20
-102.410225
 11
91.281448
 21
-102.410225
  0
LINE
  8
0
 10
99.781448
 20
-100.910225
 11
90.781448
 21
-100.910225
  0
LINE
  8
0
 10
91.281448
 20
-103.010254
 11
91.281448
 21
-100.910248
  0
LINE
  8
0
 10
99.281433
 20
-103.010254
 11
99.281433
 21
-100.910248
  0
LINE
  8
0
 10
90.781448
 20
-100.910255
 11
90.781448
 21
-100.510254
  0
LINE
  8
0
 10
99.781433
 20
-100.910263
 11
99.781433
 21
-100.510254
  0
LINE
  8
0
 10
93.738724
 20
-147.128983
 11
97.381454
 21
-147.128983
  0
LINE
  8
0
 10
93.381363
 20
-146.510315
 11
93.738625
 21
-147.129089
  0
LINE
  8
0
 10
93.738724
 20
-144.819580
 11
97.381454
 21
-144.819580
  0
LINE
  8
0
 10
93.381424
 20
-138.510223
 11
93.381424
 21
-146.510391
  0
LINE
  8
0
 10
93.738724
 20
-137.891403
 11
97.381454
 21
-137.891403
  0
LINE
  8
0
 10
93.381302
 20
-138.510239
 11
93.738564
 21
-137.891449
  0
LINE
  8
0
 10
93.738724
 20
-140.200806
 11
97.381454
 21
-140.200806
  0
LINE
  8
0
 10
111.181458
 20
-120.010254
 11
111.181458
 21
-129.010254
  0
LINE
  8
0
 10
-121.818626
 20
-92.810226
 11
-8.237713
 21
-92.810226
  0
LINE
  8
0
 10
-121.818626
 20
-156.210236
 11
-8.237720
 21
-156.210236
  0
LINE
  8
0
 10
-121.818626
 20
-96.210220
 11
178.181458
 21
-96.210220
  0
LINE
  8
0
 10
-121.818626
 20
-152.810242
 11
178.181458
 21
-152.810242
  0
LINE
  8
0
 10
-121.818626
 20
-100.510223
 11
178.181458
 21
-100.510223
  0
LINE
  8
0
 10
-121.818626
 20
-148.510223
 11
178.181458
 21
-148.510223
  0
LINE
  8
0
 10
174.281464
 20
-147.510208
 11
166.281464
 21
-147.510208
  0
LINE
  8
0
 10
174.281464
 20
-101.510223
 11
166.281464
 21
-101.510223
  0
LINE
  8
0
 10
174.281464
 20
-121.510223
 11
166.281464
 21
-121.510223
  0
LINE
  8
0
 10
174.281464
 20
-127.510216
 11
166.281464
 21
-127.510216
  0
LINE
  8
0
 10
174.281433
 20
-148.510269
 11
174.281433
 21
-100.510284
  0
LINE
  8
0
 10
166.281433
 20
-148.510269
 11
166.281433
 21
-100.510284
  0
LINE
  8
0
 10
178.181488
 20
-93.310211
 11
183.881470
 21
-93.310211
  0
LINE
  8
0
 10
178.181488
 20
-155.710236
 11
183.881470
 21
-155.710236
  0
LINE
  8
0
  6
CENTER
 62
     2
 10
28.181465
 20
-81.612709
 11
28.181465
 21
-167.571198
  0
LINE
  8
0
 10
-34.418571
 20
-146.010223
 11
-34.418571
 21
-137.510193
  0
LINE
  8
0
 10
-44.318581
 20
-137.510208
 11
-34.418575
 21
-137.510208
  0
LINE
  8
0
 10
-43.018547
 20
-146.010208
 11
-34.418575
 21
-146.010208
  0
LINE
  8
0
 10
-44.318581
 20
-147.510239
 11
-42.918571
 21
-147.510239
  0
LINE
  8
0
 10
-54.818604
 20
-129.010223
 11
-79.918594
 21
-129.010223
  0
LINE
  8
0
 10
-54.818604
 20
-120.010223
 11
-79.918594
 21
-120.010223
  0
LINE
  8
0
 10
-121.818626
 20
-164.310242
 11
-127.518608
 21
-164.310242
  0
LINE
  8
0
 10
-121.818626
 20
-84.710220
 11
-127.518608
 21
-84.710220
  0
LINE
  8
0
 10
-52.918579
 20
-138.510223
 11
-79.918594
 21
-138.510223
  0
LINE
  8
0
 10
-51.018578
 20
-147.510239
 11
-51.418571
 21
-147.510239
  0
LINE
  8
0
 10
-51.418571
 20
-148.510239
 11
-51.418571
 21
-136.510223
  0
LINE
  8
0
 10
-52.918579
 20
-148.510239
 11
-52.918579
 21
-136.510223
  0
LINE
  8
0
 10
-51.018578
 20
-137.510239
 11
-51.418571
 21
-137.510239
  0
LINE
  8
0
 10
-51.418571
 20
-148.510254
 11
-52.918579
 21
-148.510254
  0
LINE
  8
0
 10
-51.418571
 20
-136.510239
 11
-52.918579
 21
-136.510239
  0
LINE
  8
0
 10
-51.018578
 20
-100.510208
 11
-51.018578
 21
-148.510208
  0
LINE
  8
0
 10
-45.318581
 20
-135.010208
 11
-45.318581
 21
-148.510208
  0
LINE
  8
0
 10
-52.918579
 20
-146.510223
 11
-79.918594
 21
-146.510223
  0
LINE
  8
0
 10
-44.318581
 20
-136.510223
 11
-44.318581
 21
-148.510239
  0
LINE
  8
0
 62
     2
 10
-52.418625
 20
-108.510208
 11
-51.018562
 21
-108.510208
  0
LINE
  8
0
 62
     2
 10
-52.418625
 20
-104.510208
 11
-51.018562
 21
-104.510208
  0
LINE
  8
0
 10
-120.418571
 20
-139.760239
 11
-118.918602
 21
-139.760239
  0
LINE
  8
0
 10
-120.418571
 20
-139.760193
 11
-120.418571
 21
-145.260193
  0
LINE
  8
0
 10
-120.418571
 20
-145.260239
 11
-118.918602
 21
-145.260239
  0
LINE
  8
0
 10
-51.018562
 20
-109.010208
 11
-52.418625
 21
-109.010208
  0
LINE
  8
0
 10
-51.018562
 20
-104.010208
 11
-52.418625
 21
-104.010208
  0
LINE
  8
0
 10
-22.418568
 20
-109.010246
 11
-37.018593
 21
-109.010246
  0
LINE
  8
0
 62
     2
 10
-22.418568
 20
-108.410240
 11
-37.018593
 21
-108.410240
  0
LINE
  8
0
 10
-22.418568
 20
-104.010239
 11
-37.018593
 21
-104.010239
  0
LINE
  8
0
 62
     2
 10
-22.418568
 20
-104.610245
 11
-37.018593
 21
-104.610245
  0
LINE
  8
0
 10
-22.418571
 20
-109.010239
 11
-22.418571
 21
-104.010231
  0
LINE
  8
0
 10
-45.318596
 20
-136.510239
 11
-44.318596
 21
-136.510239
  0
LINE
  8
0
 10
-45.318596
 20
-148.510254
 11
-44.318596
 21
-148.510254
  0
LINE
  8
0
 10
-127.518608
 20
-164.310181
 11
-127.518608
 21
-92.510201
  0
LINE
  8
0
 10
-138.418610
 20
-103.010185
 11
-138.418610
 21
-111.510216
  0
LINE
  8
0
 10
-128.518616
 20
-111.510239
 11
-138.418610
 21
-111.510239
  0
LINE
  8
0
 10
-136.418610
 20
-75.410233
 11
-131.418610
 21
-75.410233
  0
LINE
  8
0
 10
-131.418610
 20
-75.410210
 11
-131.418610
 21
-79.410210
  0
LINE
  8
0
 10
-136.418610
 20
-75.410202
 11
-136.418610
 21
-79.410202
  0
LINE
  8
0
 10
-136.418610
 20
-79.410233
 11
-131.418610
 21
-79.410233
  0
LINE
  8
0
 10
-137.818634
 20
-102.410233
 11
-130.018646
 21
-102.410233
  0
LINE
  8
0
 10
-137.918640
 20
-87.910233
 11
-129.918640
 21
-87.910233
  0
LINE
  8
0
 10
-137.918610
 20
-87.110245
 11
-129.918610
 21
-87.110245
  0
LINE
  8
0
 10
-137.918610
 20
-84.610245
 11
-129.918610
 21
-84.610245
  0
LINE
  8
0
 10
-129.918610
 20
-84.610222
 11
-129.918610
 21
-87.110222
  0
LINE
  8
0
 10
-137.918610
 20
-84.610214
 11
-137.918610
 21
-87.110214
  0
LINE
  8
0
 10
-131.418610
 20
-87.110191
 11
-131.418610
 21
-87.910179
  0
LINE
  8
0
 10
-136.418610
 20
-87.110184
 11
-136.418610
 21
-87.910172
  0
LINE
  8
0
 10
-135.418610
 20
-79.410179
 11
-135.418610
 21
-84.610191
  0
LINE
  8
0
 10
-132.418610
 20
-79.410179
 11
-132.418610
 21
-84.610191
  0
LINE
  8
0
 62
     2
 10
-132.689117
 20
-79.410179
 11
-132.689117
 21
-84.610191
  0
LINE
  8
0
 62
     2
 10
-135.148102
 20
-79.410179
 11
-135.148102
 21
-84.610191
  0
LINE
  8
0
 10
-130.668610
 20
-100.910194
 11
-130.668610
 21
-102.410194
  0
LINE
  8
0
 10
-137.168610
 20
-100.910194
 11
-137.168610
 21
-102.410194
  0
LINE
  8
0
 10
-130.018646
 20
-102.410194
 11
-130.018646
 21
-103.010185
  0
LINE
  8
0
 10
-137.818634
 20
-102.410194
 11
-137.818634
 21
-103.010185
  0
LINE
  8
0
 10
-138.818634
 20
-100.910233
 11
-129.018646
 21
-100.910233
  0
LINE
  8
0
 10
-129.918610
 20
-87.910179
 11
-129.918610
 21
-89.510201
  0
LINE
  8
0
 10
-137.918610
 20
-87.910172
 11
-137.918610
 21
-89.510193
  0
LINE
  8
0
 10
-133.918610
 20
-88.267448
 11
-133.918610
 21
-89.510201
  0
LINE
  8
0
 10
-129.018646
 20
-92.510201
 11
-129.018646
 21
-100.910194
  0
LINE
  8
0
 10
-138.818634
 20
-92.510193
 11
-138.818634
 21
-100.910194
  0
LINE
  8
0
 10
-128.518616
 20
-101.510208
 11
-129.818634
 21
-101.510208
  0
LINE
  8
0
 10
-119.918633
 20
-110.510223
 11
-118.918602
 21
-110.510223
  0
LINE
  8
0
 10
-121.818596
 20
-101.510208
 11
-121.418633
 21
-101.510208
  0
LINE
  8
0
 10
-121.818596
 20
-111.510208
 11
-121.418633
 21
-111.510208
  0
LINE
  8
0
 10
-121.418633
 20
-100.510208
 11
-119.918633
 21
-100.510208
  0
LINE
  8
0
 10
-121.418633
 20
-112.510208
 11
-119.918633
 21
-112.510208
  0
LINE
  8
0
 10
-121.418602
 20
-112.510170
 11
-121.418602
 21
-100.510185
  0
LINE
  8
0
 10
-119.918602
 20
-112.510170
 11
-119.918602
 21
-100.510185
  0
LINE
  8
0
 10
-129.818634
 20
-101.510185
 11
-129.818634
 21
-103.010185
  0
LINE
  8
0
 10
-119.918633
 20
-102.510223
 11
-118.918602
 21
-102.510223
  0
LINE
  8
0
 10
-118.918602
 20
-100.510201
 11
-118.918602
 21
-148.510193
  0
LINE
  8
0
 10
-79.918594
 20
-148.510193
 11
-79.918594
 21
-100.510208
  0
LINE
  8
0
 10
-128.518616
 20
-112.510185
 11
-128.518616
 21
-100.510185
  0
LINE
  8
0
 62
     2
 10
-120.418571
 20
-140.510239
 11
-121.818596
 21
-140.510239
  0
LINE
  8
0
 62
     2
 10
-120.418571
 20
-144.510239
 11
-121.818626
 21
-144.510239
  0
LINE
  8
0
 10
-78.418625
 20
-109.260208
 11
-79.918594
 21
-109.260208
  0
LINE
  8
0
 10
-78.418625
 20
-109.260193
 11
-78.418625
 21
-103.760193
  0
LINE
  8
0
 10
-78.418625
 20
-103.760208
 11
-79.918594
 21
-103.760208
  0
LINE
  8
0
 10
-121.818596
 20
-140.010239
 11
-120.418571
 21
-140.010239
  0
LINE
  8
0
 10
-121.818596
 20
-145.010239
 11
-120.418571
 21
-145.010239
  0
LINE
  8
0
 10
-121.818626
 20
-84.510201
 11
-121.818626
 21
-164.510193
  0
LINE
  8
0
 10
-145.418610
 20
-140.010193
 11
-131.518616
 21
-140.010193
  0
LINE
  8
0
 62
     2
 10
-145.418610
 20
-140.610199
 11
-131.518616
 21
-140.610199
  0
LINE
  8
0
 10
-131.161346
 20
-144.819595
 11
-127.518608
 21
-144.819595
  0
LINE
  8
0
 10
-145.418610
 20
-145.010193
 11
-131.518616
 21
-145.010193
  0
LINE
  8
0
 62
     2
 10
-145.418610
 20
-144.410187
 11
-131.518616
 21
-144.410187
  0
LINE
  8
0
 10
-131.518646
 20
-138.510178
 11
-131.518646
 21
-146.510330
  0
LINE
  8
0
 10
-145.418610
 20
-140.010178
 11
-145.418610
 21
-145.010178
  0
LINE
  8
0
 10
-131.161346
 20
-137.891418
 11
-127.518608
 21
-137.891418
  0
LINE
  8
0
 10
-131.518539
 20
-138.510178
 11
-131.161285
 21
-137.891388
  0
LINE
  8
0
 10
-131.161346
 20
-140.200806
 11
-127.518608
 21
-140.200806
  0
LINE
  8
0
 10
-131.161346
 20
-147.128983
 11
-127.518608
 21
-147.128983
  0
LINE
  8
0
 10
-131.518661
 20
-146.510178
 11
-131.161392
 21
-147.128967
  0
LINE
  8
0
 10
-129.818634
 20
-103.010239
 11
-138.418640
 21
-103.010239
  0
LINE
  8
0
 10
-127.518608
 20
-112.510208
 11
-128.518616
 21
-112.510208
  0
LINE
  8
0
 10
-127.518608
 20
-100.510208
 11
-128.518616
 21
-100.510208
  0
LINE
  8
0
 10
-52.418625
 20
-109.010193
 11
-52.418625
 21
-104.010193
  0
LINE
  8
0
 10
-45.318581
 20
-135.010223
 11
-41.018578
 21
-135.010223
  0
LINE
  8
0
 10
-41.018578
 20
-100.510216
 11
-41.018578
 21
-135.010208
  0
LINE
  8
0
 10
-41.218559
 20
-176.110214
 11
-41.218559
 21
-176.310226
  0
LINE
  8
0
 10
-34.018578
 20
-175.410233
 11
-34.018578
 21
-174.810226
  0
LINE
  8
0
 10
-43.818565
 20
-175.410233
 11
-43.818565
 21
-166.410233
  0
LINE
  8
0
 10
-43.818573
 20
-166.410248
 11
-34.018585
 21
-166.410248
  0
LINE
  8
0
 10
-43.818573
 20
-175.410248
 11
-34.018585
 21
-175.410248
  0
LINE
  8
0
 10
-38.918579
 20
-172.110229
 11
-31.418579
 21
-172.110229
  0
LINE
  8
0
 10
-38.918579
 20
-170.710236
 11
-31.418579
 21
-170.710236
  0
LINE
  8
0
 10
-34.018993
 20
-174.810440
 11
-35.318981
 21
-172.110443
  0
LINE
  8
0
 10
-34.018448
 20
-168.010330
 11
-35.318466
 21
-170.710342
  0
LINE
  8
0
 10
-34.018578
 20
-168.010239
 11
-34.018578
 21
-166.410233
  0
LINE
  8
0
 10
-31.418579
 20
-176.310242
 11
-27.118576
 21
-176.310242
  0
LINE
  8
0
 10
-24.218575
 20
-176.410233
 11
-24.218575
 21
-166.410233
  0
LINE
  8
0
 10
-25.818581
 20
-176.410233
 11
-25.818581
 21
-166.410233
  0
LINE
  8
0
 10
-34.018585
 20
-174.810242
 11
-32.918579
 21
-174.810242
  0
LINE
  8
0
 10
-31.418571
 20
-176.310226
 11
-31.418571
 21
-166.510239
  0
LINE
  8
0
 10
-32.918571
 20
-174.810226
 11
-32.918571
 21
-172.110245
  0
LINE
  8
0
 10
-27.118568
 20
-176.310226
 11
-27.118568
 21
-166.510239
  0
LINE
  8
0
 10
-25.818588
 20
-176.410248
 11
-24.218582
 21
-176.410248
  0
LINE
  8
0
 10
-25.818573
 20
-166.410248
 11
-24.218567
 21
-166.410248
  0
LINE
  8
0
 10
-31.418579
 20
-166.510223
 11
-27.118561
 21
-166.510223
  0
LINE
  8
0
 10
-34.018585
 20
-168.010223
 11
-32.918579
 21
-168.010223
  0
LINE
  8
0
 10
-27.118576
 20
-174.660248
 11
-25.818588
 21
-174.660248
  0
LINE
  8
0
 10
-27.118561
 20
-168.160248
 11
-25.818573
 21
-168.160248
  0
LINE
  8
0
 10
-32.918571
 20
-170.710220
 11
-32.918571
 21
-168.010239
  0
LINE
  8
0
 10
-31.419008
 20
-176.310699
 11
-32.919022
 21
-174.810684
  0
LINE
  8
0
 10
-31.418627
 20
-166.510132
 11
-32.918621
 21
-168.010117
  0
LINE
  8
0
 10
-42.818573
 20
-164.910248
 11
-35.018585
 21
-164.910248
  0
LINE
  8
0
 10
-35.668571
 20
-166.410233
 11
-35.668571
 21
-164.910233
  0
LINE
  8
0
 10
-42.168571
 20
-166.410233
 11
-42.168571
 21
-164.910233
  0
LINE
  8
0
 10
-35.018578
 20
-164.910233
 11
-35.018578
 21
-164.510208
  0
LINE
  8
0
 10
-42.818565
 20
-164.910233
 11
-42.818565
 21
-164.510208
  0
LINE
  8
0
 10
-41.418579
 20
-191.910248
 11
-36.418579
 21
-191.910248
  0
LINE
  8
0
 10
-36.418571
 20
-191.910233
 11
-36.418571
 21
-187.910233
  0
LINE
  8
0
 10
-41.418571
 20
-191.910233
 11
-41.418571
 21
-187.910233
  0
LINE
  8
0
 10
-41.418579
 20
-187.910248
 11
-36.418579
 21
-187.910248
  0
LINE
  8
0
 10
-42.382690
 20
-179.410248
 11
-35.454468
 21
-179.410248
  0
LINE
  8
0
 10
-42.918579
 20
-180.210236
 11
-34.918579
 21
-180.210236
  0
LINE
  8
0
 10
-42.918579
 20
-182.710236
 11
-34.918579
 21
-182.710236
  0
LINE
  8
0
 10
-34.918571
 20
-182.710220
 11
-34.918571
 21
-180.210220
  0
LINE
  8
0
 10
-42.918571
 20
-182.710220
 11
-42.918571
 21
-180.210220
  0
LINE
  8
0
 10
-34.299767
 20
-179.052963
 11
-34.299767
 21
-175.410233
  0
LINE
  8
0
 10
-36.609184
 20
-179.052963
 11
-36.609184
 21
-175.410233
  0
LINE
  8
0
 10
-41.227989
 20
-179.052963
 11
-41.227989
 21
-175.410233
  0
LINE
  8
0
 10
-43.537376
 20
-179.052963
 11
-43.537376
 21
-175.410233
  0
LINE
  8
0
 10
-36.418571
 20
-180.210220
 11
-36.418571
 21
-179.410233
  0
LINE
  8
0
 10
-41.418571
 20
-180.210220
 11
-41.418571
 21
-179.410233
  0
LINE
  8
0
 10
-40.418571
 20
-187.910233
 11
-40.418571
 21
-182.710220
  0
LINE
  8
0
 10
-37.418571
 20
-187.910233
 11
-37.418571
 21
-182.710220
  0
LINE
  8
0
 62
     2
 10
-37.689079
 20
-187.910233
 11
-37.689079
 21
-182.710220
  0
LINE
  8
0
 62
     2
 10
-40.148064
 20
-187.910233
 11
-40.148064
 21
-182.710220
  0
LINE
  8
0
 10
-42.918556
 20
-146.610214
 11
-34.918560
 21
-146.610214
  0
LINE
  8
0
 10
-43.418571
 20
-148.110229
 11
-34.418575
 21
-148.110229
  0
LINE
  8
0
 10
-34.918571
 20
-146.010193
 11
-34.918571
 21
-148.110214
  0
LINE
  8
0
 10
-42.918571
 20
-146.010193
 11
-42.918571
 21
-148.110214
  0
LINE
  8
0
 10
-34.418571
 20
-148.110214
 11
-34.418571
 21
-148.510208
  0
LINE
  8
0
 10
-43.418571
 20
-148.110214
 11
-43.418571
 21
-148.510208
  0
LINE
  8
0
 10
-37.375847
 20
-101.891449
 11
-41.018578
 21
-101.891449
  0
LINE
  8
0
 10
-37.018364
 20
-102.510071
 11
-37.375618
 21
-101.891289
  0
LINE
  8
0
 10
-37.375847
 20
-104.200851
 11
-41.018578
 21
-104.200851
  0
LINE
  8
0
 10
-37.018562
 20
-110.510239
 11
-37.018562
 21
-102.510078
  0
LINE
  8
0
 10
-37.375847
 20
-111.129036
 11
-41.018578
 21
-111.129036
  0
LINE
  8
0
 10
-37.018494
 20
-110.510246
 11
-37.375748
 21
-111.129028
  0
LINE
  8
0
 10
-37.375847
 20
-108.819641
 11
-41.018578
 21
-108.819641
  0
LINE
  8
0
 10
-54.818604
 20
-129.010208
 11
-54.818604
 21
-120.010208
  0
LINE
  8
0
 10
-117.918602
 20
-101.510223
 11
-109.918602
 21
-101.510223
  0
LINE
  8
0
 10
-117.918602
 20
-147.510208
 11
-109.918602
 21
-147.510208
  0
LINE
  8
0
 10
-117.918602
 20
-127.510216
 11
-109.918602
 21
-127.510216
  0
LINE
  8
0
 10
-117.918602
 20
-121.510223
 11
-109.918602
 21
-121.510223
  0
LINE
  8
0
 10
-117.918602
 20
-100.510201
 11
-117.918602
 21
-148.510193
  0
LINE
  8
0
 10
-109.918602
 20
-100.510201
 11
-109.918602
 21
-148.510193
  0
LINE
  8
0
 10
-121.818626
 20
-155.710236
 11
-127.518608
 21
-155.710236
  0
LINE
  8
0
 10
-121.818626
 20
-93.310219
 11
-127.518608
 21
-93.310219
  0
LINE
  8
0
  6
CENTER
 62
     2
 10
60.681473
 20
-87.401413
 11
60.681473
 21
-97.408516
  0
LINE
  8
0
  6
CENTER
 62
     2
 10
55.431114
 20
-92.010223
 11
66.421036
 21
-92.010223
  0
LINE
  8
0
 10
64.600647
 20
-92.810226
 11
178.181458
 21
-92.810226
  0
LINE
  8
0
  6
CENTER
 62
     2
 10
-4.318535
 20
-87.401413
 11
-4.318535
 21
-97.408501
  0
LINE
  8
0
  6
CENTER
 62
     2
 10
0.931837
 20
-92.010223
 11
-10.058109
 21
-92.010223
  0
LINE
  8
0
  6
CENTER
 62
     2
 10
60.681473
 20
-161.619049
 11
60.681473
 21
-151.611938
  0
LINE
  8
0
  6
CENTER
 62
     2
 10
55.431099
 20
-157.010223
 11
66.421036
 21
-157.010223
  0
LINE
  8
0
  6
CENTER
 62
     2
 10
-4.318535
 20
-161.619034
 11
-4.318535
 21
-151.611923
  0
LINE
  8
0
  6
CENTER
 62
     2
 10
0.931826
 20
-157.010223
 11
-10.058117
 21
-157.010223
  0
LINE
  8
0
 10
-0.399355
 20
-92.810226
 11
56.762291
 21
-92.810226
  0
LINE
  8
0
 10
-0.399366
 20
-156.210236
 11
56.762276
 21
-156.210236
  0
LINE
  8
0
 10
64.600632
 20
-156.210236
 11
178.181458
 21
-156.210236
  0
LINE
  8
0
 62
     4
 10
-121.818626
 20
-92.510223
 11
-142.896637
 21
-92.510223
  0
LINE
  8
0
 62
     4
 10
-121.818626
 20
-89.510223
 11
-142.092773
 21
-89.510223
  0
LINE
  8
0
 62
     1
 10
-143.501038
 20
-94.765091
 11
-141.247894
 21
-86.356331
  0
LINE
  8
0
 10
-127.518608
 20
-89.510201
 11
-127.518608
 21
-84.710197
  0
LINE
  8
0
 10
107.381439
 20
-139.760223
 11
97.381439
 21
-139.760223
  0
LINE
  8
0
 10
-51.018578
 20
-109.260208
 11
-41.018578
 21
-109.260208
  0
LINE
  8
0
 10
-51.018578
 20
-135.260223
 11
-45.318581
 21
-135.260223
  0
LINE
  8
0
 10
107.381439
 20
-113.760216
 11
101.681442
 21
-113.760216
  0
LINE
  8
0
  6
CENTER
 62
     2
 10
161.141876
 20
-139.510223
 11
180.054413
 21
-139.510223
  0
LINE
  8
0
  6
CENTER
 62
     2
 10
160.960052
 20
-109.510223
 11
180.236267
 21
-109.510223
  0
LINE
  8
0
  6
CENTER
 62
     2
 10
-104.778969
 20
-139.510223
 11
-123.691490
 21
-139.510223
  0
LINE
  8
0
  6
CENTER
 62
     2
 10
-104.597130
 20
-109.510223
 11
-123.873344
 21
-109.510223
  0
CIRCLE
  8
0
 62
     2
 10
60.549183
 20
51.989727
 40
2.000000
  0
CIRCLE
  8
0
 10
60.549183
 20
51.989727
 40
1.500000
  0
CIRCLE
  8
0
 62
     2
 10
60.549191
 20
116.989731
 40
2.000000
  0
CIRCLE
  8
0
 10
60.549191
 20
116.989731
 40
1.500000
  0
CIRCLE
  8
0
 10
28.049187
 20
51.989723
 40
3.000000
  0
ARC
  8
0
 10
28.049185
 20
115.989716
 40
3.000000
 50
180.000153
 51
0.000146
  0
ARC
  8
0
 10
185.704498
 20
69.953819
 40
2.044655
 50
325.615936
 51
34.384079
  0
ARC
  8
0
 10
180.106445
 20
66.489746
 40
7.642721
 50
342.412170
 51
17.588015
  0
ARC
  8
0
 10
185.704498
 20
63.025597
 40
2.044655
 50
325.615936
 51
34.384079
  0
ARC
  8
0
 10
188.149261
 20
115.312965
 40
5.776714
 50
69.743858
 51
110.256165
  0
ARC
  8
0
 10
192.149261
 20
115.312965
 40
5.776714
 50
69.743858
 51
110.256310
  0
CIRCLE
  8
0
 10
190.149292
 20
113.089699
 40
2.000000
  0
CIRCLE
  8
0
 10
190.149292
 20
113.089699
 40
5.000000
  0
ARC
  8
0
 10
98.613373
 20
31.634369
 40
2.044656
 50
235.615692
 51
304.384338
  0
ARC
  8
0
 10
91.685150
 20
31.634365
 40
2.044657
 50
235.615723
 51
304.384338
  0
ARC
  8
0
 10
95.149261
 20
37.232418
 40
7.642727
 50
252.412079
 51
287.588104
  0
ARC
  8
0
 10
86.649261
 20
32.689697
 40
0.500000
 50
0.000000
 51
23.577766
  0
CIRCLE
  8
0
 62
     2
 10
-4.450817
 20
116.989716
 40
2.000000
  0
CIRCLE
  8
0
 10
-4.450817
 20
116.989716
 40
1.500000
  0
CIRCLE
  8
0
 62
     2
 10
-4.450809
 20
51.989719
 40
2.000000
  0
CIRCLE
  8
0
 10
-4.450809
 20
51.989719
 40
1.500000
  0
ARC
  8
0
 10
-129.606140
 20
99.025604
 40
2.044655
 50
145.615921
 51
214.384079
  0
ARC
  8
0
 10
-124.008095
 20
102.489677
 40
7.642714
 50
162.412170
 51
197.587997
  0
ARC
  8
0
 10
-129.606140
 20
105.953819
 40
2.044655
 50
145.615921
 51
214.384079
  0
ARC
  8
0
 10
-132.050934
 20
53.666466
 40
5.776711
 50
249.743851
 51
290.256165
  0
ARC
  8
0
 10
-136.050934
 20
53.666466
 40
5.776714
 50
249.743866
 51
290.256165
  0
CIRCLE
  8
0
 10
-134.050964
 20
55.889725
 40
2.000000
  0
CIRCLE
  8
0
 10
-134.050964
 20
55.889725
 40
5.000000
  0
ARC
  8
0
 10
-42.515007
 20
137.345062
 40
2.044659
 50
55.615746
 51
124.384254
  0
ARC
  8
0
 10
-35.586792
 20
137.345062
 40
2.044657
 50
55.615833
 51
124.384346
  0
ARC
  8
0
 10
-39.050896
 20
131.747009
 40
7.642725
 50
72.412071
 51
107.588058
  0
CIRCLE
  8
0
 62
     2
 10
-227.327560
 20
99.489731
 40
2.000000
  0
CIRCLE
  8
0
 10
-227.327560
 20
99.489731
 40
1.500000
  0
CIRCLE
  8
0
 10
-227.327560
 20
69.489731
 40
1.500000
  0
CIRCLE
  8
0
 62
     2
 10
-227.327560
 20
69.489731
 40
2.000000
  0
ARC
  8
0
 10
-214.827560
 20
66.489723
 40
5.000002
 50
315.572906
 51
224.427109
  0
ARC
  8
0
 10
-218.291672
 20
49.934372
 40
2.044652
 50
235.615860
 51
304.384491
  0
ARC
  8
0
 10
-211.363449
 20
49.934372
 40
2.044660
 50
235.615509
 51
304.384125
  0
ARC
  8
0
 10
-214.827560
 20
55.532455
 40
7.642724
 50
252.412018
 51
287.587982
  0
ARC
  8
0
 10
-223.738724
 20
111.989731
 40
0.500000
 50
90.000000
 51
150.000076
  0
ARC
  8
0
 10
-227.827560
 20
120.489716
 40
4.000000
 50
90.000000
 51
151.044952
  0
ARC
  8
0
 10
-227.827560
 20
48.489731
 40
4.000000
 50
208.955048
 51
270.000000
  0
ARC
  8
0
 10
-223.738724
 20
56.989731
 40
0.500003
 50
210.000305
 51
270.000000
  0
ARC
  8
0
 10
-216.827499
 20
35.366230
 40
5.776711
 50
249.743851
 51
290.256165
  0
ARC
  8
0
 10
-212.827499
 20
35.366226
 40
5.776709
 50
249.743835
 51
290.256134
  0
ARC
  8
0
 10
-214.827560
 20
37.589466
 40
5.000000
 50
107.457054
 51
72.541840
  0
ARC
  8
0
 10
-226.625473
 20
108.989731
 40
0.500000
 50
270.000000
 51
330.000061
  0
ARC
  8
0
 10
-226.625473
 20
59.989731
 40
0.500001
 50
29.999931
 51
90.000000
  0
ARC
  8
0
 10
-216.827499
 20
133.613220
 40
5.776714
 50
69.743858
 51
110.256142
  0
ARC
  8
0
 10
-212.827499
 20
133.613220
 40
5.776714
 50
69.743858
 51
110.256142
  0
CIRCLE
  8
0
 10
-214.827560
 20
102.489723
 40
4.000000
  0
CIRCLE
  8
0
 10
-214.827560
 20
102.489723
 40
2.500000
  0
CIRCLE
  8
0
 62
     2
 10
-214.827560
 20
102.489723
 40
1.800000
  0
ARC
  8
0
 10
-214.527542
 20
66.489723
 40
6.000003
 50
299.450317
 51
156.181091
  0
ARC
  8
0
 10
-214.527542
 20
66.489723
 40
5.999993
 50
203.818909
 51
233.724609
  0
ARC
  8
0
 10
-220.342697
 20
65.011940
 40
1.000003
 50
99.478203
 51
289.038483
  0
CIRCLE
  8
0
 10
-220.342697
 20
65.011940
 40
0.400000
  0
ARC
  8
0
 10
-220.342697
 20
67.967506
 40
0.999997
 50
70.961510
 51
260.521790
  0
CIRCLE
  8
0
 10
-220.342697
 20
67.967506
 40
0.400000
  0
ARC
  8
0
 62
     4
 10
-221.827560
 20
47.517563
 40
1.827884
 50
279.446472
 51
343.214111
  0
ARC
  8
0
 62
     4
 10
-219.927536
 20
47.489670
 40
0.299999
 50
90.000000
 51
180.000000
  0
ARC
  8
0
 62
     4
 10
-220.327560
 20
50.989670
 40
1.499998
 50
66.419632
 51
305.979340
  0
ARC
  8
0
 62
     4
 10
-221.827560
 20
47.517563
 40
1.827885
 50
196.785873
 51
260.553528
  0
ARC
  8
0
 62
     4
 10
-223.727524
 20
47.489670
 40
0.300003
 50
0.000000
 51
90.000000
  0
CIRCLE
  8
0
 10
95.149132
 20
-25.010197
 40
2.500000
  0
CIRCLE
  8
0
 10
95.149132
 20
-25.010197
 40
4.000000
  0
CIRCLE
  8
0
 10
95.149132
 20
-25.010197
 40
4.900000
  0
CIRCLE
  8
0
 62
     4
 10
-101.904022
 20
-32.010178
 40
1.750000
  0
ARC
  8
0
 10
181.972534
 20
-27.010210
 40
5.776656
 50
339.743683
 51
20.256350
  0
ARC
  8
0
 10
181.972534
 20
-23.010210
 40
5.776656
 50
339.743683
 51
20.256350
  0
CIRCLE
  8
0
 10
-133.650818
 20
-25.010162
 40
4.000000
  0
CIRCLE
  8
0
 10
-133.650818
 20
-25.010162
 40
2.500000
  0
ARC
  8
0
 10
-133.650818
 20
-25.010162
 40
4.900000
 50
305.280914
 51
234.719101
  0
CIRCLE
  8
0
 10
-4.318539
 20
-157.010208
 40
4.000000
  0
ARC
  8
0
 10
188.281494
 20
-155.333572
 40
5.776709
 50
249.744003
 51
290.256348
  0
ARC
  8
0
 10
192.281494
 20
-155.333572
 40
5.776714
 50
249.743866
 51
290.256134
  0
ARC
  8
0
 10
185.836823
 20
-109.974365
 40
2.044655
 50
325.615936
 51
34.384079
  0
ARC
  8
0
 10
180.238770
 20
-106.510292
 40
7.642709
 50
342.412079
 51
17.587961
  0
ARC
  8
0
 10
185.836823
 20
-103.046219
 40
2.044655
 50
325.615936
 51
34.384079
  0
ARC
  8
0
 10
98.745583
 20
-71.654907
 40
2.044659
 50
55.615746
 51
124.384552
  0
ARC
  8
0
 10
91.817360
 20
-71.654907
 40
2.044659
 50
55.615746
 51
124.384377
  0
ARC
  8
0
 10
95.281471
 20
-77.252975
 40
7.642725
 50
72.412071
 51
107.588104
  0
ARC
  8
0
 10
86.781471
 20
-72.710243
 40
0.500001
 50
336.422241
 51
0.000000
  0
ARC
  8
0
 62
     2
 10
100.281471
 20
-73.738144
 40
1.827888
 50
99.446442
 51
102.037331
  0
ARC
  8
0
 10
95.426132
 20
-139.046173
 40
2.044655
 50
145.615921
 51
214.384079
  0
ARC
  8
0
 10
95.426132
 20
-145.974319
 40
2.044655
 50
145.615921
 51
214.384079
  0
ARC
  8
0
 10
101.024170
 20
-142.510254
 40
7.642716
 50
162.412109
 51
197.588013
  0
ARC
  8
0
 10
-44.661293
 20
-106.510208
 40
7.642716
 50
342.412109
 51
17.587952
  0
ARC
  8
0
 62
     2
 10
-43.918579
 20
-175.282333
 40
1.827888
 50
279.446442
 51
282.037445
  0
ARC
  8
0
 10
-39.063240
 20
-109.974297
 40
2.044655
 50
325.615936
 51
34.384140
  0
ARC
  8
0
 10
-39.063240
 20
-103.046150
 40
2.044655
 50
325.615936
 51
34.384140
  0
ARC
  8
0
 10
-131.918640
 20
-93.686913
 40
5.776709
 50
69.744003
 51
110.256310
  0
ARC
  8
0
 10
-135.918640
 20
-93.686913
 40
5.776714
 50
69.743858
 51
110.256165
  0
ARC
  8
0
 10
-129.473969
 20
-139.046112
 40
2.044655
 50
145.615921
 51
214.384079
  0
ARC
  8
0
 10
-123.875908
 20
-142.510193
 40
7.642716
 50
162.412109
 51
197.587891
  0
ARC
  8
0
 10
-129.473969
 20
-145.974274
 40
2.044655
 50
145.615921
 51
214.384079
  0
ARC
  8
0
 10
-42.382690
 20
-177.365555
 40
2.044657
 50
235.615829
 51
304.384338
  0
ARC
  8
0
 10
-35.454468
 20
-177.365555
 40
2.044657
 50
235.615829
 51
304.384338
  0
ARC
  8
0
 10
-38.918579
 20
-171.767502
 40
7.642725
 50
252.412079
 51
287.588074
  0
ARC
  8
0
 10
-30.418579
 20
-176.310226
 40
0.500001
 50
156.422241
 51
180.000000
  0
CIRCLE
  8
0
 10
60.681477
 20
-92.010223
 40
4.000000
  0
CIRCLE
  8
0
 10
60.681477
 20
-92.010223
 40
1.650000
  0
CIRCLE
  8
0
 10
-4.318531
 20
-92.010223
 40
1.650000
  0
CIRCLE
  8
0
 10
-4.318531
 20
-92.010223
 40
4.000000
  0
CIRCLE
  8
0
 10
60.681469
 20
-157.010223
 40
1.650000
  0
CIRCLE
  8
0
 10
60.681469
 20
-157.010223
 40
4.000000
  0
CIRCLE
  8
0
 10
-4.318539
 20
-157.010208
 40
1.650000
  0
TEXT
  8
0
 10
174.200241
 20
180.830002
 40
6.300000
  1
DATE: MAY ,1993
 50
0.000000
 41
1.052632
 51
0.000000
  7
STANDARD
  0
TEXT
  8
0
 10
167.564667
 20
-192.100006
 40
9.000000
  1
KOGANEI CORP.
 50
0.000000
 41
1.052632
 51
0.000000
  7
STANDARD
  0
TEXT
  8
0
 10
-269.149719
 20
180.830002
 40
6.300000
  1
HANDLING MODULE
 50
0.000000
 41
1.052632
 51
0.000000
  7
STANDARD
  0
TEXT
  8
0
 10
-270.049713
 20
155.830002
 40
6.300000
  1
MODEL:SHM72M-ML
 50
0.000000
 41
1.052632
 51
0.000000
  7
STANDARD
  0
ENDSEC
  0
EOF
