  0
SECTION
  2
HEADER
  0
ENDSEC
  0
SECTION
  2
TABLES
  0
TABLE
  2
LTYPE
 70
     4
  0
LTYPE
  2
CONTINUOUS
 70
    64
  3
Solid line
 72
    65
 73
     0
 40
0.000000
  0
LTYPE
  2
DASHED
 70
    64
  3
__ __ __ __ __ __ __ __ __ __ __ __ __ __ __
 72
    65
 73
     2
 40
3.500000
 49
2.000000
 49
-1.500000
  0
LTYPE
  2
CENTER
 70
    64
  3
____ _ ____ _ ____ _ ____ _ ____ _ ____ _ ____
 72
    65
 73
     4
 40
17.500000
 49
13.000000
 49
-1.500000
 49
1.500000
 49
-1.500000
  0
LTYPE
  2
PHANTOM
 70
    64
  3
_____ _ _ _____ _ _ _____ _ _ _____ _ _ ____  
 72
    65
 73
     6
 40
15.500000
 49
8.000000
 49
-1.500000
 49
1.500000
 49
-1.500000
 49
1.500000
 49
-1.500000
  0
LTYPE
  2
DASHED1
 70
    64
  3
__ __ __ __ __ __ __ __ __ __ __ __ __ __ __
 72
    65
 73
     2
 40
1.500000
 49
1.000000
 49
-0.500000
  0
LTYPE
  2
DASHED2
 70
    64
  3
__ __ __ __ __ __ __ __ __ __ __ __ __ __ __
 72
    65
 73
     2
 40
3.500000
 49
2.500000
 49
-1.000000
  0
LTYPE
  2
DASHED3
 70
    64
  3
__ __ __ __ __ __ __ __ __ __ __ __ __ __ __
 72
    65
 73
     2
 40
6.000000
 49
4.000000
 49
-2.000000
  0
LTYPE
  2
DASHED4
 70
    64
  3
__ __ __ __ __ __ __ __ __ __ __ __ __ __ __
 72
    65
 73
     2
 40
12.000000
 49
10.000000
 49
-2.000000
  0
LTYPE
  2
DASHED5
 70
    64
  3
__ __ __ __ __ __ __ __ __ __ __ __ __ __ __
 72
    65
 73
     2
 40
17.000000
 49
15.000000
 49
-2.000000
  0
LTYPE
  2
DASHED6
 70
    64
  3
__ __ __ __ __ __ __ __ __ __ __ __ __ __ __
 72
    65
 73
     2
 40
29.000000
 49
27.000000
 49
-2.000000
  0
LTYPE
  2
PHANTOM1
 70
    64
  3
_____ _ _ _____ _ _ _____ _ _ _____ _ _ ____  
 72
    65
 73
     6
 40
31.000000
 49
25.000000
 49
-1.500000
 49
1.000000
 49
-1.000000
 49
1.000000
 49
-1.500000
  0
LTYPE
  2
PHANTOM2
 70
    64
  3
_____ _ _ _____ _ _ _____ _ _ _____ _ _ ____  
 72
    65
 73
     6
 40
36.000000
 49
27.000000
 49
-1.500000
 49
2.500000
 49
-1.000000
 49
2.500000
 49
-1.500000
  0
LTYPE
  2
PHANTOM3
 70
    64
  3
_____ _ _ _____ _ _ _____ _ _ _____ _ _ ____  
 72
    65
 73
     6
 40
78.000000
 49
64.000000
 49
-2.000000
 49
4.000000
 49
-2.000000
 49
4.000000
 49
-2.000000
  0
LTYPE
  2
CENTER1
 70
    64
  3
____ _ ____ _ ____ _ ____ _ ____ _ ____ _ ____
 72
    65
 73
     4
 40
19.000000
 49
14.000000
 49
-1.000000
 49
3.000000
 49
-1.000000
  0
LTYPE
  2
CENTER2
 70
    64
  3
____ _ ____ _ ____ _ ____ _ ____ _ ____ _ ____
 72
    65
 73
     4
 40
28.500000
 49
25.000000
 49
-1.000000
 49
1.500000
 49
-1.000000
  0
LTYPE
  2
CENTER3
 70
    64
  3
____ _ ____ _ ____ _ ____ _ ____ _ ____ _ ____
 72
    65
 73
     4
 40
31.500000
 49
27.000000
 49
-1.000000
 49
2.500000
 49
-1.000000
  0
LTYPE
  2
CENTER4
 70
    64
  3
____ _ ____ _ ____ _ ____ _ ____ _ ____ _ ____
 72
    65
 73
     4
 40
50.000000
 49
45.000000
 49
-1.000000
 49
3.000000
 49
-1.000000
  0
LTYPE
  2
CENTER5
 70
    64
  3
____ _ ____ _ ____ _ ____ _ ____ _ ____ _ ____
 72
    65
 73
     4
 40
100.000000
 49
92.000000
 49
-2.000000
 49
4.000000
 49
-2.000000
  0
LTYPE
  2
SBK1
 70
    64
  3
______ _ _ _ ______ _ _ _ ______ _ _ _ _____  
 72
    65
 73
     8
 40
60.500000
 49
45.000000
 49
-2.000000
 49
2.500000
 49
-2.000000
 49
2.500000
 49
-2.000000
 49
2.500000
 49
-2.000000
  0
LTYPE
  2
SBK2
 70
    64
  3
______ _ _ _ ______ _ _ _ ______ _ _ _ _____  
 72
    65
 73
     8
 40
84.000000
 49
64.000000
 49
-2.000000
 49
4.000000
 49
-2.000000
 49
4.000000
 49
-2.000000
 49
4.000000
 49
-2.000000
  0
LTYPE
  2
STCH
 70
    64
  3
__ __ __ __ __ __ __ __ __ __ __ __ __ __ __
 72
    65
 73
     2
 40
3.000000
 49
1.000000
 49
-2.000000
  0
LTYPE
  2
MTCH
 70
    64
  3
_____ _ _ _____ _ _ _____ _ _ _____ _ _ ____  
 72
    65
 73
     6
 40
80.000000
 49
66.000000
 49
-2.000000
 49
4.000000
 49
-2.000000
 49
4.000000
 49
-2.000000
  0
ENDTAB
  0
TABLE
  2
LAYER
 70
     1
  0
LAYER
  2
0
 70
     0
 62
     7
  6
CONTINUOUS
  0
ENDTAB
  0
TABLE
  2
STYLE
 70
     1
  0
STYLE
  2
STANDARD
 70
     0
 40
0.000000
 41
1.000000
 50
0.000000
 71
     0
 42
0.200000
  3
txt
  4
BIGFONT
  0
ENDTAB
  0
TABLE
  2
VIEW
 70
     0
  0
ENDTAB
  0
ENDSEC
  0
SECTION
  2
BLOCKS
  0
ENDSEC
  0
SECTION
  2
ENTITIES
  0
LINE
  8
0
 10
-281.250000
 20
195.500000
 11
282.099976
 21
195.500000
  0
LINE
  8
0
 10
-281.250000
 20
195.500000
 11
-281.250000
 21
-195.000000
  0
LINE
  8
0
 10
282.099976
 20
195.500000
 11
282.099976
 21
-195.000000
  0
LINE
  8
0
 10
-281.250000
 20
-195.000000
 11
282.099976
 21
-195.000000
  0
LINE
  8
0
 10
162.099976
 20
-175.000000
 11
162.099976
 21
-195.000000
  0
LINE
  8
0
 10
162.099976
 20
-175.000000
 11
282.099976
 21
-175.000000
  0
LINE
  8
0
 10
162.099976
 20
175.500000
 11
282.099976
 21
175.500000
  0
LINE
  8
0
 10
-281.250000
 20
175.500000
 11
-161.250000
 21
175.500000
  0
LINE
  8
0
 10
162.099976
 20
195.500000
 11
162.099976
 21
175.500000
  0
LINE
  8
0
 10
-161.250000
 20
195.500000
 11
-161.250000
 21
175.500000
  0
LINE
  8
0
  6
CENTER
 62
     2
 10
45.859085
 20
126.137192
 11
45.859085
 21
40.457184
  0
LINE
  8
0
 10
206.559097
 20
43.017128
 11
206.559097
 21
122.617149
  0
LINE
  8
0
 10
200.859100
 20
42.817131
 11
200.859100
 21
122.817131
  0
LINE
  8
0
  6
CENTER
 62
     2
 10
-121.965149
 20
82.817184
 11
211.916153
 21
82.817184
  0
LINE
  8
0
 10
206.559067
 20
43.017197
 11
200.859085
 21
43.017197
  0
LINE
  8
0
 10
206.559097
 20
122.617203
 11
200.859085
 21
122.617203
  0
LINE
  8
0
  6
CENTER
 62
     2
 10
82.359085
 20
50.317184
 11
74.359077
 21
50.317184
  0
LINE
  8
0
  6
CENTER
 62
     2
 10
78.359100
 20
44.708904
 11
78.359100
 21
54.317177
  0
LINE
  8
0
  6
CENTER
 62
     2
 10
82.359085
 20
115.317184
 11
74.359093
 21
115.317184
  0
LINE
  8
0
  6
CENTER
 62
     2
 10
78.359100
 20
119.317184
 11
78.359100
 21
111.317177
  0
LINE
  8
0
 10
42.859085
 20
122.817184
 11
42.859085
 21
114.317184
  0
LINE
  8
0
 10
48.859085
 20
122.817184
 11
48.859085
 21
114.317184
  0
LINE
  8
0
  6
CENTER
 62
     2
 10
40.874554
 20
50.317184
 11
52.519924
 21
50.317184
  0
LINE
  8
0
 10
224.459076
 20
67.317200
 11
210.559036
 21
67.317200
  0
LINE
  8
0
 62
     2
 10
224.459061
 20
66.717194
 11
210.559036
 21
66.717194
  0
LINE
  8
0
 10
210.201797
 20
62.507797
 11
206.559082
 21
62.507797
  0
LINE
  8
0
 10
224.459076
 20
62.317184
 11
210.559036
 21
62.317184
  0
LINE
  8
0
 62
     2
 10
224.459061
 20
62.917191
 11
210.559036
 21
62.917191
  0
LINE
  8
0
 10
210.559082
 20
68.817162
 11
210.559082
 21
60.816811
  0
LINE
  8
0
 10
224.459076
 20
67.317169
 11
224.459076
 21
62.317158
  0
LINE
  8
0
 10
210.201797
 20
69.435989
 11
206.559082
 21
69.435989
  0
LINE
  8
0
 10
210.559174
 20
68.817154
 11
210.201904
 21
69.435928
  0
LINE
  8
0
 10
210.201797
 20
67.126587
 11
206.559082
 21
67.126587
  0
LINE
  8
0
 10
210.559372
 20
60.816917
 11
210.202133
 21
60.198166
  0
LINE
  8
0
 10
210.201797
 20
60.198410
 11
206.559082
 21
60.198410
  0
LINE
  8
0
 10
217.459229
 20
104.317093
 11
217.459229
 21
95.817162
  0
LINE
  8
0
 10
207.559235
 20
95.817184
 11
217.459229
 21
95.817184
  0
LINE
  8
0
 10
207.559235
 20
105.817184
 11
208.459183
 21
105.817184
  0
LINE
  8
0
 10
208.459198
 20
105.817101
 11
208.459198
 21
104.317101
  0
LINE
  8
0
 10
208.459183
 20
104.317184
 11
217.459183
 21
104.317184
  0
LINE
  8
0
 10
209.059189
 20
104.317184
 11
216.859177
 21
104.317184
  0
LINE
  8
0
 10
215.459229
 20
131.917191
 11
210.459229
 21
131.917191
  0
LINE
  8
0
 10
210.459229
 20
131.917160
 11
210.459229
 21
127.917160
  0
LINE
  8
0
 10
215.459229
 20
131.917160
 11
215.459229
 21
127.917160
  0
LINE
  8
0
 10
215.459229
 20
127.917191
 11
210.459229
 21
127.917191
  0
LINE
  8
0
 10
216.859177
 20
104.917191
 11
209.059189
 21
104.917191
  0
LINE
  8
0
 10
216.959183
 20
119.417191
 11
208.959183
 21
119.417191
  0
LINE
  8
0
 10
216.959229
 20
120.217178
 11
208.959229
 21
120.217178
  0
LINE
  8
0
 10
216.959229
 20
122.717178
 11
208.959229
 21
122.717178
  0
LINE
  8
0
 10
208.959229
 20
122.717155
 11
208.959229
 21
120.217155
  0
LINE
  8
0
 10
216.959229
 20
122.717148
 11
216.959229
 21
120.217148
  0
LINE
  8
0
 10
210.459229
 20
120.217087
 11
210.459229
 21
119.417099
  0
LINE
  8
0
 10
215.459229
 20
120.217087
 11
215.459229
 21
119.417099
  0
LINE
  8
0
 10
214.459229
 20
127.917099
 11
214.459229
 21
122.717087
  0
LINE
  8
0
 10
211.459229
 20
127.917099
 11
211.459229
 21
122.717087
  0
LINE
  8
0
 62
     2
 10
211.729736
 20
127.917099
 11
211.729736
 21
122.717087
  0
LINE
  8
0
 62
     2
 10
214.188721
 20
127.917099
 11
214.188721
 21
122.717087
  0
LINE
  8
0
 10
209.709229
 20
106.417107
 11
209.709229
 21
104.917107
  0
LINE
  8
0
 10
216.209229
 20
106.417107
 11
216.209229
 21
104.917107
  0
LINE
  8
0
 10
209.059235
 20
104.917107
 11
209.059235
 21
104.317101
  0
LINE
  8
0
 10
216.859222
 20
104.917099
 11
216.859222
 21
104.317093
  0
LINE
  8
0
 10
216.859177
 20
104.317184
 11
209.059189
 21
104.317184
  0
LINE
  8
0
 10
217.859177
 20
115.417191
 11
215.959213
 21
115.417191
  0
LINE
  8
0
 10
217.859177
 20
106.417191
 11
208.059189
 21
106.417191
  0
LINE
  8
0
 10
208.959229
 20
119.417107
 11
208.959229
 21
115.417107
  0
LINE
  8
0
 10
216.959229
 20
119.417099
 11
216.959229
 21
115.417099
  0
LINE
  8
0
 10
212.959229
 20
119.059830
 11
212.959229
 21
116.417130
  0
LINE
  8
0
 10
208.059235
 20
115.417107
 11
208.059235
 21
112.412132
  0
LINE
  8
0
 10
217.859222
 20
115.417099
 11
217.859222
 21
112.412125
  0
LINE
  8
0
 10
207.559235
 20
92.317162
 11
207.559235
 21
109.317162
  0
LINE
  8
0
 10
207.559219
 20
109.317184
 11
206.559204
 21
109.317184
  0
LINE
  8
0
 10
207.559219
 20
92.317184
 11
206.559204
 21
92.317184
  0
LINE
  8
0
 10
209.959213
 20
115.417191
 11
208.059189
 21
115.417191
  0
LINE
  8
0
 10
217.859222
 20
110.422104
 11
217.859222
 21
106.417099
  0
LINE
  8
0
 10
208.059235
 20
110.422112
 11
208.059235
 21
106.417107
  0
LINE
  8
0
 10
113.059189
 20
31.917149
 11
113.059189
 21
32.517155
  0
LINE
  8
0
 10
122.859177
 20
31.917133
 11
122.859177
 21
40.917133
  0
LINE
  8
0
 10
122.859146
 20
40.917160
 11
113.059158
 21
40.917160
  0
LINE
  8
0
 10
122.859146
 20
31.917160
 11
113.059158
 21
31.917160
  0
LINE
  8
0
 10
117.959152
 20
35.217178
 11
110.459152
 21
35.217178
  0
LINE
  8
0
 10
117.959152
 20
36.617172
 11
110.459152
 21
36.617172
  0
LINE
  8
0
 10
113.059059
 20
32.517185
 11
114.359062
 21
35.217144
  0
LINE
  8
0
 10
113.059120
 20
39.317089
 11
114.359123
 21
36.617065
  0
LINE
  8
0
 10
113.059189
 20
39.317142
 11
113.059189
 21
40.917149
  0
LINE
  8
0
 10
110.459152
 20
31.017166
 11
106.159149
 21
31.017166
  0
LINE
  8
0
 10
103.259186
 20
30.917152
 11
103.259186
 21
40.917152
  0
LINE
  8
0
 10
104.859192
 20
30.917152
 11
104.859192
 21
40.917152
  0
LINE
  8
0
 10
113.059158
 20
32.517166
 11
111.959152
 21
32.517166
  0
LINE
  8
0
 10
110.459183
 20
31.017155
 11
110.459183
 21
40.817142
  0
LINE
  8
0
 10
111.959183
 20
32.517155
 11
111.959183
 21
35.217136
  0
LINE
  8
0
 10
106.159180
 20
31.017159
 11
106.159180
 21
40.817146
  0
LINE
  8
0
 10
104.859161
 20
30.917160
 11
103.259155
 21
30.917160
  0
LINE
  8
0
 10
104.859146
 20
40.917160
 11
103.259140
 21
40.917160
  0
LINE
  8
0
 10
110.459152
 20
40.817184
 11
106.159134
 21
40.817184
  0
LINE
  8
0
 10
113.059158
 20
39.317184
 11
111.959152
 21
39.317184
  0
LINE
  8
0
 10
106.159149
 20
32.667160
 11
104.859161
 21
32.667160
  0
LINE
  8
0
 10
106.159134
 20
39.167160
 11
104.859146
 21
39.167160
  0
LINE
  8
0
 10
111.959183
 20
36.617161
 11
111.959183
 21
39.317142
  0
LINE
  8
0
 10
110.459267
 20
31.017004
 11
111.959267
 21
32.517010
  0
LINE
  8
0
 10
110.459183
 20
40.817181
 11
111.959183
 21
39.317196
  0
LINE
  8
0
 10
121.859146
 20
42.417160
 11
114.059158
 21
42.417160
  0
LINE
  8
0
 10
114.709183
 20
40.917149
 11
114.709183
 21
42.417149
  0
LINE
  8
0
 10
121.209183
 20
40.917149
 11
121.209183
 21
42.417149
  0
LINE
  8
0
 10
114.059189
 20
42.417149
 11
114.059189
 21
42.817173
  0
LINE
  8
0
 10
121.859177
 20
42.417133
 11
121.859177
 21
42.817158
  0
LINE
  8
0
 10
120.459175
 20
15.417160
 11
115.459175
 21
15.417160
  0
LINE
  8
0
 10
115.459183
 20
15.417152
 11
115.459183
 21
19.417149
  0
LINE
  8
0
 10
120.459183
 20
15.417152
 11
120.459183
 21
19.417149
  0
LINE
  8
0
 10
120.459175
 20
19.417160
 11
115.459175
 21
19.417160
  0
LINE
  8
0
 10
121.423264
 20
27.917160
 11
114.495041
 21
27.917160
  0
LINE
  8
0
 10
121.959175
 20
27.117172
 11
113.959175
 21
27.117172
  0
LINE
  8
0
 10
121.959175
 20
24.617172
 11
113.959175
 21
24.617172
  0
LINE
  8
0
 10
113.959183
 20
24.617161
 11
113.959183
 21
27.117161
  0
LINE
  8
0
 10
121.959183
 20
24.617161
 11
121.959183
 21
27.117161
  0
LINE
  8
0
 10
113.340378
 20
28.274418
 11
113.340378
 21
31.917149
  0
LINE
  8
0
 10
115.649796
 20
28.274418
 11
115.649796
 21
31.917149
  0
LINE
  8
0
 10
120.268600
 20
28.274418
 11
120.268600
 21
31.917149
  0
LINE
  8
0
 10
122.577988
 20
28.274403
 11
122.577988
 21
31.917133
  0
LINE
  8
0
 10
115.459183
 20
27.117161
 11
115.459183
 21
27.917149
  0
LINE
  8
0
 10
120.459183
 20
27.117161
 11
120.459183
 21
27.917149
  0
LINE
  8
0
 10
119.459183
 20
19.417149
 11
119.459183
 21
24.617161
  0
LINE
  8
0
 10
116.459183
 20
19.417149
 11
116.459183
 21
24.617161
  0
LINE
  8
0
 62
     2
 10
116.729691
 20
19.417149
 11
116.729691
 21
24.617161
  0
LINE
  8
0
 62
     2
 10
119.188675
 20
19.417149
 11
119.188675
 21
24.617161
  0
LINE
  8
0
 10
-114.840912
 20
122.617195
 11
-114.840912
 21
43.017204
  0
LINE
  8
0
 10
-109.140900
 20
122.817184
 11
200.859100
 21
122.817184
  0
LINE
  8
0
 10
-109.140900
 20
42.817184
 11
200.859100
 21
42.817184
  0
LINE
  8
0
 10
-109.140900
 20
122.817207
 11
-109.140900
 21
42.817207
  0
LINE
  8
0
 10
-109.140900
 20
62.817184
 11
200.859100
 21
62.817184
  0
LINE
  8
0
 10
-109.140900
 20
102.817184
 11
200.859100
 21
102.817184
  0
LINE
  8
0
 10
-114.840912
 20
122.617172
 11
-109.140900
 21
122.617172
  0
LINE
  8
0
 10
-114.840912
 20
43.017181
 11
-109.140900
 21
43.017181
  0
LINE
  8
0
  6
CENTER
 62
     2
 10
9.359089
 20
115.317184
 11
17.359091
 21
115.317184
  0
LINE
  8
0
  6
CENTER
 62
     2
 10
13.359085
 20
119.317184
 11
13.359085
 21
111.317192
  0
LINE
  8
0
  6
CENTER
 62
     2
 10
9.359081
 20
50.317184
 11
17.359079
 21
50.317184
  0
LINE
  8
0
  6
CENTER
 62
     2
 10
13.359085
 20
45.034916
 11
13.359085
 21
54.317192
  0
LINE
  8
0
 10
-132.740875
 20
98.317184
 11
-118.840851
 21
98.317184
  0
LINE
  8
0
 62
     2
 10
-132.740875
 20
98.917191
 11
-118.840851
 21
98.917191
  0
LINE
  8
0
 10
-118.483612
 20
103.126572
 11
-114.840912
 21
103.126572
  0
LINE
  8
0
 10
-132.740875
 20
103.317184
 11
-118.840851
 21
103.317184
  0
LINE
  8
0
 62
     2
 10
-132.740875
 20
102.717178
 11
-118.840851
 21
102.717178
  0
LINE
  8
0
 10
-118.840912
 20
96.817177
 11
-118.840912
 21
104.817513
  0
LINE
  8
0
 10
-132.740875
 20
98.317215
 11
-132.740875
 21
103.317215
  0
LINE
  8
0
 10
-118.483612
 20
96.198380
 11
-114.840912
 21
96.198380
  0
LINE
  8
0
 10
-118.841118
 20
96.817055
 11
-118.483871
 21
96.198303
  0
LINE
  8
0
 10
-118.483612
 20
98.507797
 11
-114.840912
 21
98.507797
  0
LINE
  8
0
 10
-118.841240
 20
104.817390
 11
-118.483986
 21
105.436165
  0
LINE
  8
0
 10
-118.483612
 20
105.435959
 11
-114.840912
 21
105.435959
  0
LINE
  8
0
 10
-125.741058
 20
61.317242
 11
-125.741058
 21
69.817223
  0
LINE
  8
0
 10
-115.841034
 20
69.817200
 11
-125.741058
 21
69.817200
  0
LINE
  8
0
 10
-115.841034
 20
59.817200
 11
-116.740997
 21
59.817200
  0
LINE
  8
0
 10
-116.740997
 20
59.817238
 11
-116.740997
 21
61.317238
  0
LINE
  8
0
 10
-116.740997
 20
61.317200
 11
-125.740997
 21
61.317200
  0
LINE
  8
0
 10
-117.341034
 20
61.317200
 11
-125.141022
 21
61.317200
  0
LINE
  8
0
 10
-123.741058
 20
33.717194
 11
-118.741058
 21
33.717194
  0
LINE
  8
0
 10
-118.741058
 20
33.717220
 11
-118.741058
 21
37.717220
  0
LINE
  8
0
 10
-123.741058
 20
33.717220
 11
-123.741058
 21
37.717220
  0
LINE
  8
0
 10
-123.741058
 20
37.717194
 11
-118.741058
 21
37.717194
  0
LINE
  8
0
 10
-125.141022
 20
60.717194
 11
-117.341034
 21
60.717194
  0
LINE
  8
0
 10
-125.240997
 20
46.217194
 11
-117.240997
 21
46.217194
  0
LINE
  8
0
 10
-125.241058
 20
45.417206
 11
-117.241058
 21
45.417206
  0
LINE
  8
0
 10
-125.241058
 20
42.917206
 11
-117.241058
 21
42.917206
  0
LINE
  8
0
 10
-117.241058
 20
42.917229
 11
-117.241058
 21
45.417229
  0
LINE
  8
0
 10
-125.241058
 20
42.917233
 11
-125.241058
 21
45.417233
  0
LINE
  8
0
 10
-118.741058
 20
45.417248
 11
-118.741058
 21
46.217236
  0
LINE
  8
0
 10
-123.741058
 20
45.417248
 11
-123.741058
 21
46.217236
  0
LINE
  8
0
 10
-122.741058
 20
37.717236
 11
-122.741058
 21
42.917248
  0
LINE
  8
0
 10
-119.741058
 20
37.717236
 11
-119.741058
 21
42.917248
  0
LINE
  8
0
 62
     2
 10
-120.011566
 20
37.717236
 11
-120.011566
 21
42.917248
  0
LINE
  8
0
 62
     2
 10
-122.470551
 20
37.717236
 11
-122.470551
 21
42.917248
  0
LINE
  8
0
 10
-117.991058
 20
59.217232
 11
-117.991058
 21
60.717232
  0
LINE
  8
0
 10
-124.491058
 20
59.217232
 11
-124.491058
 21
60.717232
  0
LINE
  8
0
 10
-117.341034
 20
60.717232
 11
-117.341034
 21
61.317238
  0
LINE
  8
0
 10
-125.141022
 20
60.717236
 11
-125.141022
 21
61.317242
  0
LINE
  8
0
 10
-125.141022
 20
61.317200
 11
-117.341034
 21
61.317200
  0
LINE
  8
0
 10
-126.141022
 20
50.217194
 11
-124.241058
 21
50.217194
  0
LINE
  8
0
 10
-126.141022
 20
59.217194
 11
-116.341034
 21
59.217194
  0
LINE
  8
0
 10
-117.241058
 20
46.217232
 11
-117.241058
 21
50.217232
  0
LINE
  8
0
 10
-125.241058
 20
46.217236
 11
-125.241058
 21
50.217236
  0
LINE
  8
0
 10
-121.241058
 20
46.574505
 11
-121.241058
 21
49.217220
  0
LINE
  8
0
 10
-116.341034
 20
50.217232
 11
-116.341034
 21
53.222206
  0
LINE
  8
0
 10
-126.141022
 20
50.217236
 11
-126.141022
 21
53.222210
  0
LINE
  8
0
 10
-115.841034
 20
73.317177
 11
-115.841034
 21
56.317177
  0
LINE
  8
0
 10
-115.841034
 20
56.317184
 11
-114.841034
 21
56.317184
  0
LINE
  8
0
 10
-115.841034
 20
73.317184
 11
-114.841034
 21
73.317184
  0
LINE
  8
0
 10
-118.241058
 20
50.217194
 11
-116.341034
 21
50.217194
  0
LINE
  8
0
 10
-126.141022
 20
55.212231
 11
-126.141022
 21
59.217236
  0
LINE
  8
0
 10
-116.341034
 20
55.212227
 11
-116.341034
 21
59.217232
  0
LINE
  8
0
 10
-21.341003
 20
133.717224
 11
-21.341003
 21
133.117218
  0
LINE
  8
0
 10
-31.140991
 20
133.717224
 11
-31.140991
 21
124.717224
  0
LINE
  8
0
 10
-31.140984
 20
124.717209
 11
-21.340996
 21
124.717209
  0
LINE
  8
0
 10
-31.140984
 20
133.717209
 11
-21.340996
 21
133.717209
  0
LINE
  8
0
 10
-26.240990
 20
130.417191
 11
-18.740990
 21
130.417191
  0
LINE
  8
0
 10
-26.240990
 20
129.017197
 11
-18.740990
 21
129.017197
  0
LINE
  8
0
 10
-21.340805
 20
133.117111
 11
-22.640804
 21
130.417160
  0
LINE
  8
0
 10
-21.340891
 20
126.317284
 11
-22.640902
 21
129.017319
  0
LINE
  8
0
 10
-21.341003
 20
126.317230
 11
-21.341003
 21
124.717224
  0
LINE
  8
0
 10
-18.740990
 20
134.617203
 11
-14.440987
 21
134.617203
  0
LINE
  8
0
 10
-11.541000
 20
134.717224
 11
-11.541000
 21
124.717216
  0
LINE
  8
0
 10
-13.141006
 20
134.717224
 11
-13.141006
 21
124.717216
  0
LINE
  8
0
 10
-21.340996
 20
133.117203
 11
-20.240990
 21
133.117203
  0
LINE
  8
0
 10
-18.740997
 20
134.617218
 11
-18.740997
 21
124.817230
  0
LINE
  8
0
 10
-20.240997
 20
133.117218
 11
-20.240997
 21
130.417236
  0
LINE
  8
0
 10
-14.440994
 20
134.617218
 11
-14.440994
 21
124.817223
  0
LINE
  8
0
 10
-13.140999
 20
134.717209
 11
-11.540993
 21
134.717209
  0
LINE
  8
0
 10
-13.140984
 20
124.717209
 11
-11.540977
 21
124.717209
  0
LINE
  8
0
 10
-18.740990
 20
124.817184
 11
-14.440971
 21
124.817184
  0
LINE
  8
0
 10
-21.340996
 20
126.317184
 11
-20.240990
 21
126.317184
  0
LINE
  8
0
 10
-14.440987
 20
132.967209
 11
-13.140999
 21
132.967209
  0
LINE
  8
0
 10
-14.440971
 20
126.467209
 11
-13.140984
 21
126.467209
  0
LINE
  8
0
 10
-20.240997
 20
129.017212
 11
-20.240997
 21
126.317230
  0
LINE
  8
0
 10
-18.741102
 20
134.617325
 11
-20.241100
 21
133.117310
  0
LINE
  8
0
 10
-18.740957
 20
124.817245
 11
-20.240955
 21
126.317223
  0
LINE
  8
0
 10
-30.140984
 20
123.217209
 11
-22.340996
 21
123.217209
  0
LINE
  8
0
 10
-22.990997
 20
124.717224
 11
-22.990997
 21
123.217224
  0
LINE
  8
0
 10
-29.490997
 20
124.717224
 11
-29.490997
 21
123.217224
  0
LINE
  8
0
 10
-22.341003
 20
123.217224
 11
-22.341003
 21
122.817200
  0
LINE
  8
0
 10
-30.140991
 20
123.217224
 11
-30.140991
 21
122.817200
  0
LINE
  8
0
 10
-28.740990
 20
150.217209
 11
-23.740990
 21
150.217209
  0
LINE
  8
0
 10
-23.740997
 20
150.217224
 11
-23.740997
 21
146.217224
  0
LINE
  8
0
 10
-28.740997
 20
150.217224
 11
-28.740997
 21
146.217224
  0
LINE
  8
0
 10
-28.740990
 20
146.217209
 11
-23.740990
 21
146.217209
  0
LINE
  8
0
 10
-29.705101
 20
137.717209
 11
-22.776878
 21
137.717209
  0
LINE
  8
0
 10
-30.240990
 20
138.517197
 11
-22.240990
 21
138.517197
  0
LINE
  8
0
 10
-30.240990
 20
141.017197
 11
-22.240990
 21
141.017197
  0
LINE
  8
0
 10
-22.240997
 20
141.017212
 11
-22.240997
 21
138.517212
  0
LINE
  8
0
 10
-30.240997
 20
141.017212
 11
-30.240997
 21
138.517212
  0
LINE
  8
0
 10
-21.622192
 20
137.359955
 11
-21.622192
 21
133.717224
  0
LINE
  8
0
 10
-23.931610
 20
137.359955
 11
-23.931610
 21
133.717224
  0
LINE
  8
0
 10
-28.550415
 20
137.359955
 11
-28.550415
 21
133.717224
  0
LINE
  8
0
 10
-30.859802
 20
137.359955
 11
-30.859802
 21
133.717224
  0
LINE
  8
0
 10
-23.740997
 20
138.517212
 11
-23.740997
 21
137.717224
  0
LINE
  8
0
 10
-28.740997
 20
138.517212
 11
-28.740997
 21
137.717224
  0
LINE
  8
0
 10
-27.740997
 20
146.217224
 11
-27.740997
 21
141.017212
  0
LINE
  8
0
 10
-24.740997
 20
146.217224
 11
-24.740997
 21
141.017212
  0
LINE
  8
0
 62
     2
 10
-25.011505
 20
146.217224
 11
-25.011505
 21
141.017212
  0
LINE
  8
0
 62
     2
 10
-27.470490
 20
146.217224
 11
-27.470490
 21
141.017212
  0
LINE
  8
0
  6
CENTER
 62
     2
 10
-181.033081
 20
82.817184
 11
-215.219452
 21
82.817184
  0
LINE
  8
0
 10
-185.860535
 20
103.317184
 11
-185.860535
 21
122.817169
  0
LINE
  8
0
 10
-185.860596
 20
103.317215
 11
-186.060593
 21
103.117218
  0
LINE
  8
0
 10
-185.860458
 20
62.317101
 11
-186.060501
 21
62.517139
  0
LINE
  8
0
 10
-185.860535
 20
62.317184
 11
-185.860535
 21
59.217178
  0
LINE
  8
0
 10
-185.860535
 20
122.817169
 11
-187.860535
 21
122.817169
  0
LINE
  8
0
  6
CENTER
 62
     2
 10
-211.860535
 20
95.224838
 11
-211.860535
 21
101.033180
  0
LINE
  8
0
  6
CENTER
 62
     2
 10
-209.169876
 20
97.817184
 11
-214.792496
 21
97.817184
  0
LINE
  8
0
  6
CENTER
 62
     2
 10
-211.860535
 20
70.409500
 11
-211.860535
 21
65.201889
  0
LINE
  8
0
  6
CENTER
 62
     2
 10
-209.169876
 20
67.817184
 11
-216.256958
 21
67.817184
  0
LINE
  8
0
 10
-195.789795
 20
61.317184
 11
-202.931229
 21
61.317184
  0
LINE
  8
0
 10
-194.460510
 20
50.217178
 11
-194.460510
 21
50.817184
  0
LINE
  8
0
 10
-204.260513
 20
50.217178
 11
-204.260513
 21
59.217178
  0
LINE
  8
0
 10
-204.260513
 20
59.217178
 11
-194.460510
 21
59.217178
  0
LINE
  8
0
 10
-204.260513
 20
50.217178
 11
-194.460510
 21
50.217178
  0
LINE
  8
0
 10
-199.360550
 20
53.517166
 11
-191.860535
 21
53.517166
  0
LINE
  8
0
 10
-199.360550
 20
54.917175
 11
-191.860535
 21
54.917175
  0
LINE
  8
0
 10
-194.460541
 20
50.817127
 11
-195.760559
 21
53.517136
  0
LINE
  8
0
 10
-194.460266
 20
57.617134
 11
-195.760284
 21
54.917110
  0
LINE
  8
0
 10
-194.460510
 20
57.617172
 11
-194.460510
 21
59.217178
  0
LINE
  8
0
 10
-191.860535
 20
49.317184
 11
-187.560547
 21
49.317184
  0
LINE
  8
0
 10
-184.660522
 20
49.217178
 11
-184.660522
 21
59.217178
  0
LINE
  8
0
 10
-186.260498
 20
49.217178
 11
-186.260498
 21
59.217178
  0
LINE
  8
0
 10
-194.460510
 20
50.817184
 11
-193.360535
 21
50.817184
  0
LINE
  8
0
 10
-191.860535
 20
49.317184
 11
-191.860535
 21
59.117172
  0
LINE
  8
0
 10
-193.360535
 20
50.817184
 11
-193.360535
 21
53.517166
  0
LINE
  8
0
 10
-187.560486
 20
49.317184
 11
-187.560486
 21
59.117172
  0
LINE
  8
0
 10
-186.260559
 20
49.217178
 11
-184.660522
 21
49.217178
  0
LINE
  8
0
 10
-186.260559
 20
59.217178
 11
-184.660522
 21
59.217178
  0
LINE
  8
0
 10
-191.860535
 20
59.117172
 11
-187.560547
 21
59.117172
  0
LINE
  8
0
 10
-194.460510
 20
57.617172
 11
-193.360535
 21
57.617172
  0
LINE
  8
0
 10
-187.560547
 20
50.967178
 11
-186.260559
 21
50.967178
  0
LINE
  8
0
 10
-187.560547
 20
57.467178
 11
-186.260559
 21
57.467178
  0
LINE
  8
0
 10
-193.360535
 20
54.917175
 11
-193.360535
 21
57.617172
  0
LINE
  8
0
 10
-191.860504
 20
49.317146
 11
-193.360519
 21
50.817154
  0
LINE
  8
0
 10
-191.860626
 20
59.117290
 11
-193.360611
 21
57.617294
  0
LINE
  8
0
 10
-203.260513
 20
60.717178
 11
-195.460510
 21
60.717178
  0
LINE
  8
0
 10
-203.260513
 20
61.317184
 11
-195.460510
 21
61.317184
  0
LINE
  8
0
 10
-196.110535
 20
59.217178
 11
-196.110535
 21
60.717178
  0
LINE
  8
0
 10
-202.610519
 20
59.217178
 11
-202.610519
 21
60.717178
  0
LINE
  8
0
 10
-195.460510
 20
60.717178
 11
-195.460510
 21
61.317184
  0
LINE
  8
0
 10
-203.260513
 20
60.717178
 11
-203.260513
 21
61.317184
  0
LINE
  8
0
 10
-201.860519
 20
33.717178
 11
-196.860535
 21
33.717178
  0
LINE
  8
0
 10
-196.860535
 20
33.717178
 11
-196.860535
 21
37.717178
  0
LINE
  8
0
 10
-201.860519
 20
33.717178
 11
-201.860519
 21
37.717178
  0
LINE
  8
0
 10
-201.860519
 20
37.717178
 11
-196.860535
 21
37.717178
  0
LINE
  8
0
 10
-202.824661
 20
46.217178
 11
-195.896423
 21
46.217178
  0
LINE
  8
0
 10
-203.360519
 20
45.417191
 11
-195.360535
 21
45.417191
  0
LINE
  8
0
 10
-203.360519
 20
42.917191
 11
-195.360535
 21
42.917191
  0
LINE
  8
0
 10
-195.360535
 20
42.917191
 11
-195.360535
 21
45.417191
  0
LINE
  8
0
 10
-203.360519
 20
42.917191
 11
-203.360519
 21
45.417191
  0
LINE
  8
0
 10
-194.741699
 20
46.574448
 11
-194.741699
 21
50.217178
  0
LINE
  8
0
 10
-197.051147
 20
46.574448
 11
-197.051147
 21
50.217178
  0
LINE
  8
0
 10
-201.669937
 20
46.574448
 11
-201.669937
 21
50.217178
  0
LINE
  8
0
 10
-203.979324
 20
46.574448
 11
-203.979324
 21
50.217178
  0
LINE
  8
0
 10
-196.860535
 20
45.417191
 11
-196.860535
 21
46.217178
  0
LINE
  8
0
 10
-201.860519
 20
45.417191
 11
-201.860519
 21
46.217178
  0
LINE
  8
0
 10
-200.860519
 20
37.717178
 11
-200.860519
 21
42.917191
  0
LINE
  8
0
 10
-197.860519
 20
37.717178
 11
-197.860519
 21
42.917191
  0
LINE
  8
0
 62
     2
 10
-198.131027
 20
37.717178
 11
-198.131027
 21
42.917191
  0
LINE
  8
0
 62
     2
 10
-200.590012
 20
37.717178
 11
-200.590012
 21
42.917191
  0
LINE
  8
0
 10
-185.860535
 20
49.217178
 11
-185.860535
 21
42.817184
  0
LINE
  8
0
 10
-186.360535
 20
57.467178
 11
-186.360535
 21
122.617187
  0
LINE
  8
0
 10
-186.360535
 20
122.617187
 11
-190.860535
 21
122.617187
  0
LINE
  8
0
 10
-206.360519
 20
111.156464
 11
-206.360519
 21
110.317169
  0
LINE
  8
0
 10
-207.860550
 20
79.817184
 11
-215.860535
 21
79.817184
  0
LINE
  8
0
 10
-207.860550
 20
85.817184
 11
-215.860535
 21
85.817184
  0
LINE
  8
0
 10
-206.360519
 20
51.517197
 11
-206.360519
 21
114.117157
  0
LINE
  8
0
 10
-207.860519
 20
79.817184
 11
-207.860519
 21
85.817184
  0
LINE
  8
0
 10
-215.860535
 20
114.517181
 11
-215.860535
 21
120.753662
  0
LINE
  8
0
 10
-213.860535
 20
115.667175
 11
-213.860535
 21
114.967163
  0
LINE
  8
0
 10
-215.860535
 20
111.117157
 11
-215.860535
 21
106.817184
  0
LINE
  8
0
 10
-208.260513
 20
122.817169
 11
-212.360535
 21
122.817169
  0
LINE
  8
0
 10
-202.760513
 20
114.317169
 11
-207.060532
 21
114.317169
  0
LINE
  8
0
 10
-215.860535
 20
85.817184
 11
-215.860535
 21
105.817184
  0
LINE
  8
0
 10
-206.360550
 20
110.817169
 11
-208.271713
 21
110.817169
  0
LINE
  8
0
 10
-206.360519
 20
110.817169
 11
-206.360519
 21
109.817169
  0
LINE
  8
0
 10
-206.360550
 20
110.317169
 11
-207.360550
 21
110.317169
  0
LINE
  8
0
 10
-213.860535
 20
114.517181
 11
-215.860535
 21
114.517181
  0
LINE
  8
0
 10
-213.860535
 20
111.117157
 11
-215.860535
 21
111.117157
  0
LINE
  8
0
 10
-213.860535
 20
109.967194
 11
-213.860535
 21
111.117187
  0
LINE
  8
0
 10
-211.360535
 20
109.967163
 11
-213.860535
 21
109.967163
  0
LINE
  8
0
 10
-211.360535
 20
115.667145
 11
-211.360535
 21
109.967163
  0
LINE
  8
0
 10
-213.860535
 20
115.667175
 11
-213.860535
 21
114.517181
  0
LINE
  8
0
 10
-211.360535
 20
115.667175
 11
-213.860535
 21
115.667175
  0
LINE
  8
0
 10
-207.060501
 20
114.317169
 11
-207.060501
 21
117.017181
  0
LINE
  8
0
 10
-209.210526
 20
117.017181
 11
-209.210526
 21
119.517181
  0
LINE
  8
0
 10
-207.060532
 20
117.017181
 11
-209.210526
 21
117.017181
  0
LINE
  8
0
 10
-208.260513
 20
119.517181
 11
-209.210526
 21
119.517181
  0
LINE
  8
0
 10
-208.260513
 20
119.517181
 11
-208.260513
 21
122.817169
  0
LINE
  8
0
 10
-202.760513
 20
114.117157
 11
-202.760513
 21
122.617187
  0
LINE
  8
0
 10
-204.460526
 20
119.517181
 11
-204.460526
 21
122.817169
  0
LINE
  8
0
 10
-195.560547
 20
122.817169
 11
-204.460526
 21
122.817169
  0
LINE
  8
0
 10
-207.060501
 20
51.317184
 11
-207.060501
 21
48.617187
  0
LINE
  8
0
 10
-209.210526
 20
48.617187
 11
-209.210526
 21
46.117187
  0
LINE
  8
0
 10
-207.060532
 20
48.617187
 11
-209.210526
 21
48.617187
  0
LINE
  8
0
 10
-208.260513
 20
46.117187
 11
-209.210526
 21
46.117187
  0
LINE
  8
0
 10
-208.260513
 20
46.117187
 11
-208.260513
 21
42.817184
  0
LINE
  8
0
 10
-192.160522
 20
44.817184
 11
-192.160522
 21
42.817169
  0
LINE
  8
0
 10
-204.260513
 20
51.317184
 11
-207.060532
 21
51.317184
  0
LINE
  8
0
 10
-195.560547
 20
42.817184
 11
-197.860550
 21
42.817184
  0
LINE
  8
0
 10
-208.704651
 20
110.567123
 11
-210.725372
 21
107.067131
  0
LINE
  8
0
 10
-207.360519
 20
105.817184
 11
-207.360519
 21
110.317169
  0
LINE
  8
0
 10
-215.860535
 20
51.117187
 11
-215.860535
 21
44.880692
  0
LINE
  8
0
 10
-213.860535
 20
49.967178
 11
-213.860535
 21
50.667191
  0
LINE
  8
0
 10
-215.860535
 20
54.517197
 11
-215.860535
 21
58.817184
  0
LINE
  8
0
 10
-208.260513
 20
42.817184
 11
-212.360535
 21
42.817184
  0
LINE
  8
0
 10
-215.860535
 20
79.817184
 11
-215.860535
 21
59.817184
  0
LINE
  8
0
 10
-213.860535
 20
51.117187
 11
-215.860535
 21
51.117187
  0
LINE
  8
0
 10
-213.860535
 20
54.517197
 11
-215.860535
 21
54.517197
  0
LINE
  8
0
 10
-213.860535
 20
55.667160
 11
-213.860535
 21
54.517166
  0
LINE
  8
0
 10
-211.360535
 20
55.667191
 11
-213.860535
 21
55.667191
  0
LINE
  8
0
 10
-211.360535
 20
49.967209
 11
-211.360535
 21
55.667191
  0
LINE
  8
0
 10
-213.860535
 20
49.967178
 11
-213.860535
 21
51.117187
  0
LINE
  8
0
 10
-211.360535
 20
49.967178
 11
-213.860535
 21
49.967178
  0
LINE
  8
0
 10
-208.704758
 20
55.067299
 11
-210.725479
 21
58.567307
  0
LINE
  8
0
 10
-206.360550
 20
54.817184
 11
-208.271713
 21
54.817184
  0
LINE
  8
0
 10
-206.360550
 20
55.317184
 11
-207.360550
 21
55.317184
  0
LINE
  8
0
 10
-207.360519
 20
59.817184
 11
-207.360519
 21
55.317184
  0
LINE
  8
0
 10
-201.860519
 20
15.416916
 11
-196.860535
 21
15.416916
  0
LINE
  8
0
 10
-196.860535
 20
15.416916
 11
-196.860535
 21
19.416916
  0
LINE
  8
0
 10
-201.860519
 20
15.416916
 11
-201.860519
 21
19.416916
  0
LINE
  8
0
 10
-201.860519
 20
19.416916
 11
-196.860535
 21
19.416916
  0
LINE
  8
0
 10
-203.360489
 20
27.916916
 11
-195.360474
 21
27.916916
  0
LINE
  8
0
 10
-203.360519
 20
27.116928
 11
-195.360535
 21
27.116928
  0
LINE
  8
0
 10
-203.360519
 20
24.616928
 11
-195.360535
 21
24.616928
  0
LINE
  8
0
 10
-195.360535
 20
24.616928
 11
-195.360535
 21
27.116928
  0
LINE
  8
0
 10
-203.360519
 20
24.616928
 11
-203.360519
 21
27.116928
  0
LINE
  8
0
 10
-196.860535
 20
27.116974
 11
-196.860535
 21
27.916962
  0
LINE
  8
0
 10
-201.860519
 20
27.116974
 11
-201.860519
 21
27.916962
  0
LINE
  8
0
 10
-200.860519
 20
19.416977
 11
-200.860519
 21
24.616989
  0
LINE
  8
0
 10
-197.860519
 20
19.416977
 11
-197.860519
 21
24.616989
  0
LINE
  8
0
 62
     2
 10
-198.131027
 20
19.416977
 11
-198.131027
 21
24.616989
  0
LINE
  8
0
 62
     2
 10
-200.590012
 20
19.416977
 11
-200.590012
 21
24.616989
  0
LINE
  8
0
 10
-196.110535
 20
40.916992
 11
-196.110535
 21
42.817184
  0
LINE
  8
0
 10
-202.610519
 20
40.916992
 11
-202.610519
 21
42.817184
  0
LINE
  8
0
 10
-204.260483
 20
31.916916
 11
-202.360519
 21
31.916916
  0
LINE
  8
0
 10
-204.260483
 20
40.916916
 11
-200.860519
 21
40.916916
  0
LINE
  8
0
 10
-195.360535
 20
27.916962
 11
-195.360535
 21
31.916992
  0
LINE
  8
0
 10
-203.360519
 20
27.916962
 11
-203.360519
 21
31.916992
  0
LINE
  8
0
 10
-199.360519
 20
28.274231
 11
-199.360519
 21
30.916931
  0
LINE
  8
0
 10
-194.460510
 20
31.916992
 11
-194.460510
 21
34.921921
  0
LINE
  8
0
 10
-204.260513
 20
31.916992
 11
-204.260513
 21
34.921921
  0
LINE
  8
0
 10
-196.360535
 20
31.916916
 11
-194.460510
 21
31.916916
  0
LINE
  8
0
 10
-194.460510
 20
36.911942
 11
-194.460510
 21
40.916992
  0
LINE
  8
0
 10
-204.260513
 20
36.911942
 11
-204.260513
 21
40.916992
  0
LINE
  8
0
 10
-207.360550
 20
59.817184
 11
-215.860535
 21
59.817184
  0
LINE
  8
0
 10
-207.360550
 20
105.817184
 11
-215.860535
 21
105.817184
  0
LINE
  8
0
 10
-211.158447
 20
58.817184
 11
-215.860535
 21
58.817184
  0
LINE
  8
0
 10
-211.158447
 20
106.817184
 11
-215.860535
 21
106.817184
  0
LINE
  8
0
 10
-206.860519
 20
55.317184
 11
-206.860519
 21
110.317169
  0
LINE
  8
0
 10
-206.360550
 20
114.117157
 11
-202.760513
 21
114.117157
  0
LINE
  8
0
 10
-204.260513
 20
51.517197
 11
-206.360550
 21
51.517197
  0
LINE
  8
0
 10
-186.060486
 20
62.517212
 11
-186.060486
 21
103.117187
  0
LINE
  8
0
 10
-186.360535
 20
50.967178
 11
-186.360535
 21
43.017197
  0
LINE
  8
0
 10
-196.860535
 20
118.117187
 11
-196.860535
 21
122.617187
  0
LINE
  8
0
 10
-190.860535
 20
118.117187
 11
-196.860535
 21
118.117187
  0
LINE
  8
0
 10
-190.860535
 20
118.117187
 11
-190.860535
 21
122.617187
  0
LINE
  8
0
 10
-204.460526
 20
119.517181
 11
-202.760513
 21
119.517181
  0
LINE
  8
0
 10
-204.460526
 20
46.117187
 11
-204.460526
 21
42.817184
  0
LINE
  8
0
 10
-204.460526
 20
46.117187
 11
-201.860519
 21
46.117187
  0
LINE
  8
0
 10
-200.860550
 20
42.817184
 11
-204.460526
 21
42.817184
  0
LINE
  8
0
 10
-191.010498
 20
118.317169
 11
-196.710510
 21
118.317169
  0
LINE
  8
0
 10
-191.010498
 20
118.317169
 11
-191.010498
 21
120.817169
  0
LINE
  8
0
 10
-196.710510
 20
118.317169
 11
-196.710510
 21
120.817169
  0
LINE
  8
0
 10
-195.560547
 20
120.817169
 11
-196.710510
 21
120.817169
  0
LINE
  8
0
 10
-196.860535
 20
122.617187
 11
-202.760513
 21
122.617187
  0
LINE
  8
0
 10
-195.560486
 20
120.817169
 11
-195.560486
 21
122.817169
  0
LINE
  8
0
 10
-192.160522
 20
120.817169
 11
-192.160522
 21
122.817169
  0
LINE
  8
0
 10
-192.160522
 20
120.817169
 11
-191.010498
 21
120.817169
  0
LINE
  8
0
 10
-185.860535
 20
42.817184
 11
-192.160522
 21
42.817184
  0
LINE
  8
0
 10
-186.360535
 20
43.017181
 11
-190.860535
 21
43.017181
  0
LINE
  8
0
 10
-190.860535
 20
47.517181
 11
-190.860535
 21
43.017181
  0
LINE
  8
0
 10
-191.010498
 20
47.317184
 11
-191.010498
 21
44.817184
  0
LINE
  8
0
 10
-192.160522
 20
44.817184
 11
-191.010498
 21
44.817184
  0
LINE
  8
0
 10
-191.010498
 20
47.317184
 11
-194.741699
 21
47.317184
  0
LINE
  8
0
 10
-190.860535
 20
47.517181
 11
-194.741699
 21
47.517181
  0
LINE
  8
0
 10
-195.560486
 20
42.917191
 11
-195.560486
 21
42.817184
  0
LINE
  8
0
 10
-197.860519
 20
40.916916
 11
-194.460510
 21
40.916916
  0
LINE
  8
0
 10
-201.860519
 20
150.217453
 11
-196.860535
 21
150.217453
  0
LINE
  8
0
 10
-196.860535
 20
150.217453
 11
-196.860535
 21
146.217453
  0
LINE
  8
0
 10
-201.860519
 20
150.217453
 11
-201.860519
 21
146.217453
  0
LINE
  8
0
 10
-201.860519
 20
146.217453
 11
-196.860535
 21
146.217453
  0
LINE
  8
0
 10
-203.360489
 20
137.717453
 11
-195.360474
 21
137.717453
  0
LINE
  8
0
 10
-203.360519
 20
138.517441
 11
-195.360535
 21
138.517441
  0
LINE
  8
0
 10
-203.360519
 20
141.017441
 11
-195.360535
 21
141.017441
  0
LINE
  8
0
 10
-195.360535
 20
141.017441
 11
-195.360535
 21
138.517441
  0
LINE
  8
0
 10
-203.360519
 20
141.017441
 11
-203.360519
 21
138.517441
  0
LINE
  8
0
 10
-196.860535
 20
138.517410
 11
-196.860535
 21
137.717422
  0
LINE
  8
0
 10
-201.860519
 20
138.517410
 11
-201.860519
 21
137.717422
  0
LINE
  8
0
 10
-200.860519
 20
146.217422
 11
-200.860519
 21
141.017410
  0
LINE
  8
0
 10
-197.860519
 20
146.217422
 11
-197.860519
 21
141.017410
  0
LINE
  8
0
 62
     2
 10
-198.131027
 20
146.217422
 11
-198.131027
 21
141.017410
  0
LINE
  8
0
 62
     2
 10
-200.590012
 20
146.217422
 11
-200.590012
 21
141.017410
  0
LINE
  8
0
 10
-196.110535
 20
124.717377
 11
-196.110535
 21
122.817169
  0
LINE
  8
0
 10
-202.610519
 20
124.717377
 11
-202.610519
 21
122.817169
  0
LINE
  8
0
 10
-204.260483
 20
124.717438
 11
-194.460510
 21
124.717438
  0
LINE
  8
0
 10
-195.360535
 20
137.717422
 11
-195.360535
 21
133.717392
  0
LINE
  8
0
 10
-203.360519
 20
137.717422
 11
-203.360519
 21
133.717392
  0
LINE
  8
0
 10
-199.360519
 20
137.360153
 11
-199.360519
 21
133.717453
  0
LINE
  8
0
 10
-204.260513
 20
133.717453
 11
-194.460510
 21
133.717453
  0
LINE
  8
0
 10
-194.460510
 20
133.717453
 11
-194.460510
 21
124.717377
  0
LINE
  8
0
 10
-204.260513
 20
133.717453
 11
-204.260513
 21
124.717377
  0
LINE
  8
0
 10
-199.360428
 20
96.198257
 11
-195.360428
 21
98.507652
  0
LINE
  8
0
 10
-203.360596
 20
98.507866
 11
-199.360580
 21
96.198448
  0
LINE
  8
0
 10
-203.360519
 20
103.126587
 11
-203.360519
 21
98.507782
  0
LINE
  8
0
 10
-203.360535
 20
103.126472
 11
-199.360535
 21
105.435875
  0
LINE
  8
0
 10
-199.360611
 20
105.436050
 11
-195.360580
 21
103.126625
  0
LINE
  8
0
 10
-195.360535
 20
103.126587
 11
-195.360535
 21
98.507782
  0
LINE
  8
0
 10
-204.342255
 20
64.389702
 11
-204.962845
 21
64.335403
  0
LINE
  8
0
 10
-204.342224
 20
65.244324
 11
-204.962845
 21
65.298615
  0
LINE
  8
0
 10
-188.860535
 20
122.817169
 11
-192.160522
 21
122.817169
  0
LINE
  8
0
 62
     4
 10
-207.960526
 20
45.517181
 11
-207.360550
 21
45.517181
  0
LINE
  8
0
 62
     4
 10
-204.260513
 20
51.317200
 11
-206.860519
 21
51.317200
  0
LINE
  8
0
 62
     4
 10
-207.960526
 20
45.817200
 11
-207.960526
 21
45.517181
  0
LINE
  8
0
 62
     4
 10
-203.760513
 20
46.717194
 11
-205.360550
 21
46.717194
  0
LINE
  8
0
 62
     4
 10
-205.760513
 20
47.317200
 11
-205.760513
 21
45.317200
  0
LINE
  8
0
 62
     4
 10
-206.960526
 20
47.317200
 11
-206.960526
 21
45.317200
  0
LINE
  8
0
 62
     4
 10
-206.060501
 20
44.717194
 11
-206.060501
 21
44.041992
  0
LINE
  8
0
 62
     4
 10
-203.760513
 20
46.717194
 11
-203.760513
 21
46.117187
  0
LINE
  8
0
 62
     4
 10
-204.760513
 20
45.817200
 11
-204.760513
 21
45.517181
  0
LINE
  8
0
 62
     4
 10
-208.110550
 20
45.317200
 11
-204.610550
 21
45.317200
  0
LINE
  8
0
 62
     4
 10
-206.660538
 20
44.717194
 11
-206.660538
 21
44.041992
  0
LINE
  8
0
 62
     4
 10
-206.860519
 20
51.317200
 11
-206.860519
 21
47.317200
  0
LINE
  8
0
 62
     4
 10
-207.360550
 20
47.317200
 11
-203.979324
 21
47.317200
  0
LINE
  8
0
 62
     4
 10
-205.360519
 20
47.317200
 11
-205.360519
 21
45.317200
  0
LINE
  8
0
 62
     4
 10
-207.360519
 20
47.317200
 11
-207.360519
 21
45.317200
  0
LINE
  8
0
 62
     4
 10
-206.660538
 20
44.717194
 11
-206.060532
 21
44.717194
  0
LINE
  8
0
 62
     4
 10
-204.760513
 20
45.517181
 11
-205.360550
 21
45.517181
  0
LINE
  8
0
 62
     4
 10
-208.960526
 20
46.717194
 11
-207.360550
 21
46.717194
  0
LINE
  8
0
 62
     4
 10
-208.960526
 20
46.717194
 11
-208.960526
 21
46.117187
  0
LINE
  8
0
  6
CENTER
 62
     2
 10
-134.546600
 20
-16.682714
 11
229.781891
 21
-16.682714
  0
LINE
  8
0
 10
-115.640846
 20
-22.682690
 11
-115.640846
 21
-10.682674
  0
LINE
  8
0
 10
-114.840858
 20
-10.682714
 11
-115.640846
 21
-10.682714
  0
LINE
  8
0
 10
-109.140846
 20
-3.182745
 11
200.859070
 21
-3.182745
  0
LINE
  8
0
 10
-109.140846
 20
-33.182747
 11
200.859070
 21
-33.182747
  0
LINE
  8
0
 10
-109.140846
 20
-9.482733
 11
200.859070
 21
-9.482733
  0
LINE
  8
0
 10
-109.140846
 20
-3.182691
 11
-109.140846
 21
-21.782682
  0
LINE
  8
0
 10
-114.840858
 20
-3.682745
 11
-109.140846
 21
-3.682745
  0
LINE
  8
0
 10
120.268188
 20
-12.682875
 11
122.577576
 21
-16.682781
  0
LINE
  8
0
 10
113.340042
 20
-16.682873
 11
115.649429
 21
-20.682850
  0
LINE
  8
0
 10
120.268456
 20
-20.682684
 11
115.649651
 21
-20.682684
  0
LINE
  8
0
 10
120.268494
 20
-12.682684
 11
115.649689
 21
-12.682684
  0
LINE
  8
0
 10
122.577896
 20
-16.682785
 11
120.268539
 21
-20.682743
  0
LINE
  8
0
 10
115.649651
 20
-12.682670
 11
113.340248
 21
-16.682671
  0
LINE
  8
0
 10
117.959068
 20
-21.582647
 11
106.159058
 21
-21.582647
  0
LINE
  8
0
 10
103.259071
 20
-21.682730
 11
103.259071
 21
-11.682729
  0
LINE
  8
0
 10
104.859077
 20
-21.682730
 11
104.859077
 21
-11.682729
  0
LINE
  8
0
 10
114.430626
 20
-20.082647
 11
111.959068
 21
-20.082647
  0
LINE
  8
0
 10
110.459068
 20
-21.582695
 11
110.459068
 21
-11.782706
  0
LINE
  8
0
 10
111.959068
 20
-20.082695
 11
111.959068
 21
-13.282706
  0
LINE
  8
0
 10
106.159065
 20
-21.582693
 11
106.159065
 21
-11.782705
  0
LINE
  8
0
 10
104.859070
 20
-21.682684
 11
103.259064
 21
-21.682684
  0
LINE
  8
0
 10
104.859085
 20
-11.682684
 11
103.259079
 21
-11.682684
  0
LINE
  8
0
 10
117.959076
 20
-11.782660
 11
106.159073
 21
-11.782660
  0
LINE
  8
0
 10
114.430634
 20
-13.282660
 11
111.959076
 21
-13.282660
  0
LINE
  8
0
 10
106.159058
 20
-19.932684
 11
104.859070
 21
-19.932684
  0
LINE
  8
0
 10
106.159073
 20
-13.432684
 11
104.859085
 21
-13.432684
  0
LINE
  8
0
 10
110.459351
 20
-21.582973
 11
111.959358
 21
-20.082964
  0
LINE
  8
0
 10
110.458923
 20
-11.782929
 11
111.958908
 21
-13.282918
  0
LINE
  8
0
 10
-125.740822
 20
-14.182730
 11
-132.740814
 21
-14.182730
  0
LINE
  8
0
 10
-125.340858
 20
-19.182730
 11
-132.740814
 21
-19.182730
  0
LINE
  8
0
 10
-132.740814
 20
-14.182686
 11
-132.740814
 21
-19.182686
  0
LINE
  8
0
 62
     2
 10
-125.357460
 20
-18.582724
 11
-132.740814
 21
-18.582724
  0
LINE
  8
0
 62
     2
 10
-125.740822
 20
-14.782721
 11
-132.740814
 21
-14.782721
  0
LINE
  8
0
 10
-115.640846
 20
-11.682714
 11
-115.940834
 21
-11.682714
  0
LINE
  8
0
 10
-125.340858
 20
-18.621742
 11
-125.340858
 21
-21.682688
  0
LINE
  8
0
 10
-109.140846
 20
-12.882742
 11
103.259079
 21
-12.882742
  0
LINE
  8
0
 10
-109.140846
 20
-5.182745
 11
200.859070
 21
-5.182745
  0
LINE
  8
0
 10
-114.840858
 20
-3.682688
 11
-114.840858
 21
-23.682705
  0
LINE
  8
0
 62
     4
 10
-76.640846
 20
-23.914740
 11
-76.640846
 21
-21.782690
  0
LINE
  8
0
 62
     4
 10
-77.640846
 20
-24.182730
 11
-86.594093
 21
-24.182730
  0
LINE
  8
0
 62
     4
 10
-102.640846
 20
-21.782682
 11
-102.640846
 21
-24.182676
  0
LINE
  8
0
 62
     4
 10
-102.640846
 20
-23.682730
 11
-111.106575
 21
-23.682730
  0
LINE
  8
0
 62
     4
 10
-109.140846
 20
-20.682730
 11
-110.302742
 21
-20.682730
  0
LINE
  8
0
 62
     4
 10
-91.594093
 20
-21.782686
 11
-91.594093
 21
-25.582689
  0
LINE
  8
0
 62
     4
 10
-86.594093
 20
-21.782688
 11
-86.594093
 21
-25.582691
  0
LINE
  8
0
 62
     4
 10
-91.594093
 20
-24.182730
 11
-102.640846
 21
-24.182730
  0
LINE
  8
0
 62
     4
 10
-77.640846
 20
-24.182684
 11
-77.640846
 21
-21.782690
  0
LINE
  8
0
 62
     4
 10
-76.640907
 20
-23.914665
 11
-77.640877
 21
-24.182611
  0
LINE
  8
0
 10
-109.140846
 20
-25.582739
 11
200.859070
 21
-25.582739
  0
LINE
  8
0
 10
-86.594093
 20
-24.382742
 11
200.859070
 21
-24.382742
  0
LINE
  8
0
 10
-109.140846
 20
-24.382742
 11
-91.594093
 21
-24.382742
  0
LINE
  8
0
 10
-109.140846
 20
-20.082724
 11
-114.840858
 21
-20.082724
  0
LINE
  8
0
 10
-109.140846
 20
-14.182730
 11
-114.840858
 21
-14.182730
  0
LINE
  8
0
 10
-109.140846
 20
-8.182730
 11
-114.840858
 21
-8.182730
  0
LINE
  8
0
 62
     4
 10
-111.106628
 20
-23.682699
 11
-110.302773
 21
-20.682701
  0
LINE
  8
0
 10
-109.140846
 20
-23.682676
 11
-109.140846
 21
-33.182693
  0
LINE
  8
0
  6
CENTER
 62
     2
 10
45.859093
 20
0.111048
 11
45.859093
 21
-36.289543
  0
LINE
  8
0
 10
200.859070
 20
-21.782736
 11
-109.140846
 21
-21.782736
  0
LINE
  8
0
 10
207.359070
 20
-12.682755
 11
207.359070
 21
-10.682755
  0
LINE
  8
0
 10
206.559052
 20
-10.682714
 11
207.359070
 21
-10.682714
  0
LINE
  8
0
 10
200.859070
 20
-3.182768
 11
200.859070
 21
-33.182785
  0
LINE
  8
0
 10
206.559052
 20
-3.682745
 11
200.859070
 21
-3.682745
  0
LINE
  8
0
 10
217.459045
 20
-14.182773
 11
217.459045
 21
-4.882754
  0
LINE
  8
0
 10
217.559082
 20
-1.982733
 11
207.559082
 21
-1.982733
  0
LINE
  8
0
 10
217.559082
 20
-3.582739
 11
207.559082
 21
-3.582739
  0
LINE
  8
0
 10
215.959045
 20
-11.682740
 11
215.959045
 21
-10.682757
  0
LINE
  8
0
 10
217.459045
 20
-9.182730
 11
207.659058
 21
-9.182730
  0
LINE
  8
0
 10
215.959045
 20
-10.682730
 11
209.159058
 21
-10.682730
  0
LINE
  8
0
 10
217.459045
 20
-4.882727
 11
207.659058
 21
-4.882727
  0
LINE
  8
0
 10
217.559082
 20
-3.582767
 11
217.559082
 21
-1.982761
  0
LINE
  8
0
 10
207.559082
 20
-3.582765
 11
207.559082
 21
-1.982759
  0
LINE
  8
0
 10
207.659058
 20
-11.682739
 11
207.659058
 21
-4.882753
  0
LINE
  8
0
 10
209.159058
 20
-11.682739
 11
209.159058
 21
-10.682755
  0
LINE
  8
0
 10
215.809082
 20
-4.882754
 11
215.809082
 21
-3.582767
  0
LINE
  8
0
 10
209.309082
 20
-4.882753
 11
209.309082
 21
-3.582766
  0
LINE
  8
0
 10
217.459335
 20
-9.183081
 11
215.959320
 21
-10.683089
  0
LINE
  8
0
 10
207.659225
 20
-9.182608
 11
209.159241
 21
-10.682619
  0
LINE
  8
0
 10
210.559143
 20
-14.182730
 11
224.459045
 21
-14.182730
  0
LINE
  8
0
 10
210.559143
 20
-19.182730
 11
224.459045
 21
-19.182730
  0
LINE
  8
0
 10
224.459045
 20
-14.182774
 11
224.459045
 21
-19.182774
  0
LINE
  8
0
 62
     2
 10
210.559143
 20
-18.582724
 11
224.459045
 21
-18.582724
  0
LINE
  8
0
 62
     2
 10
210.559143
 20
-14.782721
 11
224.459045
 21
-14.782721
  0
LINE
  8
0
 10
207.359070
 20
-11.682714
 11
217.459045
 21
-11.682714
  0
LINE
  8
0
 10
200.859070
 20
-12.882742
 11
121.052643
 21
-12.882742
  0
LINE
  8
0
 10
200.859070
 20
-23.682730
 11
206.559052
 21
-23.682730
  0
LINE
  8
0
 10
206.559052
 20
-3.682771
 11
206.559052
 21
-23.682770
  0
LINE
  8
0
 10
200.859070
 20
-20.082724
 11
206.559052
 21
-20.082724
  0
LINE
  8
0
 10
200.859070
 20
-14.182730
 11
206.559052
 21
-14.182730
  0
LINE
  8
0
 10
200.859070
 20
-8.182730
 11
206.559052
 21
-8.182730
  0
LINE
  8
0
 10
206.559052
 20
-20.682714
 11
210.559143
 21
-20.682714
  0
LINE
  8
0
 10
206.559052
 20
-12.682714
 11
210.559143
 21
-12.682714
  0
LINE
  8
0
 10
210.559143
 20
-20.682755
 11
210.559143
 21
-12.682755
  0
LINE
  8
0
 10
210.201874
 20
-16.682714
 11
206.559052
 21
-16.682714
  0
LINE
  8
0
 10
-116.840927
 20
-18.992058
 11
-120.840889
 21
-21.301474
  0
LINE
  8
0
 10
-120.841003
 20
-12.063659
 11
-124.840973
 21
-14.373045
  0
LINE
  8
0
 10
-124.840858
 20
-18.992058
 11
-124.840858
 21
-14.373254
  0
LINE
  8
0
 10
-116.840858
 20
-18.991932
 11
-116.840858
 21
-14.373286
  0
LINE
  8
0
 10
-120.840912
 20
-21.301449
 11
-124.840881
 21
-18.992081
  0
LINE
  8
0
 10
-116.840782
 20
-14.373176
 11
-120.840782
 21
-12.063771
  0
LINE
  8
0
 10
-125.740822
 20
-16.682671
 11
-125.740822
 21
-4.882668
  0
LINE
  8
0
 10
-125.840858
 20
-1.982733
 11
-115.840858
 21
-1.982733
  0
LINE
  8
0
 10
-125.840858
 20
-3.582739
 11
-115.840858
 21
-3.582739
  0
LINE
  8
0
 10
-124.240822
 20
-13.154229
 11
-124.240822
 21
-10.682672
  0
LINE
  8
0
 10
-125.740822
 20
-9.182730
 11
-115.940834
 21
-9.182730
  0
LINE
  8
0
 10
-124.240822
 20
-10.682730
 11
-117.440834
 21
-10.682730
  0
LINE
  8
0
 10
-125.740822
 20
-4.882727
 11
-115.940834
 21
-4.882727
  0
LINE
  8
0
 10
-125.840858
 20
-3.582680
 11
-125.840858
 21
-1.982674
  0
LINE
  8
0
 10
-115.840858
 20
-3.582682
 11
-115.840858
 21
-1.982676
  0
LINE
  8
0
 10
-115.940834
 20
-16.682674
 11
-115.940834
 21
-4.882670
  0
LINE
  8
0
 10
-117.440834
 20
-13.154231
 11
-117.440834
 21
-10.682673
  0
LINE
  8
0
 10
-124.090858
 20
-4.882668
 11
-124.090858
 21
-3.582681
  0
LINE
  8
0
 10
-117.590858
 20
-4.882669
 11
-117.590858
 21
-3.582682
  0
LINE
  8
0
 10
-125.741127
 20
-9.182948
 11
-124.241112
 21
-10.682958
  0
LINE
  8
0
 10
-115.941170
 20
-9.182419
 11
-117.441177
 21
-10.682417
  0
LINE
  8
0
 10
120.018150
 20
-21.782736
 11
200.859070
 21
-21.782736
  0
LINE
  8
0
  6
CENTER
 62
     2
 10
13.359093
 20
0.111055
 11
13.359093
 21
-36.289536
  0
LINE
  8
0
  6
CENTER
 62
     2
 10
78.359093
 20
0.111041
 11
78.359093
 21
-36.289551
  0
LINE
  8
0
 62
     4
 10
-88.245590
 20
-22.834139
 11
-89.942642
 21
-24.531191
  0
LINE
  8
0
 62
     4
 10
-88.245605
 20
-24.531252
 11
-89.942657
 21
-22.834200
  0
LINE
  8
0
 10
-125.340858
 20
-21.682714
 11
-115.640846
 21
-21.682714
  0
LINE
  8
0
 10
-109.140877
 20
-23.682730
 11
-114.840858
 21
-23.682730
  0
LINE
  8
0
 10
-114.840858
 20
-22.682714
 11
-115.640846
 21
-22.682714
  0
LINE
  8
0
  6
CENTER
 62
     2
 10
-119.200348
 20
-121.182770
 11
212.107315
 21
-121.182770
  0
LINE
  8
0
 10
-109.141022
 20
-81.182770
 11
200.859055
 21
-81.182770
  0
LINE
  8
0
 10
113.459015
 20
-99.682777
 11
113.459015
 21
-108.182785
  0
LINE
  8
0
 10
123.359024
 20
-108.182777
 11
113.459015
 21
-108.182777
  0
LINE
  8
0
 10
121.959015
 20
-99.682777
 11
113.459030
 21
-99.682777
  0
LINE
  8
0
 10
123.359024
 20
-98.182747
 11
121.959015
 21
-98.182747
  0
LINE
  8
0
 10
133.859055
 20
-116.682762
 11
158.959045
 21
-116.682762
  0
LINE
  8
0
 10
133.859055
 20
-125.682762
 11
158.959045
 21
-125.682762
  0
LINE
  8
0
 10
200.859070
 20
-81.382759
 11
206.559082
 21
-81.382759
  0
LINE
  8
0
 10
200.859070
 20
-160.982773
 11
206.559052
 21
-160.982773
  0
LINE
  8
0
 10
131.959030
 20
-107.182762
 11
158.959045
 21
-107.182762
  0
LINE
  8
0
 10
130.059036
 20
-98.182747
 11
130.459030
 21
-98.182747
  0
LINE
  8
0
 10
130.459015
 20
-97.182785
 11
130.459015
 21
-109.182785
  0
LINE
  8
0
 10
131.959015
 20
-97.182785
 11
131.959015
 21
-109.182785
  0
LINE
  8
0
 10
130.059036
 20
-108.182747
 11
130.459030
 21
-108.182747
  0
LINE
  8
0
 10
130.459030
 20
-97.182747
 11
131.959030
 21
-97.182747
  0
LINE
  8
0
 10
130.459030
 20
-109.182747
 11
131.959030
 21
-109.182747
  0
LINE
  8
0
 10
130.059021
 20
-145.182800
 11
130.059021
 21
-97.182808
  0
LINE
  8
0
 10
124.359024
 20
-110.682800
 11
124.359024
 21
-97.182800
  0
LINE
  8
0
 10
131.959030
 20
-99.182762
 11
158.959045
 21
-99.182762
  0
LINE
  8
0
 10
123.359024
 20
-109.182785
 11
123.359024
 21
-97.182785
  0
LINE
  8
0
 62
     2
 10
131.459076
 20
-137.182770
 11
130.059021
 21
-137.182770
  0
LINE
  8
0
 62
     2
 10
131.459076
 20
-141.182770
 11
130.059021
 21
-141.182770
  0
LINE
  8
0
 10
199.459015
 20
-105.932747
 11
197.959045
 21
-105.932747
  0
LINE
  8
0
 10
199.459000
 20
-105.932823
 11
199.459000
 21
-100.432823
  0
LINE
  8
0
 10
199.459015
 20
-100.432747
 11
197.959045
 21
-100.432747
  0
LINE
  8
0
 10
130.059021
 20
-136.682770
 11
131.459076
 21
-136.682770
  0
LINE
  8
0
 10
130.059021
 20
-141.682770
 11
131.459076
 21
-141.682770
  0
LINE
  8
0
 10
101.459015
 20
-136.682739
 11
116.059052
 21
-136.682739
  0
LINE
  8
0
 62
     2
 10
101.459015
 20
-137.282745
 11
116.059052
 21
-137.282745
  0
LINE
  8
0
 10
101.459015
 20
-141.682755
 11
116.059052
 21
-141.682755
  0
LINE
  8
0
 62
     2
 10
101.459015
 20
-141.082733
 11
116.059052
 21
-141.082733
  0
LINE
  8
0
 10
101.459015
 20
-136.682755
 11
101.459015
 21
-141.682770
  0
LINE
  8
0
 10
124.359055
 20
-109.182747
 11
123.359055
 21
-109.182747
  0
LINE
  8
0
 10
124.359055
 20
-97.182747
 11
123.359055
 21
-97.182747
  0
LINE
  8
0
 10
206.559036
 20
-81.382835
 11
206.559036
 21
-160.982819
  0
LINE
  8
0
 10
217.459045
 20
-142.682846
 11
217.459045
 21
-134.182770
  0
LINE
  8
0
 10
207.559036
 20
-134.182739
 11
217.459045
 21
-134.182739
  0
LINE
  8
0
 10
215.459045
 20
-170.282761
 11
210.459030
 21
-170.282761
  0
LINE
  8
0
 10
210.459030
 20
-170.282791
 11
210.459030
 21
-166.282791
  0
LINE
  8
0
 10
215.459045
 20
-170.282791
 11
215.459045
 21
-166.282791
  0
LINE
  8
0
 10
215.459045
 20
-166.282761
 11
210.459030
 21
-166.282761
  0
LINE
  8
0
 10
216.859085
 20
-143.282761
 11
209.059097
 21
-143.282761
  0
LINE
  8
0
 10
216.959091
 20
-157.782761
 11
208.959091
 21
-157.782761
  0
LINE
  8
0
 10
216.959045
 20
-158.582748
 11
208.959030
 21
-158.582748
  0
LINE
  8
0
 10
216.959045
 20
-161.082748
 11
208.959030
 21
-161.082748
  0
LINE
  8
0
 10
208.959030
 20
-161.082764
 11
208.959030
 21
-158.582764
  0
LINE
  8
0
 10
216.959045
 20
-161.082779
 11
216.959045
 21
-158.582779
  0
LINE
  8
0
 10
210.459030
 20
-158.582840
 11
210.459030
 21
-157.782852
  0
LINE
  8
0
 10
215.459045
 20
-158.582840
 11
215.459045
 21
-157.782852
  0
LINE
  8
0
 10
214.459045
 20
-166.282852
 11
214.459045
 21
-161.082840
  0
LINE
  8
0
 10
211.459030
 20
-166.282852
 11
211.459030
 21
-161.082840
  0
LINE
  8
0
 62
     2
 10
211.729538
 20
-166.282852
 11
211.729538
 21
-161.082840
  0
LINE
  8
0
 62
     2
 10
214.188538
 20
-166.282852
 11
214.188538
 21
-161.082840
  0
LINE
  8
0
 10
209.709030
 20
-144.782837
 11
209.709030
 21
-143.282837
  0
LINE
  8
0
 10
216.209045
 20
-144.782837
 11
216.209045
 21
-143.282837
  0
LINE
  8
0
 10
209.059067
 20
-143.282837
 11
209.059067
 21
-142.682846
  0
LINE
  8
0
 10
216.859070
 20
-143.282837
 11
216.859070
 21
-142.682846
  0
LINE
  8
0
 10
217.859085
 20
-153.782761
 11
208.059082
 21
-153.782761
  0
LINE
  8
0
 10
217.859085
 20
-144.782761
 11
208.059082
 21
-144.782761
  0
LINE
  8
0
 10
208.959030
 20
-157.782837
 11
208.959030
 21
-153.782837
  0
LINE
  8
0
 10
216.959045
 20
-157.782852
 11
216.959045
 21
-153.782837
  0
LINE
  8
0
 10
212.959030
 20
-157.425583
 11
212.959030
 21
-153.782837
  0
LINE
  8
0
 10
208.059067
 20
-153.782837
 11
208.059067
 21
-144.782837
  0
LINE
  8
0
 10
217.859070
 20
-153.782837
 11
217.859070
 21
-144.782837
  0
LINE
  8
0
 10
207.559036
 20
-144.182785
 11
208.859070
 21
-144.182785
  0
LINE
  8
0
 10
198.959076
 20
-135.182770
 11
197.959045
 21
-135.182770
  0
LINE
  8
0
 10
200.859055
 20
-144.182785
 11
200.459076
 21
-144.182785
  0
LINE
  8
0
 10
200.859055
 20
-134.182770
 11
200.459076
 21
-134.182770
  0
LINE
  8
0
 10
200.459076
 20
-145.182785
 11
198.959076
 21
-145.182785
  0
LINE
  8
0
 10
200.459076
 20
-133.182770
 11
198.959076
 21
-133.182770
  0
LINE
  8
0
 10
200.459045
 20
-133.182861
 11
200.459045
 21
-145.182831
  0
LINE
  8
0
 10
198.959045
 20
-133.182861
 11
198.959045
 21
-145.182831
  0
LINE
  8
0
 10
208.859055
 20
-144.182846
 11
208.859055
 21
-142.682846
  0
LINE
  8
0
 10
198.959076
 20
-143.182755
 11
197.959045
 21
-143.182755
  0
LINE
  8
0
 10
197.959030
 20
-145.182831
 11
197.959030
 21
-97.182831
  0
LINE
  8
0
 10
158.959030
 20
-97.182823
 11
158.959030
 21
-145.182816
  0
LINE
  8
0
 10
207.559036
 20
-133.182846
 11
207.559036
 21
-145.182846
  0
LINE
  8
0
 62
     2
 10
199.459015
 20
-105.182747
 11
200.859055
 21
-105.182747
  0
LINE
  8
0
 62
     2
 10
199.459015
 20
-101.182747
 11
200.859070
 21
-101.182747
  0
LINE
  8
0
 10
157.459076
 20
-136.432770
 11
158.959045
 21
-136.432770
  0
LINE
  8
0
 10
157.459061
 20
-136.432831
 11
157.459061
 21
-141.932831
  0
LINE
  8
0
 10
157.459076
 20
-141.932770
 11
158.959045
 21
-141.932770
  0
LINE
  8
0
 10
200.859055
 20
-105.682747
 11
199.459015
 21
-105.682747
  0
LINE
  8
0
 10
200.859055
 20
-100.682747
 11
199.459015
 21
-100.682747
  0
LINE
  8
0
 10
200.859055
 20
-161.182831
 11
200.859055
 21
-81.182823
  0
LINE
  8
0
 10
224.459045
 20
-105.682785
 11
210.559067
 21
-105.682785
  0
LINE
  8
0
 62
     2
 10
224.459061
 20
-105.082779
 11
210.559067
 21
-105.082779
  0
LINE
  8
0
 10
210.201797
 20
-100.873390
 11
206.559067
 21
-100.873390
  0
LINE
  8
0
 10
224.459045
 20
-100.682785
 11
210.559067
 21
-100.682785
  0
LINE
  8
0
 62
     2
 10
224.459061
 20
-101.282791
 11
210.559067
 21
-101.282791
  0
LINE
  8
0
 10
210.559067
 20
-107.182846
 11
210.559067
 21
-99.182686
  0
LINE
  8
0
 10
224.459045
 20
-105.682816
 11
224.459045
 21
-100.682816
  0
LINE
  8
0
 10
210.201797
 20
-107.801575
 11
206.559067
 21
-107.801575
  0
LINE
  8
0
 10
210.559082
 20
-107.182907
 11
210.201828
 21
-107.801689
  0
LINE
  8
0
 10
210.201797
 20
-105.492180
 11
206.559067
 21
-105.492180
  0
LINE
  8
0
 10
210.201797
 20
-98.563995
 11
206.559067
 21
-98.563995
  0
LINE
  8
0
 10
210.559280
 20
-99.182671
 11
210.201996
 21
-98.563873
  0
LINE
  8
0
 10
208.859070
 20
-142.682755
 11
217.459091
 21
-142.682755
  0
LINE
  8
0
 10
206.559052
 20
-133.182770
 11
207.559052
 21
-133.182770
  0
LINE
  8
0
 10
206.559052
 20
-145.182785
 11
207.559052
 21
-145.182785
  0
LINE
  8
0
 10
131.459061
 20
-136.682816
 11
131.459061
 21
-141.682816
  0
LINE
  8
0
 10
124.359039
 20
-110.682762
 11
120.059036
 21
-110.682762
  0
LINE
  8
0
 10
120.059021
 20
-145.182800
 11
120.059021
 21
-110.682800
  0
LINE
  8
0
 10
113.059021
 20
-70.282791
 11
113.059021
 21
-70.882797
  0
LINE
  8
0
 10
122.859009
 20
-70.282791
 11
122.859009
 21
-79.282791
  0
LINE
  8
0
 10
122.859032
 20
-79.282753
 11
113.059052
 21
-79.282753
  0
LINE
  8
0
 10
122.859032
 20
-70.282753
 11
113.059052
 21
-70.282753
  0
LINE
  8
0
 10
117.959045
 20
-73.582771
 11
110.459045
 21
-73.582771
  0
LINE
  8
0
 10
117.959045
 20
-74.982765
 11
110.459045
 21
-74.982765
  0
LINE
  8
0
 10
113.059090
 20
-70.882744
 11
114.359077
 21
-73.582726
  0
LINE
  8
0
 10
113.058884
 20
-77.682701
 11
114.358894
 21
-74.982674
  0
LINE
  8
0
 10
113.059021
 20
-77.682785
 11
113.059021
 21
-79.282791
  0
LINE
  8
0
 10
110.459045
 20
-69.382759
 11
106.159042
 21
-69.382759
  0
LINE
  8
0
 10
103.259018
 20
-69.282784
 11
103.259018
 21
-79.282784
  0
LINE
  8
0
 10
104.859024
 20
-69.282784
 11
104.859024
 21
-79.282784
  0
LINE
  8
0
 10
113.059052
 20
-70.882759
 11
111.959045
 21
-70.882759
  0
LINE
  8
0
 10
110.459015
 20
-69.382797
 11
110.459015
 21
-79.182785
  0
LINE
  8
0
 10
111.959015
 20
-70.882797
 11
111.959015
 21
-73.582779
  0
LINE
  8
0
 10
106.159012
 20
-69.382790
 11
106.159012
 21
-79.182777
  0
LINE
  8
0
 10
104.859055
 20
-69.282753
 11
103.259048
 21
-69.282753
  0
LINE
  8
0
 10
104.859039
 20
-79.282753
 11
103.259033
 21
-79.282753
  0
LINE
  8
0
 10
110.459045
 20
-79.182777
 11
106.159027
 21
-79.182777
  0
LINE
  8
0
 10
113.059052
 20
-77.682777
 11
111.959045
 21
-77.682777
  0
LINE
  8
0
 10
106.159042
 20
-71.032753
 11
104.859055
 21
-71.032753
  0
LINE
  8
0
 10
106.159027
 20
-77.532753
 11
104.859039
 21
-77.532753
  0
LINE
  8
0
 10
111.959015
 20
-74.982788
 11
111.959015
 21
-77.682785
  0
LINE
  8
0
 10
110.459045
 20
-69.382698
 11
111.959076
 21
-70.882729
  0
LINE
  8
0
 10
110.459038
 20
-79.182823
 11
111.959038
 21
-77.682823
  0
LINE
  8
0
 10
121.859032
 20
-80.782753
 11
114.059052
 21
-80.782753
  0
LINE
  8
0
 10
114.709015
 20
-79.282791
 11
114.709015
 21
-80.782791
  0
LINE
  8
0
 10
121.209015
 20
-79.282791
 11
121.209015
 21
-80.782791
  0
LINE
  8
0
 10
114.059021
 20
-80.782791
 11
114.059021
 21
-81.182800
  0
LINE
  8
0
 10
121.859009
 20
-80.782791
 11
121.859009
 21
-81.182800
  0
LINE
  8
0
 10
120.459023
 20
-53.782753
 11
115.459023
 21
-53.782753
  0
LINE
  8
0
 10
115.459015
 20
-53.782761
 11
115.459015
 21
-57.782764
  0
LINE
  8
0
 10
120.459015
 20
-53.782761
 11
120.459015
 21
-57.782764
  0
LINE
  8
0
 10
120.459023
 20
-57.782753
 11
115.459023
 21
-57.782753
  0
LINE
  8
0
 10
121.423149
 20
-66.282753
 11
114.494934
 21
-66.282753
  0
LINE
  8
0
 10
121.959023
 20
-65.482765
 11
113.959023
 21
-65.482765
  0
LINE
  8
0
 10
121.959023
 20
-62.982765
 11
113.959023
 21
-62.982765
  0
LINE
  8
0
 10
113.959015
 20
-62.982777
 11
113.959015
 21
-65.482773
  0
LINE
  8
0
 10
121.959015
 20
-62.982777
 11
121.959015
 21
-65.482773
  0
LINE
  8
0
 10
113.340210
 20
-66.640060
 11
113.340210
 21
-70.282791
  0
LINE
  8
0
 10
115.649628
 20
-66.640060
 11
115.649628
 21
-70.282791
  0
LINE
  8
0
 10
120.268433
 20
-66.640060
 11
120.268433
 21
-70.282791
  0
LINE
  8
0
 10
122.577820
 20
-66.640060
 11
122.577820
 21
-70.282791
  0
LINE
  8
0
 10
115.459015
 20
-65.482803
 11
115.459015
 21
-66.282791
  0
LINE
  8
0
 10
120.459015
 20
-65.482803
 11
120.459015
 21
-66.282791
  0
LINE
  8
0
 10
119.459015
 20
-57.782787
 11
119.459015
 21
-62.982800
  0
LINE
  8
0
 10
116.459015
 20
-57.782787
 11
116.459015
 21
-62.982800
  0
LINE
  8
0
 62
     2
 10
116.729523
 20
-57.782787
 11
116.729523
 21
-62.982800
  0
LINE
  8
0
 62
     2
 10
119.188507
 20
-57.782787
 11
119.188507
 21
-62.982800
  0
LINE
  8
0
 10
121.959015
 20
-99.082771
 11
113.959015
 21
-99.082771
  0
LINE
  8
0
 10
122.459030
 20
-97.582771
 11
113.459030
 21
-97.582771
  0
LINE
  8
0
 10
113.959015
 20
-99.682800
 11
113.959015
 21
-97.582794
  0
LINE
  8
0
 10
121.959015
 20
-99.682800
 11
121.959015
 21
-97.582794
  0
LINE
  8
0
 10
113.459015
 20
-97.582802
 11
113.459015
 21
-97.182800
  0
LINE
  8
0
 10
122.459015
 20
-97.582809
 11
122.459015
 21
-97.182800
  0
LINE
  8
0
 10
116.416306
 20
-143.801529
 11
120.059036
 21
-143.801529
  0
LINE
  8
0
 10
116.058952
 20
-143.182877
 11
116.416214
 21
-143.801651
  0
LINE
  8
0
 10
116.416306
 20
-141.492126
 11
120.059036
 21
-141.492126
  0
LINE
  8
0
 10
116.059006
 20
-135.182770
 11
116.059006
 21
-143.182938
  0
LINE
  8
0
 10
116.416306
 20
-134.563950
 11
120.059036
 21
-134.563950
  0
LINE
  8
0
 10
116.058922
 20
-135.182770
 11
116.416183
 21
-134.563980
  0
LINE
  8
0
 10
116.416306
 20
-136.873352
 11
120.059036
 21
-136.873352
  0
LINE
  8
0
 10
133.859039
 20
-116.682800
 11
133.859039
 21
-125.682800
  0
LINE
  8
0
 10
-109.141022
 20
-89.482773
 11
9.439861
 21
-89.482773
  0
LINE
  8
0
 10
-109.141022
 20
-92.882767
 11
200.859055
 21
-92.882767
  0
LINE
  8
0
 10
-109.141022
 20
-97.182770
 11
200.859055
 21
-97.182770
  0
LINE
  8
0
 10
-109.141022
 20
-145.182755
 11
200.859055
 21
-145.182755
  0
LINE
  8
0
 10
196.959045
 20
-144.182755
 11
188.959045
 21
-144.182755
  0
LINE
  8
0
 10
196.959045
 20
-98.182770
 11
188.959045
 21
-98.182770
  0
LINE
  8
0
 10
196.959045
 20
-118.182770
 11
188.959045
 21
-118.182770
  0
LINE
  8
0
 10
196.959045
 20
-124.182762
 11
188.959045
 21
-124.182762
  0
LINE
  8
0
 10
196.959030
 20
-145.182831
 11
196.959030
 21
-97.182831
  0
LINE
  8
0
 10
188.959030
 20
-145.182816
 11
188.959030
 21
-97.182831
  0
LINE
  8
0
 10
200.859070
 20
-89.982758
 11
206.559067
 21
-89.982758
  0
LINE
  8
0
 10
200.859070
 20
-152.382767
 11
206.559067
 21
-152.382767
  0
LINE
  8
0
  6
CENTER
 62
     2
 10
45.859039
 20
-78.285255
 11
45.859039
 21
-164.243744
  0
LINE
  8
0
 10
-21.740997
 20
-142.682770
 11
-21.740997
 21
-134.182739
  0
LINE
  8
0
 10
-31.641022
 20
-134.182755
 11
-21.740997
 21
-134.182755
  0
LINE
  8
0
 10
-30.240997
 20
-142.682755
 11
-21.740997
 21
-142.682755
  0
LINE
  8
0
 10
-31.641022
 20
-144.182785
 11
-30.240997
 21
-144.182785
  0
LINE
  8
0
 10
-42.141022
 20
-125.682770
 11
-67.240997
 21
-125.682770
  0
LINE
  8
0
 10
-42.141022
 20
-116.682770
 11
-67.240997
 21
-116.682770
  0
LINE
  8
0
 10
-109.141022
 20
-160.982773
 11
-114.841034
 21
-160.982773
  0
LINE
  8
0
 10
-109.141022
 20
-81.382767
 11
-114.841034
 21
-81.382767
  0
LINE
  8
0
 10
-40.240997
 20
-135.182770
 11
-67.240997
 21
-135.182770
  0
LINE
  8
0
 10
-38.341003
 20
-144.182785
 11
-38.740997
 21
-144.182785
  0
LINE
  8
0
 10
-38.740997
 20
-145.182770
 11
-38.740997
 21
-133.182770
  0
LINE
  8
0
 10
-40.240997
 20
-145.182770
 11
-40.240997
 21
-133.182770
  0
LINE
  8
0
 10
-38.341003
 20
-134.182785
 11
-38.740997
 21
-134.182785
  0
LINE
  8
0
 10
-38.740997
 20
-145.182785
 11
-40.240997
 21
-145.182785
  0
LINE
  8
0
 10
-38.740997
 20
-133.182785
 11
-40.240997
 21
-133.182785
  0
LINE
  8
0
 10
-38.341003
 20
-97.182755
 11
-38.341003
 21
-145.182739
  0
LINE
  8
0
 10
-32.641022
 20
-131.682755
 11
-32.641022
 21
-145.182739
  0
LINE
  8
0
 10
-40.240997
 20
-143.182770
 11
-67.240997
 21
-143.182770
  0
LINE
  8
0
 10
-31.641022
 20
-133.182770
 11
-31.641022
 21
-145.182770
  0
LINE
  8
0
 62
     2
 10
-39.741058
 20
-105.182755
 11
-38.340973
 21
-105.182755
  0
LINE
  8
0
 62
     2
 10
-39.741058
 20
-101.182755
 11
-38.340973
 21
-101.182755
  0
LINE
  8
0
 10
-107.740997
 20
-136.432785
 11
-106.240997
 21
-136.432785
  0
LINE
  8
0
 10
-107.740997
 20
-136.432739
 11
-107.740997
 21
-141.932739
  0
LINE
  8
0
 10
-107.740997
 20
-141.932785
 11
-106.240997
 21
-141.932785
  0
LINE
  8
0
 10
-38.340973
 20
-105.682755
 11
-39.741058
 21
-105.682755
  0
LINE
  8
0
 10
-38.340973
 20
-100.682755
 11
-39.741058
 21
-100.682755
  0
LINE
  8
0
 10
-9.740993
 20
-105.682793
 11
-24.341019
 21
-105.682793
  0
LINE
  8
0
 62
     2
 10
-9.740993
 20
-105.082787
 11
-24.341019
 21
-105.082787
  0
LINE
  8
0
 10
-9.740993
 20
-100.682785
 11
-24.341019
 21
-100.682785
  0
LINE
  8
0
 62
     2
 10
-9.740993
 20
-101.282791
 11
-24.341019
 21
-101.282791
  0
LINE
  8
0
 10
-9.740997
 20
-105.682785
 11
-9.740997
 21
-100.682777
  0
LINE
  8
0
 10
-32.641022
 20
-133.182785
 11
-31.641022
 21
-133.182785
  0
LINE
  8
0
 10
-32.641022
 20
-145.182785
 11
-31.641022
 21
-145.182785
  0
LINE
  8
0
 10
-114.841034
 20
-160.982727
 11
-114.841034
 21
-81.382744
  0
LINE
  8
0
 10
-125.740997
 20
-99.682724
 11
-125.740997
 21
-108.182762
  0
LINE
  8
0
 10
-115.841034
 20
-108.182785
 11
-125.740997
 21
-108.182785
  0
LINE
  8
0
 10
-123.740997
 20
-72.082779
 11
-118.740997
 21
-72.082779
  0
LINE
  8
0
 10
-118.740997
 20
-72.082748
 11
-118.740997
 21
-76.082748
  0
LINE
  8
0
 10
-123.740997
 20
-72.082748
 11
-123.740997
 21
-76.082748
  0
LINE
  8
0
 10
-123.740997
 20
-76.082779
 11
-118.740997
 21
-76.082779
  0
LINE
  8
0
 10
-125.141022
 20
-99.082779
 11
-117.341034
 21
-99.082779
  0
LINE
  8
0
 10
-125.241058
 20
-84.582779
 11
-117.241058
 21
-84.582779
  0
LINE
  8
0
 10
-125.240997
 20
-83.782791
 11
-117.240997
 21
-83.782791
  0
LINE
  8
0
 10
-125.240997
 20
-81.282791
 11
-117.240997
 21
-81.282791
  0
LINE
  8
0
 10
-117.240997
 20
-81.282768
 11
-117.240997
 21
-83.782768
  0
LINE
  8
0
 10
-125.240997
 20
-81.282761
 11
-125.240997
 21
-83.782761
  0
LINE
  8
0
 10
-118.740997
 20
-83.782730
 11
-118.740997
 21
-84.582718
  0
LINE
  8
0
 10
-123.740997
 20
-83.782730
 11
-123.740997
 21
-84.582718
  0
LINE
  8
0
 10
-122.740997
 20
-76.082718
 11
-122.740997
 21
-81.282730
  0
LINE
  8
0
 10
-119.740997
 20
-76.082718
 11
-119.740997
 21
-81.282730
  0
LINE
  8
0
 62
     2
 10
-120.011505
 20
-76.082718
 11
-120.011505
 21
-81.282730
  0
LINE
  8
0
 62
     2
 10
-122.470490
 20
-76.082718
 11
-122.470490
 21
-81.282730
  0
LINE
  8
0
 10
-117.990997
 20
-97.582741
 11
-117.990997
 21
-99.082741
  0
LINE
  8
0
 10
-124.490997
 20
-97.582741
 11
-124.490997
 21
-99.082741
  0
LINE
  8
0
 10
-117.341034
 20
-99.082741
 11
-117.341034
 21
-99.682732
  0
LINE
  8
0
 10
-125.141022
 20
-99.082733
 11
-125.141022
 21
-99.682724
  0
LINE
  8
0
 10
-126.141022
 20
-97.582779
 11
-116.341034
 21
-97.582779
  0
LINE
  8
0
 10
-117.240997
 20
-84.582726
 11
-117.240997
 21
-88.582741
  0
LINE
  8
0
 10
-125.240997
 20
-84.582718
 11
-125.240997
 21
-88.582733
  0
LINE
  8
0
 10
-121.240997
 20
-84.939987
 11
-121.240997
 21
-88.582733
  0
LINE
  8
0
 10
-116.341034
 20
-88.582741
 11
-116.341034
 21
-97.582741
  0
LINE
  8
0
 10
-126.141022
 20
-88.582733
 11
-126.141022
 21
-97.582733
  0
LINE
  8
0
 10
-115.841034
 20
-98.182755
 11
-117.141022
 21
-98.182755
  0
LINE
  8
0
 10
-107.241058
 20
-107.182770
 11
-106.240997
 21
-107.182770
  0
LINE
  8
0
 10
-109.141022
 20
-98.182755
 11
-108.741058
 21
-98.182755
  0
LINE
  8
0
 10
-109.141022
 20
-108.182755
 11
-108.741058
 21
-108.182755
  0
LINE
  8
0
 10
-108.741058
 20
-97.182755
 11
-107.241058
 21
-97.182755
  0
LINE
  8
0
 10
-108.741058
 20
-109.182755
 11
-107.241058
 21
-109.182755
  0
LINE
  8
0
 10
-108.741028
 20
-109.182716
 11
-108.741028
 21
-97.182732
  0
LINE
  8
0
 10
-107.241028
 20
-109.182716
 11
-107.241028
 21
-97.182732
  0
LINE
  8
0
 10
-117.141022
 20
-98.182732
 11
-117.141022
 21
-99.682732
  0
LINE
  8
0
 10
-107.241058
 20
-99.182770
 11
-106.240997
 21
-99.182770
  0
LINE
  8
0
 10
-106.240997
 20
-97.182747
 11
-106.240997
 21
-145.182739
  0
LINE
  8
0
 10
-67.240997
 20
-145.182739
 11
-67.240997
 21
-97.182755
  0
LINE
  8
0
 10
-115.841034
 20
-109.182732
 11
-115.841034
 21
-97.182732
  0
LINE
  8
0
 62
     2
 10
-107.740997
 20
-137.182785
 11
-109.141022
 21
-137.182785
  0
LINE
  8
0
 62
     2
 10
-107.740997
 20
-141.182785
 11
-109.141022
 21
-141.182785
  0
LINE
  8
0
 10
-65.741058
 20
-105.932755
 11
-67.240997
 21
-105.932755
  0
LINE
  8
0
 10
-65.741058
 20
-105.932739
 11
-65.741058
 21
-100.432739
  0
LINE
  8
0
 10
-65.741058
 20
-100.432755
 11
-67.240997
 21
-100.432755
  0
LINE
  8
0
 10
-109.141022
 20
-136.682785
 11
-107.740997
 21
-136.682785
  0
LINE
  8
0
 10
-109.141022
 20
-141.682785
 11
-107.740997
 21
-141.682785
  0
LINE
  8
0
 10
-109.141022
 20
-81.182747
 11
-109.141022
 21
-161.182739
  0
LINE
  8
0
 10
-132.740997
 20
-136.682739
 11
-118.841034
 21
-136.682739
  0
LINE
  8
0
 62
     2
 10
-132.740997
 20
-137.282745
 11
-118.841034
 21
-137.282745
  0
LINE
  8
0
 10
-118.483734
 20
-141.492142
 11
-114.841034
 21
-141.492142
  0
LINE
  8
0
 10
-132.740997
 20
-141.682739
 11
-118.841034
 21
-141.682739
  0
LINE
  8
0
 62
     2
 10
-132.740997
 20
-141.082733
 11
-118.841034
 21
-141.082733
  0
LINE
  8
0
 10
-118.841034
 20
-135.182724
 11
-118.841034
 21
-143.182877
  0
LINE
  8
0
 10
-132.740997
 20
-136.682724
 11
-132.740997
 21
-141.682724
  0
LINE
  8
0
 10
-118.483734
 20
-134.563965
 11
-114.841034
 21
-134.563965
  0
LINE
  8
0
 10
-118.841019
 20
-135.182755
 11
-118.483765
 21
-134.563965
  0
LINE
  8
0
 10
-118.483734
 20
-136.873352
 11
-114.841034
 21
-136.873352
  0
LINE
  8
0
 10
-118.483734
 20
-143.801529
 11
-114.841034
 21
-143.801529
  0
LINE
  8
0
 10
-118.841141
 20
-143.182724
 11
-118.483871
 21
-143.801514
  0
LINE
  8
0
 10
-117.141022
 20
-99.682785
 11
-125.741058
 21
-99.682785
  0
LINE
  8
0
 10
-114.841034
 20
-109.182755
 11
-115.841034
 21
-109.182755
  0
LINE
  8
0
 10
-114.841034
 20
-97.182755
 11
-115.841034
 21
-97.182755
  0
LINE
  8
0
 10
-39.741058
 20
-105.682739
 11
-39.741058
 21
-100.682739
  0
LINE
  8
0
 10
-32.641022
 20
-131.682770
 11
-28.341003
 21
-131.682770
  0
LINE
  8
0
 10
-28.341003
 20
-97.182755
 11
-28.341003
 21
-131.682755
  0
LINE
  8
0
 10
-21.341003
 20
-172.082764
 11
-21.341003
 21
-171.482758
  0
LINE
  8
0
 10
-31.140991
 20
-172.082764
 11
-31.140991
 21
-163.082764
  0
LINE
  8
0
 10
-31.140999
 20
-163.082779
 11
-21.341011
 21
-163.082779
  0
LINE
  8
0
 10
-31.140999
 20
-172.082779
 11
-21.341011
 21
-172.082779
  0
LINE
  8
0
 10
-26.241005
 20
-168.782761
 11
-18.741005
 21
-168.782761
  0
LINE
  8
0
 10
-26.241005
 20
-167.382767
 11
-18.741005
 21
-167.382767
  0
LINE
  8
0
 10
-21.341366
 20
-171.482971
 11
-22.641348
 21
-168.782990
  0
LINE
  8
0
 10
-21.340881
 20
-164.682861
 11
-22.640903
 21
-167.382904
  0
LINE
  8
0
 10
-21.341003
 20
-164.682770
 11
-21.341003
 21
-163.082764
  0
LINE
  8
0
 10
-18.741005
 20
-172.982773
 11
-14.441002
 21
-172.982773
  0
LINE
  8
0
 10
-11.541000
 20
-173.082764
 11
-11.541000
 21
-163.082764
  0
LINE
  8
0
 10
-13.141006
 20
-173.082764
 11
-13.141006
 21
-163.082764
  0
LINE
  8
0
 10
-21.341011
 20
-171.482773
 11
-20.241005
 21
-171.482773
  0
LINE
  8
0
 10
-18.740997
 20
-172.982758
 11
-18.740997
 21
-163.182770
  0
LINE
  8
0
 10
-20.240997
 20
-171.482758
 11
-20.240997
 21
-168.782776
  0
LINE
  8
0
 10
-14.440994
 20
-172.982758
 11
-14.440994
 21
-163.182770
  0
LINE
  8
0
 10
-13.141014
 20
-173.082779
 11
-11.541008
 21
-173.082779
  0
LINE
  8
0
 10
-13.140999
 20
-163.082779
 11
-11.540993
 21
-163.082779
  0
LINE
  8
0
 10
-18.741005
 20
-163.182755
 11
-14.440987
 21
-163.182755
  0
LINE
  8
0
 10
-21.341011
 20
-164.682755
 11
-20.241005
 21
-164.682755
  0
LINE
  8
0
 10
-14.441002
 20
-171.332779
 11
-13.141014
 21
-171.332779
  0
LINE
  8
0
 10
-14.440987
 20
-164.832779
 11
-13.140999
 21
-164.832779
  0
LINE
  8
0
 10
-20.240997
 20
-167.382767
 11
-20.240997
 21
-164.682770
  0
LINE
  8
0
 10
-18.741371
 20
-172.983154
 11
-20.241371
 21
-171.483154
  0
LINE
  8
0
 10
-18.741009
 20
-163.182709
 11
-20.241003
 21
-164.682693
  0
LINE
  8
0
 10
-30.140999
 20
-161.582779
 11
-22.341011
 21
-161.582779
  0
LINE
  8
0
 10
-22.990997
 20
-163.082764
 11
-22.990997
 21
-161.582764
  0
LINE
  8
0
 10
-29.490997
 20
-163.082764
 11
-29.490997
 21
-161.582764
  0
LINE
  8
0
 10
-22.341003
 20
-161.582764
 11
-22.341003
 21
-161.182755
  0
LINE
  8
0
 10
-30.140991
 20
-161.582764
 11
-30.140991
 21
-161.182755
  0
LINE
  8
0
 10
-28.741005
 20
-188.582779
 11
-23.741005
 21
-188.582779
  0
LINE
  8
0
 10
-23.740997
 20
-188.582764
 11
-23.740997
 21
-184.582764
  0
LINE
  8
0
 10
-28.740997
 20
-188.582764
 11
-28.740997
 21
-184.582764
  0
LINE
  8
0
 10
-28.741005
 20
-184.582779
 11
-23.741005
 21
-184.582779
  0
LINE
  8
0
 10
-29.705116
 20
-176.082779
 11
-22.776894
 21
-176.082779
  0
LINE
  8
0
 10
-30.241005
 20
-179.382767
 11
-22.241005
 21
-179.382767
  0
LINE
  8
0
 10
-22.240997
 20
-179.382751
 11
-22.240997
 21
-176.882751
  0
LINE
  8
0
 10
-30.240997
 20
-179.382751
 11
-30.240997
 21
-176.882751
  0
LINE
  8
0
 10
-21.622192
 20
-175.725494
 11
-21.622192
 21
-172.082764
  0
LINE
  8
0
 10
-23.931610
 20
-175.725494
 11
-23.931610
 21
-172.082764
  0
LINE
  8
0
 10
-28.550415
 20
-175.725494
 11
-28.550415
 21
-172.082764
  0
LINE
  8
0
 10
-30.859802
 20
-175.725494
 11
-30.859802
 21
-172.082764
  0
LINE
  8
0
 10
-23.740997
 20
-176.882751
 11
-23.740997
 21
-176.082764
  0
LINE
  8
0
 10
-28.740997
 20
-176.882751
 11
-28.740997
 21
-176.082764
  0
LINE
  8
0
 10
-27.740997
 20
-184.582764
 11
-27.740997
 21
-179.382751
  0
LINE
  8
0
 10
-24.740997
 20
-184.582764
 11
-24.740997
 21
-179.382751
  0
LINE
  8
0
 62
     2
 10
-25.011505
 20
-184.582764
 11
-25.011505
 21
-179.382751
  0
LINE
  8
0
 62
     2
 10
-27.470490
 20
-184.582764
 11
-27.470490
 21
-179.382751
  0
LINE
  8
0
 10
-30.240997
 20
-143.282761
 11
-22.240982
 21
-143.282761
  0
LINE
  8
0
 10
-30.740997
 20
-144.782761
 11
-21.740997
 21
-144.782761
  0
LINE
  8
0
 10
-22.240997
 20
-142.682739
 11
-22.240997
 21
-144.782745
  0
LINE
  8
0
 10
-30.240997
 20
-142.682739
 11
-30.240997
 21
-144.782745
  0
LINE
  8
0
 10
-21.740997
 20
-144.782745
 11
-21.740997
 21
-145.182739
  0
LINE
  8
0
 10
-30.740997
 20
-144.782745
 11
-30.740997
 21
-145.182739
  0
LINE
  8
0
 10
-24.698273
 20
-98.563995
 11
-28.341003
 21
-98.563995
  0
LINE
  8
0
 10
-24.340813
 20
-99.182625
 11
-24.698067
 21
-98.563843
  0
LINE
  8
0
 10
-24.698273
 20
-100.873398
 11
-28.341003
 21
-100.873398
  0
LINE
  8
0
 10
-24.340988
 20
-107.182785
 11
-24.340988
 21
-99.182617
  0
LINE
  8
0
 10
-24.698273
 20
-107.801582
 11
-28.341003
 21
-107.801582
  0
LINE
  8
0
 10
-24.340900
 20
-107.182823
 11
-24.698154
 21
-107.801605
  0
LINE
  8
0
 10
-24.698273
 20
-105.492187
 11
-28.341003
 21
-105.492187
  0
LINE
  8
0
 10
-42.141022
 20
-125.682755
 11
-42.141022
 21
-116.682755
  0
LINE
  8
0
 10
-105.240997
 20
-98.182770
 11
-97.240997
 21
-98.182770
  0
LINE
  8
0
 10
-105.240997
 20
-144.182755
 11
-97.240997
 21
-144.182755
  0
LINE
  8
0
 10
-105.240997
 20
-124.182762
 11
-97.240997
 21
-124.182762
  0
LINE
  8
0
 10
-105.240997
 20
-118.182770
 11
-97.240997
 21
-118.182770
  0
LINE
  8
0
 10
-105.240997
 20
-97.182747
 11
-105.240997
 21
-145.182739
  0
LINE
  8
0
 10
-97.240997
 20
-97.182747
 11
-97.240997
 21
-145.182739
  0
LINE
  8
0
 10
-109.141022
 20
-152.382767
 11
-114.841034
 21
-152.382767
  0
LINE
  8
0
 10
-109.141022
 20
-89.982765
 11
-114.841034
 21
-89.982765
  0
LINE
  8
0
  6
CENTER
 62
     2
 10
78.359039
 20
-84.073959
 11
78.359039
 21
-94.081062
  0
LINE
  8
0
  6
CENTER
 62
     2
 10
73.108681
 20
-88.682770
 11
84.098618
 21
-88.682770
  0
LINE
  8
0
 10
82.278229
 20
-89.482773
 11
200.859055
 21
-89.482773
  0
LINE
  8
0
  6
CENTER
 62
     2
 10
13.359039
 20
-84.073959
 11
13.359039
 21
-94.081047
  0
LINE
  8
0
  6
CENTER
 62
     2
 10
18.609411
 20
-88.682770
 11
7.619465
 21
-88.682770
  0
LINE
  8
0
  6
CENTER
 62
     2
 10
78.359039
 20
-158.291580
 11
78.359039
 21
-148.284485
  0
LINE
  8
0
  6
CENTER
 62
     2
 10
73.108665
 20
-153.682770
 11
84.098618
 21
-153.682770
  0
LINE
  8
0
  6
CENTER
 62
     2
 10
13.359039
 20
-158.291580
 11
13.359039
 21
-148.284485
  0
LINE
  8
0
  6
CENTER
 62
     2
 10
18.609400
 20
-153.682770
 11
7.619457
 21
-153.682770
  0
LINE
  8
0
 10
17.278219
 20
-89.482773
 11
74.439857
 21
-89.482773
  0
LINE
  8
0
 10
17.278208
 20
-152.882767
 11
74.439842
 21
-152.882767
  0
LINE
  8
0
 10
82.278214
 20
-152.882767
 11
200.859055
 21
-152.882767
  0
LINE
  8
0
 62
     4
 10
-109.141022
 20
-89.182770
 11
-111.106659
 21
-89.182770
  0
LINE
  8
0
 62
     4
 10
-109.141022
 20
-86.182770
 11
-110.302795
 21
-86.182770
  0
LINE
  8
0
 62
     4
 10
-111.106750
 20
-89.182732
 11
-110.302895
 21
-86.182739
  0
LINE
  8
0
 10
-109.141022
 20
-149.482773
 11
200.859055
 21
-149.482773
  0
LINE
  8
0
 10
-109.141022
 20
-152.882767
 11
9.439846
 21
-152.882767
  0
LINE
  8
0
 10
-109.141022
 20
-161.182770
 11
200.859055
 21
-161.182770
  0
LINE
  8
0
 10
130.059021
 20
-136.432770
 11
120.059021
 21
-136.432770
  0
LINE
  8
0
 10
130.059021
 20
-110.432762
 11
124.359024
 21
-110.432762
  0
LINE
  8
0
 10
-38.341003
 20
-105.932755
 11
-28.341003
 21
-105.932755
  0
LINE
  8
0
 10
-38.341003
 20
-131.932770
 11
-32.641022
 21
-131.932770
  0
LINE
  8
0
 10
-30.241005
 20
-176.882767
 11
-22.241005
 21
-176.882767
  0
LINE
  8
0
  6
CENTER
 62
     2
 10
180.932266
 20
-136.182770
 11
204.989517
 21
-136.182770
  0
LINE
  8
0
  6
CENTER
 62
     2
 10
180.932266
 20
-106.182770
 11
204.989517
 21
-106.182770
  0
LINE
  8
0
  6
CENTER
 62
     2
 10
-89.214188
 20
-136.182770
 11
-113.271439
 21
-136.182770
  0
LINE
  8
0
  6
CENTER
 62
     2
 10
-89.214188
 20
-106.182770
 11
-113.271439
 21
-106.182770
  0
LINE
  8
0
 10
-116.341034
 20
-88.582764
 11
-126.141022
 21
-88.582764
  0
CIRCLE
  8
0
 62
     2
 10
78.359085
 20
50.317181
 40
2.000000
  0
CIRCLE
  8
0
 10
78.359085
 20
50.317181
 40
1.500000
  0
CIRCLE
  8
0
 62
     2
 10
78.359085
 20
115.317184
 40
2.000000
  0
CIRCLE
  8
0
 10
78.359085
 20
115.317184
 40
1.500000
  0
CIRCLE
  8
0
 10
45.859081
 20
50.317184
 40
3.000000
  0
ARC
  8
0
 10
45.859089
 20
114.317184
 40
3.000000
 50
180.000153
 51
0.000146
  0
ARC
  8
0
 10
208.514420
 20
68.281242
 40
2.044655
 50
325.615936
 51
34.384079
  0
ARC
  8
0
 10
202.916367
 20
64.817177
 40
7.642721
 50
342.412170
 51
17.588015
  0
ARC
  8
0
 10
208.514420
 20
61.353020
 40
2.044655
 50
325.615936
 51
34.384167
  0
ARC
  8
0
 10
210.959183
 20
113.640404
 40
5.776714
 50
69.743858
 51
110.256165
  0
ARC
  8
0
 10
214.959183
 20
113.640404
 40
5.776714
 50
69.743858
 51
110.256310
  0
CIRCLE
  8
0
 10
212.959213
 20
111.417137
 40
2.000000
  0
CIRCLE
  8
0
 10
212.959213
 20
111.417137
 40
5.000000
  0
ARC
  8
0
 62
     2
 10
122.959152
 20
32.045033
 40
1.827885
 50
257.962677
 51
260.553558
  0
ARC
  8
0
 10
121.423264
 20
29.961811
 40
2.044656
 50
235.615692
 51
304.384338
  0
ARC
  8
0
 10
114.495041
 20
29.961811
 40
2.044657
 50
235.615723
 51
304.384338
  0
ARC
  8
0
 10
117.959152
 20
35.559864
 40
7.642727
 50
252.412079
 51
287.588104
  0
ARC
  8
0
 10
109.459152
 20
31.017139
 40
0.500000
 50
0.000000
 51
23.577766
  0
CIRCLE
  8
0
 62
     2
 10
13.359089
 20
115.317184
 40
2.000000
  0
CIRCLE
  8
0
 10
13.359089
 20
115.317184
 40
1.500000
  0
CIRCLE
  8
0
 62
     2
 10
13.359081
 20
50.317188
 40
2.000000
  0
CIRCLE
  8
0
 10
13.359081
 20
50.317188
 40
1.500000
  0
ARC
  8
0
 10
-116.796234
 20
97.353096
 40
2.044655
 50
145.615921
 51
214.384079
  0
ARC
  8
0
 10
-111.198212
 20
100.817177
 40
7.642714
 50
162.412170
 51
197.588013
  0
ARC
  8
0
 10
-116.796234
 20
104.281319
 40
2.044655
 50
145.615921
 51
214.384079
  0
ARC
  8
0
 10
-119.240997
 20
51.993965
 40
5.776711
 50
249.743851
 51
290.256165
  0
ARC
  8
0
 10
-123.240997
 20
51.993965
 40
5.776711
 50
249.743927
 51
290.256226
  0
CIRCLE
  8
0
 10
-121.241058
 20
54.217216
 40
2.000000
  0
CIRCLE
  8
0
 10
-121.241058
 20
54.217216
 40
5.000000
  0
ARC
  8
0
 62
     2
 10
-31.240990
 20
133.589325
 40
1.827881
 50
77.962669
 51
80.553619
  0
ARC
  8
0
 10
-29.705101
 20
135.672546
 40
2.044659
 50
55.615746
 51
124.384254
  0
ARC
  8
0
 10
-22.776878
 20
135.672546
 40
2.044658
 50
55.615791
 51
124.384300
  0
ARC
  8
0
 10
-26.240990
 20
130.074493
 40
7.642725
 50
72.412071
 51
107.588051
  0
ARC
  8
0
 10
-188.360535
 20
122.817169
 40
0.499994
 50
336.421875
 51
0.000000
  0
ARC
  8
0
 10
-188.360535
 20
122.817169
 40
0.500000
 50
180.000000
 51
203.578110
  0
CIRCLE
  8
0
 62
     2
 10
-211.860535
 20
97.817184
 40
2.000000
  0
CIRCLE
  8
0
 10
-211.860535
 20
97.817184
 40
1.500000
  0
CIRCLE
  8
0
 10
-211.860535
 20
67.817184
 40
1.500000
  0
CIRCLE
  8
0
 62
     2
 10
-211.860535
 20
67.817184
 40
2.000000
  0
ARC
  8
0
 10
-199.360550
 20
64.817184
 40
4.999999
 50
315.572937
 51
224.427109
  0
ARC
  8
0
 10
-202.824661
 20
48.261826
 40
2.044652
 50
235.615860
 51
304.384491
  0
ARC
  8
0
 10
-195.896423
 20
48.261826
 40
2.044660
 50
235.615509
 51
304.384125
  0
ARC
  8
0
 10
-199.360550
 20
53.859909
 40
7.642724
 50
252.412018
 51
287.587982
  0
ARC
  8
0
 10
-208.271713
 20
110.317169
 40
0.500000
 50
90.000000
 51
150.000076
  0
ARC
  8
0
 10
-212.360535
 20
118.817169
 40
4.000000
 50
90.000000
 51
151.044952
  0
ARC
  8
0
 10
-212.360535
 20
46.817184
 40
4.000002
 50
208.955093
 51
270.000000
  0
ARC
  8
0
 10
-208.271713
 20
55.317184
 40
0.500003
 50
210.000305
 51
270.000000
  0
ARC
  8
0
 10
-201.360489
 20
33.693695
 40
5.776711
 50
249.743851
 51
290.256165
  0
ARC
  8
0
 10
-197.360474
 20
33.693695
 40
5.776709
 50
249.743835
 51
290.256165
  0
ARC
  8
0
 10
-199.360550
 20
35.916931
 40
5.000001
 50
107.457230
 51
72.542023
  0
ARC
  8
0
 10
-211.158447
 20
107.317184
 40
0.500000
 50
270.000000
 51
330.000061
  0
ARC
  8
0
 10
-211.158447
 20
58.317184
 40
0.500001
 50
29.999931
 51
90.000000
  0
ARC
  8
0
 10
-201.360489
 20
131.940674
 40
5.776714
 50
69.743858
 51
110.256142
  0
ARC
  8
0
 10
-197.360474
 20
131.940674
 40
5.776714
 50
69.743858
 51
110.256142
  0
CIRCLE
  8
0
 10
-199.360550
 20
100.817184
 40
4.000000
  0
CIRCLE
  8
0
 10
-199.360550
 20
100.817184
 40
2.500000
  0
CIRCLE
  8
0
 62
     2
 10
-199.360550
 20
100.817184
 40
1.800000
  0
ARC
  8
0
 10
-199.060532
 20
64.817184
 40
6.000003
 50
299.450317
 51
156.181091
  0
ARC
  8
0
 10
-199.060532
 20
64.817184
 40
5.999995
 50
203.818939
 51
233.724609
  0
ARC
  8
0
 10
-204.875687
 20
63.339401
 40
1.000003
 50
99.478203
 51
289.038483
  0
CIRCLE
  8
0
 10
-204.875687
 20
63.339401
 40
0.400000
  0
ARC
  8
0
 10
-204.875687
 20
66.294968
 40
0.999997
 50
70.961510
 51
260.521790
  0
CIRCLE
  8
0
 10
-204.875687
 20
66.294968
 40
0.400000
  0
ARC
  8
0
 62
     4
 10
-206.360550
 20
45.845093
 40
1.827884
 50
279.446472
 51
343.214111
  0
ARC
  8
0
 62
     4
 10
-204.460526
 20
45.817200
 40
0.299999
 50
90.000000
 51
180.000000
  0
ARC
  8
0
 62
     4
 10
-204.860550
 20
49.317200
 40
1.499999
 50
66.420280
 51
305.978699
  0
ARC
  8
0
 62
     4
 10
-206.360550
 20
45.845093
 40
1.827885
 50
196.785873
 51
260.553528
  0
ARC
  8
0
 62
     4
 10
-208.260513
 20
45.817200
 40
0.300003
 50
0.000000
 51
90.000000
  0
CIRCLE
  8
0
 10
117.959068
 20
-16.682732
 40
2.500000
  0
CIRCLE
  8
0
 10
117.959068
 20
-16.682732
 40
4.000000
  0
CIRCLE
  8
0
 10
117.959068
 20
-16.682732
 40
4.900000
  0
CIRCLE
  8
0
 62
     4
 10
-89.094093
 20
-23.682680
 40
1.750000
  0
ARC
  8
0
 10
204.782501
 20
-18.682755
 40
5.776656
 50
339.743683
 51
20.256350
  0
ARC
  8
0
 10
204.782501
 20
-14.682754
 40
5.776655
 50
339.743683
 51
20.256357
  0
CIRCLE
  8
0
 10
-120.840858
 20
-16.682673
 40
4.000000
  0
CIRCLE
  8
0
 10
-120.840858
 20
-16.682673
 40
2.500000
  0
CIRCLE
  8
0
 10
-120.840858
 20
-16.682673
 40
4.900000
  0
ARC
  8
0
 10
210.959076
 20
-152.006119
 40
5.776709
 50
249.744003
 51
290.256348
  0
ARC
  8
0
 10
214.959091
 20
-152.006119
 40
5.776714
 50
249.743866
 51
290.256134
  0
ARC
  8
0
 10
208.514404
 20
-106.646912
 40
2.044655
 50
325.615936
 51
34.384079
  0
ARC
  8
0
 10
202.916351
 20
-103.182838
 40
7.642709
 50
342.412079
 51
17.587961
  0
ARC
  8
0
 10
208.514404
 20
-99.718765
 40
2.044655
 50
325.615936
 51
34.384079
  0
ARC
  8
0
 10
121.423149
 20
-68.327454
 40
2.044659
 50
55.615746
 51
124.384552
  0
ARC
  8
0
 10
114.494934
 20
-68.327454
 40
2.044659
 50
55.615746
 51
124.384377
  0
ARC
  8
0
 10
117.959045
 20
-73.925522
 40
7.642725
 50
72.412071
 51
107.588104
  0
ARC
  8
0
 62
     2
 10
122.959038
 20
-70.410690
 40
1.827888
 50
99.446442
 51
102.037331
  0
ARC
  8
0
 10
118.103699
 20
-135.718719
 40
2.044655
 50
145.615921
 51
214.384079
  0
ARC
  8
0
 10
118.103699
 20
-142.646866
 40
2.044655
 50
145.615921
 51
214.384079
  0
ARC
  8
0
 10
123.701752
 20
-139.182800
 40
7.642716
 50
162.412109
 51
197.588013
  0
ARC
  8
0
 10
-31.983734
 20
-103.182755
 40
7.642714
 50
342.412109
 51
17.587952
  0
ARC
  8
0
 62
     2
 10
-31.241005
 20
-171.954865
 40
1.827888
 50
279.446503
 51
282.037445
  0
ARC
  8
0
 10
-26.385666
 20
-106.646843
 40
2.044655
 50
325.615936
 51
34.384140
  0
ARC
  8
0
 10
-26.385666
 20
-99.718689
 40
2.044655
 50
325.615936
 51
34.384140
  0
ARC
  8
0
 10
-119.241058
 20
-90.359459
 40
5.776711
 50
69.743935
 51
110.256233
  0
ARC
  8
0
 10
-123.241058
 20
-90.359459
 40
5.776711
 50
69.743935
 51
110.256233
  0
ARC
  8
0
 10
-116.796356
 20
-135.718658
 40
2.044655
 50
145.615921
 51
214.384079
  0
ARC
  8
0
 10
-111.198334
 20
-139.182739
 40
7.642716
 50
162.412109
 51
197.587891
  0
ARC
  8
0
 10
-116.796356
 20
-142.646805
 40
2.044655
 50
145.615921
 51
214.384079
  0
ARC
  8
0
 10
-29.705116
 20
-174.038101
 40
2.044657
 50
235.615829
 51
304.384338
  0
ARC
  8
0
 10
-22.776894
 20
-174.038101
 40
2.044658
 50
235.615784
 51
304.384308
  0
ARC
  8
0
 10
-26.241005
 20
-168.440033
 40
7.642726
 50
252.412064
 51
287.588074
  0
CIRCLE
  8
0
 10
78.359039
 20
-88.682770
 40
4.000000
  0
CIRCLE
  8
0
 10
78.359039
 20
-88.682770
 40
1.650000
  0
CIRCLE
  8
0
 10
13.359043
 20
-88.682770
 40
1.650000
  0
CIRCLE
  8
0
 10
13.359043
 20
-88.682770
 40
4.000000
  0
CIRCLE
  8
0
 10
78.359039
 20
-153.682770
 40
1.650000
  0
CIRCLE
  8
0
 10
78.359039
 20
-153.682770
 40
4.000000
  0
CIRCLE
  8
0
 10
13.359035
 20
-153.682770
 40
1.650000
  0
CIRCLE
  8
0
 10
13.359035
 20
-153.682770
 40
4.000000
  0
TEXT
  8
0
 10
174.200241
 20
180.830002
 40
6.300000
  1
DATE: MAY ,1993
 50
0.000000
 41
1.052632
 51
0.000000
  7
STANDARD
  0
TEXT
  8
0
 10
167.564667
 20
-192.100006
 40
9.000000
  1
KOGANEI CORP.
 50
0.000000
 41
1.052632
 51
0.000000
  7
STANDARD
  0
TEXT
  8
0
 10
-269.149719
 20
180.830002
 40
6.300000
  1
HANDLING MODULE
 50
0.000000
 41
1.052632
 51
0.000000
  7
STANDARD
  0
TEXT
  8
0
 10
-270.049713
 20
155.830002
 40
6.300000
  1
MODEL:SHM72M-LL
 50
0.000000
 41
1.052632
 51
0.000000
  7
STANDARD
  0
ENDSEC
  0
EOF
