  0
SECTION
  2
HEADER
  0
ENDSEC
  0
SECTION
  2
TABLES
  0
TABLE
  2
LTYPE
 70
     4
  0
LTYPE
  2
CONTINUOUS
 70
    64
  3
Solid line
 72
    65
 73
     0
 40
0.000000
  0
LTYPE
  2
DASHED
 70
    64
  3
__ __ __ __ __ __ __ __ __ __ __ __ __ __ __
 72
    65
 73
     2
 40
3.500000
 49
2.000000
 49
-1.500000
  0
LTYPE
  2
CENTER
 70
    64
  3
____ _ ____ _ ____ _ ____ _ ____ _ ____ _ ____
 72
    65
 73
     4
 40
17.500000
 49
13.000000
 49
-1.500000
 49
1.500000
 49
-1.500000
  0
LTYPE
  2
PHANTOM
 70
    64
  3
_____ _ _ _____ _ _ _____ _ _ _____ _ _ ____  
 72
    65
 73
     6
 40
15.500000
 49
8.000000
 49
-1.500000
 49
1.500000
 49
-1.500000
 49
1.500000
 49
-1.500000
  0
LTYPE
  2
DASHED1
 70
    64
  3
__ __ __ __ __ __ __ __ __ __ __ __ __ __ __
 72
    65
 73
     2
 40
1.500000
 49
1.000000
 49
-0.500000
  0
LTYPE
  2
DASHED2
 70
    64
  3
__ __ __ __ __ __ __ __ __ __ __ __ __ __ __
 72
    65
 73
     2
 40
3.500000
 49
2.500000
 49
-1.000000
  0
LTYPE
  2
DASHED3
 70
    64
  3
__ __ __ __ __ __ __ __ __ __ __ __ __ __ __
 72
    65
 73
     2
 40
6.000000
 49
4.000000
 49
-2.000000
  0
LTYPE
  2
DASHED4
 70
    64
  3
__ __ __ __ __ __ __ __ __ __ __ __ __ __ __
 72
    65
 73
     2
 40
12.000000
 49
10.000000
 49
-2.000000
  0
LTYPE
  2
DASHED5
 70
    64
  3
__ __ __ __ __ __ __ __ __ __ __ __ __ __ __
 72
    65
 73
     2
 40
17.000000
 49
15.000000
 49
-2.000000
  0
LTYPE
  2
DASHED6
 70
    64
  3
__ __ __ __ __ __ __ __ __ __ __ __ __ __ __
 72
    65
 73
     2
 40
29.000000
 49
27.000000
 49
-2.000000
  0
LTYPE
  2
PHANTOM1
 70
    64
  3
_____ _ _ _____ _ _ _____ _ _ _____ _ _ ____  
 72
    65
 73
     6
 40
31.000000
 49
25.000000
 49
-1.500000
 49
1.000000
 49
-1.000000
 49
1.000000
 49
-1.500000
  0
LTYPE
  2
PHANTOM2
 70
    64
  3
_____ _ _ _____ _ _ _____ _ _ _____ _ _ ____  
 72
    65
 73
     6
 40
36.000000
 49
27.000000
 49
-1.500000
 49
2.500000
 49
-1.000000
 49
2.500000
 49
-1.500000
  0
LTYPE
  2
PHANTOM3
 70
    64
  3
_____ _ _ _____ _ _ _____ _ _ _____ _ _ ____  
 72
    65
 73
     6
 40
78.000000
 49
64.000000
 49
-2.000000
 49
4.000000
 49
-2.000000
 49
4.000000
 49
-2.000000
  0
LTYPE
  2
CENTER1
 70
    64
  3
____ _ ____ _ ____ _ ____ _ ____ _ ____ _ ____
 72
    65
 73
     4
 40
19.000000
 49
14.000000
 49
-1.000000
 49
3.000000
 49
-1.000000
  0
LTYPE
  2
CENTER2
 70
    64
  3
____ _ ____ _ ____ _ ____ _ ____ _ ____ _ ____
 72
    65
 73
     4
 40
28.500000
 49
25.000000
 49
-1.000000
 49
1.500000
 49
-1.000000
  0
LTYPE
  2
CENTER3
 70
    64
  3
____ _ ____ _ ____ _ ____ _ ____ _ ____ _ ____
 72
    65
 73
     4
 40
31.500000
 49
27.000000
 49
-1.000000
 49
2.500000
 49
-1.000000
  0
LTYPE
  2
CENTER4
 70
    64
  3
____ _ ____ _ ____ _ ____ _ ____ _ ____ _ ____
 72
    65
 73
     4
 40
50.000000
 49
45.000000
 49
-1.000000
 49
3.000000
 49
-1.000000
  0
LTYPE
  2
CENTER5
 70
    64
  3
____ _ ____ _ ____ _ ____ _ ____ _ ____ _ ____
 72
    65
 73
     4
 40
100.000000
 49
92.000000
 49
-2.000000
 49
4.000000
 49
-2.000000
  0
LTYPE
  2
SBK1
 70
    64
  3
______ _ _ _ ______ _ _ _ ______ _ _ _ _____  
 72
    65
 73
     8
 40
60.500000
 49
45.000000
 49
-2.000000
 49
2.500000
 49
-2.000000
 49
2.500000
 49
-2.000000
 49
2.500000
 49
-2.000000
  0
LTYPE
  2
SBK2
 70
    64
  3
______ _ _ _ ______ _ _ _ ______ _ _ _ _____  
 72
    65
 73
     8
 40
84.000000
 49
64.000000
 49
-2.000000
 49
4.000000
 49
-2.000000
 49
4.000000
 49
-2.000000
 49
4.000000
 49
-2.000000
  0
LTYPE
  2
STCH
 70
    64
  3
__ __ __ __ __ __ __ __ __ __ __ __ __ __ __
 72
    65
 73
     2
 40
3.000000
 49
1.000000
 49
-2.000000
  0
LTYPE
  2
MTCH
 70
    64
  3
_____ _ _ _____ _ _ _____ _ _ _____ _ _ ____  
 72
    65
 73
     6
 40
80.000000
 49
66.000000
 49
-2.000000
 49
4.000000
 49
-2.000000
 49
4.000000
 49
-2.000000
  0
ENDTAB
  0
TABLE
  2
LAYER
 70
     1
  0
LAYER
  2
0
 70
     0
 62
     7
  6
CONTINUOUS
  0
ENDTAB
  0
TABLE
  2
STYLE
 70
     1
  0
STYLE
  2
STANDARD
 70
     0
 40
0.000000
 41
1.000000
 50
0.000000
 71
     0
 42
0.200000
  3
txt
  4
BIGFONT
  0
ENDTAB
  0
TABLE
  2
VIEW
 70
     0
  0
ENDTAB
  0
ENDSEC
  0
SECTION
  2
BLOCKS
  0
ENDSEC
  0
SECTION
  2
ENTITIES
  0
LINE
  8
0
 10
399.799988
 20
276.250000
 11
399.799988
 21
-276.750000
  0
LINE
  8
0
 10
-399.250000
 20
276.250000
 11
-399.250000
 21
-276.750000
  0
LINE
  8
0
 10
-399.250000
 20
276.250000
 11
399.799988
 21
276.250000
  0
LINE
  8
0
 10
-399.250000
 20
-276.750000
 11
399.799988
 21
-276.750000
  0
LINE
  8
0
 10
239.799988
 20
-251.750000
 11
399.799988
 21
-251.750000
  0
LINE
  8
0
 10
239.799988
 20
251.250000
 11
399.799988
 21
251.250000
  0
LINE
  8
0
 10
-399.250000
 20
251.250000
 11
-239.250000
 21
251.250000
  0
LINE
  8
0
 10
239.799988
 20
-251.750000
 11
239.799988
 21
-276.750000
  0
LINE
  8
0
 10
239.799988
 20
251.250000
 11
239.799988
 21
276.250000
  0
LINE
  8
0
 10
-239.250000
 20
276.250000
 11
-239.250000
 21
251.250000
  0
LINE
  8
0
 10
-174.854767
 20
173.757355
 11
-174.854767
 21
73.757347
  0
LINE
  8
0
  6
CENTER
 62
     2
 10
-192.586670
 20
123.757370
 11
276.473175
 21
123.757370
  0
LINE
  8
0
 10
-180.854736
 20
173.757355
 11
271.145233
 21
173.757355
  0
LINE
  8
0
 10
-180.854736
 20
73.757347
 11
271.145233
 21
73.757347
  0
LINE
  8
0
 10
-180.854736
 20
173.757355
 11
-180.854736
 21
73.757347
  0
LINE
  8
0
 10
-199.854736
 20
151.257370
 11
-185.854736
 21
151.257370
  0
LINE
  8
0
 10
-199.854736
 20
145.257370
 11
-185.854736
 21
145.257370
  0
LINE
  8
0
 10
-200.854736
 20
146.257339
 11
-200.854736
 21
150.257339
  0
LINE
  8
0
 10
-199.854736
 20
145.257339
 11
-199.854736
 21
151.257339
  0
LINE
  8
0
 62
     2
 10
-200.854736
 20
146.257370
 11
-185.854736
 21
146.257370
  0
LINE
  8
0
 62
     2
 10
-200.854736
 20
150.257370
 11
-185.854736
 21
150.257370
  0
LINE
  8
0
 10
-199.854614
 20
145.257370
 11
-200.854614
 21
146.257370
  0
LINE
  8
0
 10
-200.854462
 20
150.257095
 11
-199.854462
 21
151.257095
  0
LINE
  8
0
 10
-184.844391
 20
142.507370
 11
-180.854736
 21
142.507370
  0
LINE
  8
0
 10
-185.854996
 20
144.257324
 11
-184.844620
 21
142.507294
  0
LINE
  8
0
 10
-185.855148
 20
152.257568
 11
-184.844772
 21
154.007584
  0
LINE
  8
0
 10
-184.844391
 20
154.007370
 11
-180.854736
 21
154.007370
  0
LINE
  8
0
 10
-185.854736
 20
144.257370
 11
-185.854736
 21
152.257370
  0
LINE
  8
0
 10
-185.362701
 20
151.107376
 11
-180.854736
 21
151.107376
  0
LINE
  8
0
 10
-185.362701
 20
145.407364
 11
-180.854736
 21
145.407364
  0
LINE
  8
0
 10
-182.054718
 20
107.757370
 11
-182.054718
 21
90.757370
  0
LINE
  8
0
 10
-182.054749
 20
104.257370
 11
-191.354736
 21
104.257370
  0
LINE
  8
0
 10
-180.854736
 20
107.757370
 11
-182.054749
 21
107.757370
  0
LINE
  8
0
 10
-180.854736
 20
90.757370
 11
-182.054749
 21
90.757370
  0
LINE
  8
0
 10
-191.854736
 20
95.757217
 11
-191.854736
 21
103.757187
  0
LINE
  8
0
 10
-182.054749
 20
94.257187
 11
-182.854736
 21
94.257187
  0
LINE
  8
0
 10
-182.854706
 20
94.257187
 11
-182.854706
 21
95.757217
  0
LINE
  8
0
 10
-183.454712
 20
95.757187
 11
-191.254700
 21
95.757187
  0
LINE
  8
0
 10
-189.354706
 20
68.157181
 11
-185.354706
 21
68.157181
  0
LINE
  8
0
 10
-184.854736
 20
68.657181
 11
-184.854736
 21
71.657181
  0
LINE
  8
0
 10
-189.854736
 20
68.657181
 11
-189.854736
 21
71.657181
  0
LINE
  8
0
 10
-184.855087
 20
68.657631
 11
-185.355072
 21
68.157646
  0
LINE
  8
0
 10
-189.354584
 20
68.157310
 11
-189.854568
 21
68.657295
  0
LINE
  8
0
 10
-189.354706
 20
72.157181
 11
-185.354706
 21
72.157181
  0
LINE
  8
0
 10
-189.855240
 20
71.657799
 11
-189.355240
 21
72.157799
  0
LINE
  8
0
 10
-185.354553
 20
72.157288
 11
-184.854568
 21
71.657303
  0
LINE
  8
0
 10
-189.854706
 20
68.657181
 11
-184.854706
 21
68.657181
  0
LINE
  8
0
 10
-189.854706
 20
71.657181
 11
-184.854706
 21
71.657181
  0
LINE
  8
0
 10
-191.254700
 20
95.157181
 11
-183.454712
 21
95.157181
  0
LINE
  8
0
 10
-191.354706
 20
80.657181
 11
-183.354706
 21
80.657181
  0
LINE
  8
0
 10
-190.854706
 20
79.857193
 11
-183.854706
 21
79.857193
  0
LINE
  8
0
 10
-190.854706
 20
77.357193
 11
-183.854706
 21
77.357193
  0
LINE
  8
0
 10
-183.354736
 20
77.857193
 11
-183.354736
 21
79.357193
  0
LINE
  8
0
 10
-191.354736
 20
77.857193
 11
-191.354736
 21
79.357193
  0
LINE
  8
0
 10
-183.355270
 20
77.857681
 11
-183.855255
 21
77.357704
  0
LINE
  8
0
 10
-190.854523
 20
77.357361
 11
-191.354553
 21
77.857391
  0
LINE
  8
0
 10
-191.354416
 20
79.356956
 11
-190.854431
 21
79.856949
  0
LINE
  8
0
 10
-183.854630
 20
79.857414
 11
-183.354630
 21
79.357430
  0
LINE
  8
0
 10
-191.354706
 20
77.857193
 11
-183.354706
 21
77.857193
  0
LINE
  8
0
 10
-191.354706
 20
79.357193
 11
-183.354706
 21
79.357193
  0
LINE
  8
0
 10
-184.854736
 20
79.857193
 11
-184.854736
 21
80.657181
  0
LINE
  8
0
 10
-189.854736
 20
79.857193
 11
-189.854736
 21
80.657181
  0
LINE
  8
0
 10
-188.854736
 20
72.157181
 11
-188.854736
 21
77.357193
  0
LINE
  8
0
 10
-185.854736
 20
72.157181
 11
-185.854736
 21
77.357193
  0
LINE
  8
0
 62
     2
 10
-186.125244
 20
72.157181
 11
-186.125244
 21
77.357193
  0
LINE
  8
0
 62
     2
 10
-188.584229
 20
72.157181
 11
-188.584229
 21
77.357193
  0
LINE
  8
0
 10
-184.104736
 20
93.657211
 11
-184.104736
 21
95.157211
  0
LINE
  8
0
 10
-190.604736
 20
93.657211
 11
-190.604736
 21
95.157211
  0
LINE
  8
0
 10
-183.454742
 20
95.157211
 11
-183.454742
 21
95.757217
  0
LINE
  8
0
 10
-191.254730
 20
95.157211
 11
-191.254730
 21
95.757217
  0
LINE
  8
0
 10
-191.854736
 20
95.757187
 11
-182.854736
 21
95.757187
  0
LINE
  8
0
 10
-192.254700
 20
84.657181
 11
-190.354736
 21
84.657181
  0
LINE
  8
0
 10
-192.254700
 20
93.657181
 11
-182.454712
 21
93.657181
  0
LINE
  8
0
 10
-183.354736
 20
80.657181
 11
-183.354736
 21
84.657211
  0
LINE
  8
0
 10
-191.354736
 20
80.657181
 11
-191.354736
 21
84.657211
  0
LINE
  8
0
 10
-187.354736
 20
81.014450
 11
-187.354736
 21
83.657150
  0
LINE
  8
0
 10
-182.454742
 20
84.657211
 11
-182.454742
 21
87.662155
  0
LINE
  8
0
 10
-192.254730
 20
84.657211
 11
-192.254730
 21
87.662155
  0
LINE
  8
0
 10
-191.354736
 20
104.257187
 11
-191.354736
 21
95.757187
  0
LINE
  8
0
 10
-184.354736
 20
84.657181
 11
-182.454712
 21
84.657181
  0
LINE
  8
0
 10
-182.454742
 20
89.652176
 11
-182.454742
 21
93.657211
  0
LINE
  8
0
 10
-192.254730
 20
89.652176
 11
-192.254730
 21
93.657211
  0
LINE
  8
0
 10
-191.355087
 20
104.257744
 11
-191.855255
 21
103.757576
  0
LINE
  8
0
 10
-82.354797
 20
202.557526
 11
-86.354797
 21
202.557526
  0
LINE
  8
0
 10
-86.854767
 20
202.057556
 11
-86.854767
 21
199.057556
  0
LINE
  8
0
 10
-81.854767
 20
202.057556
 11
-81.854767
 21
199.057556
  0
LINE
  8
0
 10
-86.855148
 20
202.058060
 11
-86.355141
 21
202.558075
  0
LINE
  8
0
 10
-82.354866
 20
202.557434
 11
-81.854874
 21
202.057449
  0
LINE
  8
0
 10
-82.354797
 20
198.557526
 11
-86.354797
 21
198.557526
  0
LINE
  8
0
 10
-81.855194
 20
199.057846
 11
-82.355209
 21
198.557831
  0
LINE
  8
0
 10
-86.354912
 20
198.557571
 11
-86.854942
 21
199.057602
  0
LINE
  8
0
 10
-81.854797
 20
202.057526
 11
-86.854797
 21
202.057526
  0
LINE
  8
0
 10
-81.854797
 20
199.057526
 11
-86.854797
 21
199.057526
  0
LINE
  8
0
 10
-80.354797
 20
190.057526
 11
-88.354797
 21
190.057526
  0
LINE
  8
0
 10
-80.854797
 20
190.857513
 11
-87.854797
 21
190.857513
  0
LINE
  8
0
 10
-80.854797
 20
193.357513
 11
-87.854797
 21
193.357513
  0
LINE
  8
0
 10
-88.354767
 20
192.857544
 11
-88.354767
 21
191.357544
  0
LINE
  8
0
 10
-80.354767
 20
192.857544
 11
-80.354767
 21
191.357544
  0
LINE
  8
0
 10
-88.355347
 20
192.858017
 11
-87.855347
 21
193.358017
  0
LINE
  8
0
 10
-80.854927
 20
193.357559
 11
-80.354897
 21
192.857513
  0
LINE
  8
0
 10
-80.354462
 20
191.357040
 11
-80.854446
 21
190.857056
  0
LINE
  8
0
 10
-87.854797
 20
190.857422
 11
-88.354782
 21
191.357407
  0
LINE
  8
0
 10
-80.354797
 20
192.857513
 11
-88.354797
 21
192.857513
  0
LINE
  8
0
 10
-80.354797
 20
191.357513
 11
-88.354797
 21
191.357513
  0
LINE
  8
0
 10
-86.854767
 20
190.857544
 11
-86.854767
 21
190.057556
  0
LINE
  8
0
 10
-81.854767
 20
190.857544
 11
-81.854767
 21
190.057556
  0
LINE
  8
0
 10
-82.854767
 20
198.557556
 11
-82.854767
 21
193.357544
  0
LINE
  8
0
 10
-85.854767
 20
198.557556
 11
-85.854767
 21
193.357544
  0
LINE
  8
0
 62
     2
 10
-85.584259
 20
198.557556
 11
-85.584259
 21
193.357544
  0
LINE
  8
0
 62
     2
 10
-83.125275
 20
198.557556
 11
-83.125275
 21
193.357544
  0
LINE
  8
0
 10
-87.604767
 20
177.057526
 11
-87.604767
 21
175.557526
  0
LINE
  8
0
 10
-81.104767
 20
177.057526
 11
-81.104767
 21
175.557526
  0
LINE
  8
0
 10
-79.454803
 20
177.057526
 11
-89.254791
 21
177.057526
  0
LINE
  8
0
 10
-88.354767
 20
190.057556
 11
-88.354767
 21
186.057526
  0
LINE
  8
0
 10
-80.354767
 20
190.057556
 11
-80.354767
 21
186.057526
  0
LINE
  8
0
 10
-84.354767
 20
189.700287
 11
-84.354767
 21
187.057587
  0
LINE
  8
0
 10
-79.454773
 20
186.057526
 11
-89.254791
 21
186.057526
  0
LINE
  8
0
 10
-89.254791
 20
186.057556
 11
-89.254791
 21
177.057526
  0
LINE
  8
0
 10
-79.454803
 20
186.057556
 11
-79.454803
 21
177.057526
  0
LINE
  8
0
 10
-80.454803
 20
175.557526
 11
-88.254791
 21
175.557526
  0
LINE
  8
0
 10
-88.354767
 20
175.557526
 11
-88.354767
 21
173.757355
  0
LINE
  8
0
 10
-80.354767
 20
175.557526
 11
-80.354767
 21
173.757355
  0
LINE
  8
0
 10
-174.854767
 20
98.457382
 11
265.145233
 21
98.457382
  0
LINE
  8
0
 10
-174.854767
 20
149.057358
 11
265.145233
 21
149.057358
  0
LINE
  8
0
 10
-174.854767
 20
149.857376
 11
265.145233
 21
149.857376
  0
LINE
  8
0
 10
-174.854767
 20
97.657364
 11
265.145233
 21
97.657364
  0
LINE
  8
0
  6
CENTER
 62
     2
 10
45.145233
 20
176.867172
 11
45.145233
 21
68.292984
  0
LINE
  8
0
 10
271.145233
 20
173.757355
 11
271.145233
 21
73.757347
  0
LINE
  8
0
  6
CENTER
 62
     2
 10
-2.430115
 20
81.257370
 11
7.220158
 21
81.257370
  0
LINE
  8
0
  6
CENTER
 62
     2
 10
2.645233
 20
85.653503
 11
2.645233
 21
77.054337
  0
LINE
  8
0
  6
CENTER
 62
     2
 10
82.864288
 20
81.257370
 11
92.231987
 21
81.257370
  0
LINE
  8
0
  6
CENTER
 62
     2
 10
87.645233
 20
85.419312
 11
87.645233
 21
77.054337
  0
LINE
  8
0
 10
48.145233
 20
173.657364
 11
48.145233
 21
165.157364
  0
LINE
  8
0
 10
42.145233
 20
173.657364
 11
42.145233
 21
165.157364
  0
LINE
  8
0
 10
275.134888
 20
105.007339
 11
271.145233
 21
105.007339
  0
LINE
  8
0
 10
275.134888
 20
93.507339
 11
271.145233
 21
93.507339
  0
LINE
  8
0
 10
276.145477
 20
103.257492
 11
275.135132
 21
105.007492
  0
LINE
  8
0
 10
276.145264
 20
95.257362
 11
275.134918
 21
93.507393
  0
LINE
  8
0
 10
276.145233
 20
103.257370
 11
276.145233
 21
95.257370
  0
LINE
  8
0
 10
275.653198
 20
96.407333
 11
271.145233
 21
96.407333
  0
LINE
  8
0
 10
275.653198
 20
102.107346
 11
271.145233
 21
102.107346
  0
LINE
  8
0
 10
290.145081
 20
102.257294
 11
291.145081
 21
101.257294
  0
LINE
  8
0
 10
291.145355
 20
97.257462
 11
290.145325
 21
96.257439
  0
LINE
  8
0
 10
290.145233
 20
96.257339
 11
276.145233
 21
96.257339
  0
LINE
  8
0
 10
290.145233
 20
102.257339
 11
276.145233
 21
102.257339
  0
LINE
  8
0
 10
291.145233
 20
101.257370
 11
291.145233
 21
97.257370
  0
LINE
  8
0
 10
290.145233
 20
102.257370
 11
290.145233
 21
96.257370
  0
LINE
  8
0
 62
     2
 10
291.145233
 20
101.257339
 11
276.145233
 21
101.257339
  0
LINE
  8
0
 62
     2
 10
291.145233
 20
97.257339
 11
276.145233
 21
97.257339
  0
LINE
  8
0
 10
272.345245
 20
139.757370
 11
272.345245
 21
156.757370
  0
LINE
  8
0
 10
272.345245
 20
143.257370
 11
281.645233
 21
143.257370
  0
LINE
  8
0
 10
271.145233
 20
139.757370
 11
272.345245
 21
139.757370
  0
LINE
  8
0
 10
271.145233
 20
156.757370
 11
272.345245
 21
156.757370
  0
LINE
  8
0
 10
282.145233
 20
151.757523
 11
282.145233
 21
143.757553
  0
LINE
  8
0
 10
281.645233
 20
143.257553
 11
281.645233
 21
151.757553
  0
LINE
  8
0
 10
281.644989
 20
143.257401
 11
282.145142
 21
143.757553
  0
LINE
  8
0
 10
272.345245
 20
153.257584
 11
273.145233
 21
153.257584
  0
LINE
  8
0
 10
273.145233
 20
153.257523
 11
273.145233
 21
151.757523
  0
LINE
  8
0
 10
273.745209
 20
151.757553
 11
281.545197
 21
151.757553
  0
LINE
  8
0
 10
279.645203
 20
179.357559
 11
275.645203
 21
179.357559
  0
LINE
  8
0
 10
275.145233
 20
178.857559
 11
275.145233
 21
175.857559
  0
LINE
  8
0
 10
280.145233
 20
178.857559
 11
280.145233
 21
175.857559
  0
LINE
  8
0
 10
275.144989
 20
178.857788
 11
275.645020
 21
179.357819
  0
LINE
  8
0
 10
279.644958
 20
179.357285
 11
280.144989
 21
178.857285
  0
LINE
  8
0
 10
279.645203
 20
175.357559
 11
275.645203
 21
175.357559
  0
LINE
  8
0
 10
280.145203
 20
175.857620
 11
279.645172
 21
175.357620
  0
LINE
  8
0
 10
275.644958
 20
175.357346
 11
275.144958
 21
175.857330
  0
LINE
  8
0
 10
280.145203
 20
178.857559
 11
275.145203
 21
178.857559
  0
LINE
  8
0
 10
280.145203
 20
175.857559
 11
275.145203
 21
175.857559
  0
LINE
  8
0
 10
281.545197
 20
152.357559
 11
273.745209
 21
152.357559
  0
LINE
  8
0
 10
281.645203
 20
166.857559
 11
273.645203
 21
166.857559
  0
LINE
  8
0
 10
281.145203
 20
167.657547
 11
274.145203
 21
167.657547
  0
LINE
  8
0
 10
281.145203
 20
170.157547
 11
274.145203
 21
170.157547
  0
LINE
  8
0
 10
273.645233
 20
169.657547
 11
273.645233
 21
168.157547
  0
LINE
  8
0
 10
281.645233
 20
169.657547
 11
281.645233
 21
168.157547
  0
LINE
  8
0
 10
273.645172
 20
169.657593
 11
274.145203
 21
170.157608
  0
LINE
  8
0
 10
281.144836
 20
170.157364
 11
281.644867
 21
169.657349
  0
LINE
  8
0
 10
281.645294
 20
168.157333
 11
281.145294
 21
167.657333
  0
LINE
  8
0
 10
274.144958
 20
167.657257
 11
273.644989
 21
168.157257
  0
LINE
  8
0
 10
281.645203
 20
169.657547
 11
273.645203
 21
169.657547
  0
LINE
  8
0
 10
281.645203
 20
168.157547
 11
273.645203
 21
168.157547
  0
LINE
  8
0
 10
275.145233
 20
167.657547
 11
275.145233
 21
166.857559
  0
LINE
  8
0
 10
280.145233
 20
167.657547
 11
280.145233
 21
166.857559
  0
LINE
  8
0
 10
279.145233
 20
175.357559
 11
279.145233
 21
170.157547
  0
LINE
  8
0
 10
276.145233
 20
175.357559
 11
276.145233
 21
170.157547
  0
LINE
  8
0
 62
     2
 10
276.415741
 20
175.357559
 11
276.415741
 21
170.157547
  0
LINE
  8
0
 62
     2
 10
278.874725
 20
175.357559
 11
278.874725
 21
170.157547
  0
LINE
  8
0
 10
274.395233
 20
153.857498
 11
274.395233
 21
152.357498
  0
LINE
  8
0
 10
280.895233
 20
153.857498
 11
280.895233
 21
152.357498
  0
LINE
  8
0
 10
273.745239
 20
152.357498
 11
273.745239
 21
151.757523
  0
LINE
  8
0
 10
281.545227
 20
152.357498
 11
281.545227
 21
151.757523
  0
LINE
  8
0
 10
282.145233
 20
151.757553
 11
273.145233
 21
151.757553
  0
LINE
  8
0
 10
282.545197
 20
162.857559
 11
280.645233
 21
162.857559
  0
LINE
  8
0
 10
282.545197
 20
153.857559
 11
272.745209
 21
153.857559
  0
LINE
  8
0
 10
273.645233
 20
166.857559
 11
273.645233
 21
162.857498
  0
LINE
  8
0
 10
281.645233
 20
166.857559
 11
281.645233
 21
162.857498
  0
LINE
  8
0
 10
277.645233
 20
166.500259
 11
277.645233
 21
163.857559
  0
LINE
  8
0
 10
272.745239
 20
162.857498
 11
272.745239
 21
159.852585
  0
LINE
  8
0
 10
282.545227
 20
162.857498
 11
282.545227
 21
159.852585
  0
LINE
  8
0
 10
274.645233
 20
162.857559
 11
272.745209
 21
162.857559
  0
LINE
  8
0
 10
272.745239
 20
157.862564
 11
272.745239
 21
153.857498
  0
LINE
  8
0
 10
282.545227
 20
157.862564
 11
282.545227
 21
153.857498
  0
LINE
  8
0
 10
265.145233
 20
173.757355
 11
265.145233
 21
73.757347
  0
LINE
  8
0
 10
172.645264
 20
45.157188
 11
176.645264
 21
45.157188
  0
LINE
  8
0
 10
177.145233
 20
45.657219
 11
177.145233
 21
48.657219
  0
LINE
  8
0
 10
172.145233
 20
45.657219
 11
172.145233
 21
48.657219
  0
LINE
  8
0
 10
177.145203
 20
45.657249
 11
176.645203
 21
45.157238
  0
LINE
  8
0
 10
172.645264
 20
45.157265
 11
172.145264
 21
45.657253
  0
LINE
  8
0
 10
172.645264
 20
49.157188
 11
176.645264
 21
49.157188
  0
LINE
  8
0
 10
172.145142
 20
48.657345
 11
172.645126
 21
49.157333
  0
LINE
  8
0
 10
176.645325
 20
49.157223
 11
177.145325
 21
48.657234
  0
LINE
  8
0
 10
172.145264
 20
45.657188
 11
177.145264
 21
45.657188
  0
LINE
  8
0
 10
172.145264
 20
48.657188
 11
177.145264
 21
48.657188
  0
LINE
  8
0
 10
170.645264
 20
57.657188
 11
178.645264
 21
57.657188
  0
LINE
  8
0
 10
171.145264
 20
56.857201
 11
178.145264
 21
56.857201
  0
LINE
  8
0
 10
171.145264
 20
54.357201
 11
178.145264
 21
54.357201
  0
LINE
  8
0
 10
178.645233
 20
54.857231
 11
178.645233
 21
56.357231
  0
LINE
  8
0
 10
170.645233
 20
54.857231
 11
170.645233
 21
56.357231
  0
LINE
  8
0
 10
178.645172
 20
54.857273
 11
178.145157
 21
54.357262
  0
LINE
  8
0
 10
171.145325
 20
54.357216
 11
170.645294
 21
54.857246
  0
LINE
  8
0
 10
170.645187
 20
56.357368
 11
171.145172
 21
56.857357
  0
LINE
  8
0
 10
178.145203
 20
56.857269
 11
178.645187
 21
56.357281
  0
LINE
  8
0
 10
170.645264
 20
54.857201
 11
178.645264
 21
54.857201
  0
LINE
  8
0
 10
170.645264
 20
56.357201
 11
178.645264
 21
56.357201
  0
LINE
  8
0
 10
177.145233
 20
56.857231
 11
177.145233
 21
57.657219
  0
LINE
  8
0
 10
172.145233
 20
56.857231
 11
172.145233
 21
57.657219
  0
LINE
  8
0
 10
173.145233
 20
49.157219
 11
173.145233
 21
54.357231
  0
LINE
  8
0
 10
176.145233
 20
49.157219
 11
176.145233
 21
54.357231
  0
LINE
  8
0
 62
     2
 10
175.874725
 20
49.157219
 11
175.874725
 21
54.357231
  0
LINE
  8
0
 62
     2
 10
173.415741
 20
49.157219
 11
173.415741
 21
54.357231
  0
LINE
  8
0
 10
177.895233
 20
70.657249
 11
177.895233
 21
72.157249
  0
LINE
  8
0
 10
171.395233
 20
70.657249
 11
171.395233
 21
72.157249
  0
LINE
  8
0
 10
169.745270
 20
70.657188
 11
179.545258
 21
70.657188
  0
LINE
  8
0
 10
178.645233
 20
57.657219
 11
178.645233
 21
61.657249
  0
LINE
  8
0
 10
170.645233
 20
57.657219
 11
170.645233
 21
61.657249
  0
LINE
  8
0
 10
174.645233
 20
58.014488
 11
174.645233
 21
60.657188
  0
LINE
  8
0
 10
169.745239
 20
61.657188
 11
179.545258
 21
61.657188
  0
LINE
  8
0
 10
179.545227
 20
61.657219
 11
179.545227
 21
70.657249
  0
LINE
  8
0
 10
169.745239
 20
61.657219
 11
169.745239
 21
70.657249
  0
LINE
  8
0
 10
170.745270
 20
72.157188
 11
178.545258
 21
72.157188
  0
LINE
  8
0
 10
178.645233
 20
72.157249
 11
178.645233
 21
73.757347
  0
LINE
  8
0
 10
170.645233
 20
72.157249
 11
170.645233
 21
73.757347
  0
LINE
  8
0
 10
-84.854767
 20
141.757370
 11
-84.854767
 21
105.757370
  0
LINE
  8
0
 10
-80.854767
 20
145.757370
 11
26.145233
 21
145.757370
  0
LINE
  8
0
 10
30.145233
 20
141.757370
 11
30.145233
 21
105.757370
  0
LINE
  8
0
 10
-80.854767
 20
101.757370
 11
26.145233
 21
101.757370
  0
LINE
  8
0
 10
60.145210
 20
105.757370
 11
60.145210
 21
141.757370
  0
LINE
  8
0
 10
64.145210
 20
145.757370
 11
171.145203
 21
145.757370
  0
LINE
  8
0
 10
175.145203
 20
105.757370
 11
175.145203
 21
141.757370
  0
LINE
  8
0
 10
64.145210
 20
101.757370
 11
171.145203
 21
101.757370
  0
LINE
  8
0
  6
CENTER
 62
     2
 10
-2.430115
 20
166.257370
 11
7.220158
 21
166.257370
  0
LINE
  8
0
  6
CENTER
 62
     2
 10
2.645233
 20
161.861221
 11
2.645233
 21
170.460403
  0
LINE
  8
0
  6
CENTER
 62
     2
 10
87.645233
 20
162.095413
 11
87.645233
 21
170.460403
  0
LINE
  8
0
  6
CENTER
 62
     2
 10
82.864288
 20
166.257370
 11
92.231987
 21
166.257370
  0
LINE
  8
0
 10
-315.854797
 20
202.357468
 11
-319.854797
 21
202.357468
  0
LINE
  8
0
 10
-320.354736
 20
201.857498
 11
-320.354736
 21
198.857498
  0
LINE
  8
0
 10
-315.354736
 20
201.857498
 11
-315.354736
 21
198.857498
  0
LINE
  8
0
 10
-320.354919
 20
201.857529
 11
-319.854889
 21
202.357544
  0
LINE
  8
0
 10
-315.854767
 20
202.357483
 11
-315.354797
 21
201.857498
  0
LINE
  8
0
 10
-315.854797
 20
198.357468
 11
-319.854797
 21
198.357468
  0
LINE
  8
0
 10
-315.354858
 20
198.857544
 11
-315.854828
 21
198.357559
  0
LINE
  8
0
 10
-319.854767
 20
198.357590
 11
-320.354736
 21
198.857574
  0
LINE
  8
0
 10
-315.354797
 20
201.857468
 11
-320.354797
 21
201.857468
  0
LINE
  8
0
 10
-315.354797
 20
198.857468
 11
-320.354797
 21
198.857468
  0
LINE
  8
0
 10
-313.854797
 20
189.857468
 11
-321.854797
 21
189.857468
  0
LINE
  8
0
 10
-314.354797
 20
190.657455
 11
-321.354797
 21
190.657455
  0
LINE
  8
0
 10
-314.354797
 20
193.157455
 11
-321.354797
 21
193.157455
  0
LINE
  8
0
 10
-321.854736
 20
192.657486
 11
-321.854736
 21
191.157486
  0
LINE
  8
0
 10
-313.854736
 20
192.657486
 11
-313.854736
 21
191.157486
  0
LINE
  8
0
 10
-321.854889
 20
192.657532
 11
-321.354889
 21
193.157547
  0
LINE
  8
0
 10
-314.354767
 20
193.157578
 11
-313.854736
 21
192.657547
  0
LINE
  8
0
 10
-313.854706
 20
191.157257
 11
-314.354706
 21
190.657272
  0
LINE
  8
0
 10
-321.354706
 20
190.657410
 11
-321.854706
 21
191.157410
  0
LINE
  8
0
 10
-313.854797
 20
192.657455
 11
-321.854797
 21
192.657455
  0
LINE
  8
0
 10
-313.854797
 20
191.157455
 11
-321.854797
 21
191.157455
  0
LINE
  8
0
 10
-320.354736
 20
190.657486
 11
-320.354736
 21
189.857498
  0
LINE
  8
0
 10
-315.354736
 20
190.657486
 11
-315.354736
 21
189.857498
  0
LINE
  8
0
 10
-316.354736
 20
198.357498
 11
-316.354736
 21
193.157486
  0
LINE
  8
0
 10
-319.354736
 20
198.357498
 11
-319.354736
 21
193.157486
  0
LINE
  8
0
 62
     2
 10
-319.084229
 20
198.357498
 11
-319.084229
 21
193.157486
  0
LINE
  8
0
 62
     2
 10
-316.625244
 20
198.357498
 11
-316.625244
 21
193.157486
  0
LINE
  8
0
 10
-321.104736
 20
176.857468
 11
-321.104736
 21
175.357468
  0
LINE
  8
0
 10
-314.604736
 20
176.857468
 11
-314.604736
 21
175.357468
  0
LINE
  8
0
 10
-312.954803
 20
176.857468
 11
-322.754791
 21
176.857468
  0
LINE
  8
0
 10
-321.854736
 20
189.857498
 11
-321.854736
 21
185.857468
  0
LINE
  8
0
 10
-313.854736
 20
189.857498
 11
-313.854736
 21
185.857468
  0
LINE
  8
0
 10
-317.854736
 20
189.500229
 11
-317.854736
 21
186.857529
  0
LINE
  8
0
 10
-312.954773
 20
185.857468
 11
-322.754791
 21
185.857468
  0
LINE
  8
0
 10
-322.754730
 20
185.857498
 11
-322.754730
 21
176.857468
  0
LINE
  8
0
 10
-312.954742
 20
185.857498
 11
-312.954742
 21
176.857468
  0
LINE
  8
0
 10
-313.954803
 20
175.357468
 11
-321.754791
 21
175.357468
  0
LINE
  8
0
 10
-321.854736
 20
175.357468
 11
-321.854736
 21
173.757370
  0
LINE
  8
0
 10
-313.854736
 20
175.357468
 11
-313.854736
 21
173.757370
  0
LINE
  8
0
 10
-336.354736
 20
171.757370
 11
-336.354736
 21
164.457382
  0
LINE
  8
0
 10
-301.354736
 20
173.757370
 11
-301.354736
 21
149.557419
  0
LINE
  8
0
 10
-334.354736
 20
173.757309
 11
-326.254791
 21
173.757309
  0
LINE
  8
0
 10
-301.854736
 20
173.757370
 11
-301.854736
 21
73.757370
  0
LINE
  8
0
 10
-336.354736
 20
155.757370
 11
-336.354736
 21
126.757370
  0
LINE
  8
0
 10
-336.354736
 20
155.757309
 11
-325.354797
 21
155.757309
  0
LINE
  8
0
 10
-326.354736
 20
155.757370
 11
-326.354736
 21
91.757370
  0
LINE
  8
0
 10
-336.354736
 20
156.757309
 11
-328.354736
 21
156.757309
  0
LINE
  8
0
 10
-336.354736
 20
91.757370
 11
-336.354736
 21
86.457352
  0
LINE
  8
0
 10
-333.854736
 20
165.607376
 11
-333.854736
 21
164.457382
  0
LINE
  8
0
 10
-331.354736
 20
165.607376
 11
-331.354736
 21
159.907364
  0
LINE
  8
0
 10
-336.354736
 20
164.457321
 11
-333.854736
 21
164.457321
  0
LINE
  8
0
 10
-336.354736
 20
161.057327
 11
-333.854736
 21
161.057327
  0
LINE
  8
0
 10
-333.854736
 20
165.607315
 11
-331.354736
 21
165.607315
  0
LINE
  8
0
 10
-333.854736
 20
159.907303
 11
-331.354736
 21
159.907303
  0
LINE
  8
0
 10
-333.854736
 20
161.057388
 11
-333.854736
 21
159.907364
  0
LINE
  8
0
 10
-327.204742
 20
167.957321
 11
-325.004761
 21
167.957321
  0
LINE
  8
0
 10
-326.254761
 20
173.757370
 11
-326.254761
 21
170.457382
  0
LINE
  8
0
 10
-327.204742
 20
170.457382
 11
-327.204742
 21
167.957382
  0
LINE
  8
0
 10
-333.854736
 20
86.457382
 11
-333.854736
 21
87.607376
  0
LINE
  8
0
 10
-336.354797
 20
86.457291
 11
-333.854797
 21
86.457291
  0
LINE
  8
0
 10
-333.854736
 20
81.907364
 11
-333.854736
 21
83.057358
  0
LINE
  8
0
 10
-336.354797
 20
83.057297
 11
-333.854797
 21
83.057297
  0
LINE
  8
0
 10
-336.354736
 20
83.057358
 11
-336.354736
 21
75.757370
  0
LINE
  8
0
 10
-309.654755
 20
173.757309
 11
-301.354767
 21
173.757309
  0
LINE
  8
0
 10
-322.454742
 20
173.757309
 11
-313.054749
 21
173.757309
  0
LINE
  8
0
 10
-336.354736
 20
161.057388
 11
-336.354736
 21
155.757370
  0
LINE
  8
0
 10
-326.554474
 20
161.757202
 11
-328.354462
 21
156.757248
  0
LINE
  8
0
 10
-325.354767
 20
165.257309
 11
-320.804749
 21
165.257309
  0
LINE
  8
0
 10
-322.454742
 20
173.757370
 11
-322.454742
 21
170.457382
  0
LINE
  8
0
 10
-320.804749
 20
173.757370
 11
-320.804749
 21
165.257370
  0
LINE
  8
0
 10
-325.004730
 20
169.257370
 11
-325.004730
 21
165.257370
  0
LINE
  8
0
 10
-314.204742
 20
171.757309
 11
-313.054749
 21
171.757309
  0
LINE
  8
0
 10
-314.204742
 20
169.257309
 11
-308.504761
 21
169.257309
  0
LINE
  8
0
 10
-313.054749
 20
173.757370
 11
-313.054749
 21
171.757370
  0
LINE
  8
0
 10
-309.654755
 20
173.757370
 11
-309.654755
 21
171.757370
  0
LINE
  8
0
 10
-308.504761
 20
173.757370
 11
-308.504761
 21
169.257370
  0
LINE
  8
0
 10
-314.204742
 20
173.757370
 11
-314.204742
 21
169.257370
  0
LINE
  8
0
 10
-309.654755
 20
171.757309
 11
-308.504761
 21
171.757309
  0
LINE
  8
0
 10
-326.554718
 20
161.757309
 11
-325.354767
 21
161.757309
  0
LINE
  8
0
 10
-327.204773
 20
170.457321
 11
-320.804749
 21
170.457321
  0
LINE
  8
0
 10
-336.354736
 20
120.757370
 11
-336.354736
 21
91.757370
  0
LINE
  8
0
  6
CENTER
 62
     2
 10
-335.248169
 20
143.757309
 11
-327.592896
 21
143.757309
  0
LINE
  8
0
  6
CENTER
 62
     2
 10
-331.354736
 20
147.797440
 11
-331.354736
 21
139.522110
  0
LINE
  8
0
 10
-336.354736
 20
126.757309
 11
-327.854736
 21
126.757309
  0
LINE
  8
0
 10
-327.854736
 20
126.757370
 11
-327.854736
 21
120.757370
  0
LINE
  8
0
 10
-336.354736
 20
120.757309
 11
-327.854736
 21
120.757309
  0
LINE
  8
0
 10
-322.854797
 20
151.120621
 11
-317.854797
 21
154.007370
  0
LINE
  8
0
 10
-317.855194
 20
154.006821
 11
-312.855164
 21
151.120056
  0
LINE
  8
0
 10
-312.854736
 20
151.120621
 11
-312.854736
 21
145.394119
  0
LINE
  8
0
 10
-317.854675
 20
142.507416
 11
-312.854706
 21
145.394165
  0
LINE
  8
0
 10
-322.855225
 20
145.393463
 11
-317.855225
 21
142.506714
  0
LINE
  8
0
 10
-322.854736
 20
151.120621
 11
-322.854736
 21
145.394119
  0
LINE
  8
0
 10
-325.354736
 20
165.257370
 11
-325.354736
 21
82.257370
  0
LINE
  8
0
 10
-334.354797
 20
73.757309
 11
-326.254822
 21
73.757309
  0
LINE
  8
0
 10
-336.354736
 20
91.757309
 11
-325.354797
 21
91.757309
  0
LINE
  8
0
 10
-336.354736
 20
90.757309
 11
-328.354736
 21
90.757309
  0
LINE
  8
0
 10
-331.154755
 20
81.907364
 11
-331.154755
 21
87.607376
  0
LINE
  8
0
 10
-333.854797
 20
87.607315
 11
-331.354797
 21
87.607315
  0
LINE
  8
0
 10
-333.854797
 20
81.907303
 11
-331.354797
 21
81.907303
  0
LINE
  8
0
 10
-327.204742
 20
77.057358
 11
-327.204742
 21
79.557358
  0
LINE
  8
0
 10
-327.204803
 20
77.057297
 11
-326.254791
 21
77.057297
  0
LINE
  8
0
 10
-326.254761
 20
73.757370
 11
-326.254761
 21
77.057358
  0
LINE
  8
0
 10
-327.204803
 20
79.557297
 11
-325.004791
 21
79.557297
  0
LINE
  8
0
 10
-322.454803
 20
73.757309
 11
-319.354797
 21
73.757309
  0
LINE
  8
0
 10
-309.654816
 20
73.757309
 11
-301.354797
 21
73.757309
  0
LINE
  8
0
 10
-326.554596
 20
85.757431
 11
-328.354584
 21
90.757393
  0
LINE
  8
0
 10
-322.454742
 20
73.757370
 11
-322.454742
 21
77.057358
  0
LINE
  8
0
 10
-322.454803
 20
77.057297
 11
-320.804810
 21
77.057297
  0
LINE
  8
0
 10
-320.804749
 20
73.757370
 11
-320.804749
 21
77.357162
  0
LINE
  8
0
 10
-325.354797
 20
82.257309
 11
-321.854797
 21
82.257309
  0
LINE
  8
0
 10
-325.004730
 20
79.557358
 11
-325.004730
 21
82.257370
  0
LINE
  8
0
 10
-313.054749
 20
73.757370
 11
-313.054749
 21
75.757370
  0
LINE
  8
0
 10
-314.204803
 20
75.757309
 11
-313.054810
 21
75.757309
  0
LINE
  8
0
 10
-314.204742
 20
73.757370
 11
-314.204742
 21
77.507309
  0
LINE
  8
0
 10
-313.854797
 20
78.257309
 11
-308.504791
 21
78.257309
  0
LINE
  8
0
 10
-308.504761
 20
73.757370
 11
-308.504761
 21
78.257370
  0
LINE
  8
0
 10
-309.654816
 20
75.757309
 11
-308.504791
 21
75.757309
  0
LINE
  8
0
 10
-309.654755
 20
73.757370
 11
-309.654755
 21
75.757370
  0
LINE
  8
0
 10
-326.554779
 20
85.757309
 11
-325.354797
 21
85.757309
  0
LINE
  8
0
 10
-313.954773
 20
95.757126
 11
-321.754761
 21
95.757126
  0
LINE
  8
0
 10
-319.854767
 20
68.157089
 11
-315.854767
 21
68.157089
  0
LINE
  8
0
 10
-315.354736
 20
68.657211
 11
-315.354736
 21
71.657211
  0
LINE
  8
0
 10
-320.354736
 20
68.657211
 11
-320.354736
 21
71.657211
  0
LINE
  8
0
 10
-315.354797
 20
68.657082
 11
-315.854797
 21
68.157089
  0
LINE
  8
0
 10
-319.854492
 20
68.157623
 11
-320.354492
 21
68.657631
  0
LINE
  8
0
 10
-321.854797
 20
72.157089
 11
-313.854797
 21
72.157089
  0
LINE
  8
0
 10
-320.354950
 20
71.657234
 11
-319.854919
 21
72.157265
  0
LINE
  8
0
 10
-315.854370
 20
72.157516
 11
-315.354370
 21
71.657524
  0
LINE
  8
0
 10
-320.354767
 20
68.657089
 11
-315.354767
 21
68.657089
  0
LINE
  8
0
 10
-320.354767
 20
71.657089
 11
-315.354767
 21
71.657089
  0
LINE
  8
0
 10
-321.754761
 20
95.157120
 11
-313.954773
 21
95.157120
  0
LINE
  8
0
 10
-321.854767
 20
80.657089
 11
-313.854767
 21
80.657089
  0
LINE
  8
0
 10
-321.354767
 20
79.857101
 11
-314.354767
 21
79.857101
  0
LINE
  8
0
 10
-321.354767
 20
77.357101
 11
-314.354767
 21
77.357101
  0
LINE
  8
0
 10
-313.854736
 20
77.857224
 11
-313.854736
 21
79.357224
  0
LINE
  8
0
 10
-321.854736
 20
77.857224
 11
-321.854736
 21
79.357224
  0
LINE
  8
0
 10
-313.854919
 20
77.857193
 11
-314.354889
 21
77.357201
  0
LINE
  8
0
 10
-321.354492
 20
77.357529
 11
-321.854492
 21
77.857544
  0
LINE
  8
0
 10
-321.854767
 20
79.357407
 11
-321.354797
 21
79.857391
  0
LINE
  8
0
 10
-314.354492
 20
79.857422
 11
-313.854553
 21
79.357452
  0
LINE
  8
0
 10
-321.854767
 20
77.857101
 11
-313.854767
 21
77.857101
  0
LINE
  8
0
 10
-321.854767
 20
79.357101
 11
-313.854767
 21
79.357101
  0
LINE
  8
0
 10
-315.354736
 20
79.857224
 11
-315.354736
 21
80.657211
  0
LINE
  8
0
 10
-320.354736
 20
79.857224
 11
-320.354736
 21
80.657211
  0
LINE
  8
0
 10
-319.354736
 20
72.157211
 11
-319.354736
 21
77.357224
  0
LINE
  8
0
 10
-316.354736
 20
72.157211
 11
-316.354736
 21
77.357224
  0
LINE
  8
0
 62
     2
 10
-316.625244
 20
72.157211
 11
-316.625244
 21
77.357224
  0
LINE
  8
0
 62
     2
 10
-319.084229
 20
72.157211
 11
-319.084229
 21
77.357224
  0
LINE
  8
0
 10
-314.604736
 20
93.657211
 11
-314.604736
 21
95.157211
  0
LINE
  8
0
 10
-321.104736
 20
93.657211
 11
-321.104736
 21
95.157211
  0
LINE
  8
0
 10
-313.954742
 20
95.157211
 11
-313.954742
 21
95.757217
  0
LINE
  8
0
 10
-321.754730
 20
95.157211
 11
-321.754730
 21
95.757217
  0
LINE
  8
0
 10
-321.754761
 20
95.757126
 11
-313.954773
 21
95.757126
  0
LINE
  8
0
 10
-322.754761
 20
93.657089
 11
-312.954773
 21
93.657089
  0
LINE
  8
0
 10
-313.854736
 20
80.657150
 11
-313.854736
 21
84.657211
  0
LINE
  8
0
 10
-321.854736
 20
80.657211
 11
-321.854736
 21
84.657211
  0
LINE
  8
0
 10
-317.854736
 20
81.014450
 11
-317.854736
 21
83.657150
  0
LINE
  8
0
 10
-312.954742
 20
84.657211
 11
-312.954742
 21
87.507187
  0
LINE
  8
0
 10
-312.954742
 20
88.907150
 11
-312.954742
 21
93.657211
  0
LINE
  8
0
 10
-322.754730
 20
84.657211
 11
-322.754730
 21
93.657211
  0
LINE
  8
0
 10
-316.354797
 20
73.757309
 11
-313.054810
 21
73.757309
  0
LINE
  8
0
 10
-303.354797
 20
82.757126
 11
-304.854797
 21
82.757126
  0
LINE
  8
0
 10
-310.354736
 20
82.757187
 11
-310.354736
 21
93.657150
  0
LINE
  8
0
 10
-311.854797
 20
84.657150
 11
-322.754791
 21
84.657150
  0
LINE
  8
0
 10
-311.854736
 20
84.257187
 11
-311.854736
 21
92.157150
  0
LINE
  8
0
 10
-305.854736
 20
82.757187
 11
-305.854736
 21
93.657150
  0
LINE
  8
0
 10
-304.854736
 20
82.757187
 11
-304.854736
 21
93.657150
  0
LINE
  8
0
 10
-303.354736
 20
82.757187
 11
-303.354736
 21
93.657150
  0
LINE
  8
0
 10
-305.854797
 20
82.757126
 11
-310.354797
 21
82.757126
  0
LINE
  8
0
 10
-304.854797
 20
93.657089
 11
-303.354797
 21
93.657089
  0
LINE
  8
0
 10
-304.854797
 20
91.507126
 11
-305.854797
 21
91.507126
  0
LINE
  8
0
 10
-304.854797
 20
84.907089
 11
-305.854797
 21
84.907089
  0
LINE
  8
0
 10
-310.354797
 20
93.657143
 11
-311.854797
 21
92.157135
  0
LINE
  8
0
 10
-310.355194
 20
82.756783
 11
-311.855194
 21
84.256798
  0
LINE
  8
0
 10
-310.354797
 20
93.657089
 11
-305.854797
 21
93.657089
  0
LINE
  8
0
 10
-305.854797
 20
87.507126
 11
-317.854797
 21
87.507126
  0
LINE
  8
0
 10
-305.854797
 20
88.907089
 11
-317.854797
 21
88.907089
  0
LINE
  8
0
 10
-309.193024
 20
104.030083
 11
-310.607239
 21
105.444298
  0
LINE
  8
0
 10
-310.607056
 20
105.444542
 11
-313.829041
 21
102.222549
  0
LINE
  8
0
 10
-311.667633
 20
106.505280
 11
-314.889618
 21
103.283318
  0
LINE
  8
0
 10
-309.192780
 20
102.616272
 11
-311.023651
 21
100.785400
  0
LINE
  8
0
 10
-314.496002
 20
107.919472
 11
-316.326874
 21
106.088593
  0
LINE
  8
0
 10
-311.667908
 20
106.504959
 11
-313.082123
 21
107.919174
  0
LINE
  8
0
 10
-301.355072
 20
97.957008
 11
-301.855103
 21
98.457039
  0
LINE
  8
0
 10
-301.354858
 20
149.557434
 11
-301.854858
 21
149.057449
  0
LINE
  8
0
 10
-315.854828
 20
45.157150
 11
-319.854828
 21
45.157150
  0
LINE
  8
0
 10
-320.354736
 20
45.657242
 11
-320.354736
 21
48.657242
  0
LINE
  8
0
 10
-315.354736
 20
45.657242
 11
-315.354736
 21
48.657242
  0
LINE
  8
0
 10
-320.354523
 20
45.657566
 11
-319.854523
 21
45.157547
  0
LINE
  8
0
 10
-315.854889
 20
45.157211
 11
-315.354889
 21
45.657211
  0
LINE
  8
0
 10
-315.854828
 20
49.157150
 11
-319.854828
 21
49.157150
  0
LINE
  8
0
 10
-315.354584
 20
48.657513
 11
-315.854553
 21
49.157482
  0
LINE
  8
0
 10
-319.854858
 20
49.157181
 11
-320.354828
 21
48.657192
  0
LINE
  8
0
 10
-315.354828
 20
45.657150
 11
-320.354828
 21
45.657150
  0
LINE
  8
0
 10
-315.354828
 20
48.657150
 11
-320.354828
 21
48.657150
  0
LINE
  8
0
 10
-313.854828
 20
57.657150
 11
-321.854828
 21
57.657150
  0
LINE
  8
0
 10
-314.354828
 20
56.857162
 11
-321.354828
 21
56.857162
  0
LINE
  8
0
 10
-314.354828
 20
54.357162
 11
-321.354828
 21
54.357162
  0
LINE
  8
0
 10
-321.854736
 20
54.857254
 11
-321.854736
 21
56.357254
  0
LINE
  8
0
 10
-313.854736
 20
54.857254
 11
-313.854736
 21
56.357254
  0
LINE
  8
0
 10
-321.854614
 20
54.857563
 11
-321.354584
 21
54.357521
  0
LINE
  8
0
 10
-314.354919
 20
54.357193
 11
-313.854889
 21
54.857224
  0
LINE
  8
0
 10
-313.854523
 20
56.357430
 11
-314.354523
 21
56.857426
  0
LINE
  8
0
 10
-321.354797
 20
56.857224
 11
-321.854797
 21
56.357227
  0
LINE
  8
0
 10
-313.854828
 20
54.857162
 11
-321.854828
 21
54.857162
  0
LINE
  8
0
 10
-313.854828
 20
56.357162
 11
-321.854828
 21
56.357162
  0
LINE
  8
0
 10
-320.354736
 20
56.857254
 11
-320.354736
 21
57.657242
  0
LINE
  8
0
 10
-315.354736
 20
56.857254
 11
-315.354736
 21
57.657242
  0
LINE
  8
0
 10
-316.354736
 20
49.157242
 11
-316.354736
 21
54.357254
  0
LINE
  8
0
 10
-319.354736
 20
49.157242
 11
-319.354736
 21
54.357254
  0
LINE
  8
0
 62
     2
 10
-319.084229
 20
49.157242
 11
-319.084229
 21
54.357254
  0
LINE
  8
0
 62
     2
 10
-316.625244
 20
49.157242
 11
-316.625244
 21
54.357254
  0
LINE
  8
0
 10
-321.104736
 20
70.657272
 11
-321.104736
 21
72.157272
  0
LINE
  8
0
 10
-314.604736
 20
70.657272
 11
-314.604736
 21
72.157272
  0
LINE
  8
0
 10
-312.954834
 20
70.657150
 11
-315.354797
 21
70.657150
  0
LINE
  8
0
 10
-321.854736
 20
57.657242
 11
-321.854736
 21
61.657272
  0
LINE
  8
0
 10
-313.854736
 20
57.657242
 11
-313.854736
 21
61.657272
  0
LINE
  8
0
 10
-317.854736
 20
58.014511
 11
-317.854736
 21
60.657211
  0
LINE
  8
0
 10
-312.954803
 20
61.657150
 11
-322.754822
 21
61.657150
  0
LINE
  8
0
 10
-322.754730
 20
61.657242
 11
-322.754730
 21
70.657272
  0
LINE
  8
0
 10
-312.954742
 20
61.657242
 11
-312.954742
 21
70.657272
  0
LINE
  8
0
 10
-321.854736
 20
72.157272
 11
-321.854736
 21
73.757370
  0
LINE
  8
0
 10
-313.854736
 20
72.157272
 11
-313.854736
 21
73.757370
  0
LINE
  8
0
 10
-320.354797
 20
70.657150
 11
-322.754822
 21
70.657150
  0
LINE
  8
0
 10
-325.354767
 20
169.257309
 11
-320.804749
 21
169.257309
  0
LINE
  8
0
 10
-327.204773
 20
169.457321
 11
-320.804749
 21
169.457321
  0
LINE
  8
0
 62
     2
 10
-323.354736
 20
172.057388
 11
-323.354736
 21
170.457382
  0
LINE
  8
0
 62
     2
 10
-325.354736
 20
172.057388
 11
-325.354736
 21
170.457382
  0
LINE
  8
0
 10
-327.204773
 20
169.457321
 11
-320.804749
 21
169.457321
  0
LINE
  8
0
 10
-327.204773
 20
170.457321
 11
-320.804749
 21
170.457321
  0
LINE
  8
0
 62
     2
 10
-326.254791
 20
172.057297
 11
-322.454773
 21
172.057297
  0
LINE
  8
0
 62
     2
 10
-323.354736
 20
169.457382
 11
-323.354736
 21
169.257370
  0
LINE
  8
0
 62
     2
 10
-325.354736
 20
169.457382
 11
-325.354736
 21
169.257370
  0
LINE
  8
0
 62
     2
 10
-323.346802
 20
172.875381
 11
-324.354828
 21
173.457367
  0
LINE
  8
0
 62
     2
 10
-324.354858
 20
173.457413
 11
-325.333740
 21
172.892242
  0
LINE
  8
0
 10
-301.354736
 20
97.956863
 11
-301.354736
 21
73.757370
  0
LINE
  8
0
  6
CENTER
 62
     2
 10
-331.354736
 20
99.717300
 11
-331.354736
 21
107.992630
  0
LINE
  8
0
  6
CENTER
 62
     2
 10
-335.248169
 20
103.757309
 11
-327.592896
 21
103.757309
  0
LINE
  8
0
  6
CENTER
 62
     2
 10
-338.841675
 20
123.757309
 11
-297.866394
 21
123.757309
  0
LINE
  8
0
 10
-191.854736
 20
-27.742630
 11
-191.854736
 21
-24.681664
  0
LINE
  8
0
 10
-174.854767
 20
-6.242630
 11
265.145233
 21
-6.242630
  0
LINE
  8
0
 10
-180.854736
 20
-6.742630
 11
-180.854736
 21
-30.242630
  0
LINE
  8
0
 10
-174.854767
 20
-6.242630
 11
-174.854767
 21
-41.242626
  0
LINE
  8
0
 10
-180.854736
 20
-6.742630
 11
-174.854767
 21
-6.742630
  0
LINE
  8
0
 62
     2
 10
-174.854767
 20
-8.742630
 11
265.145233
 21
-8.742630
  0
LINE
  8
0
 62
     2
 10
-174.854767
 20
-9.742630
 11
265.145233
 21
-9.742630
  0
LINE
  8
0
 10
-180.854736
 20
-30.242630
 11
-174.854767
 21
-30.242630
  0
LINE
  8
0
 10
-174.854767
 20
-17.942627
 11
265.145233
 21
-17.942627
  0
LINE
  8
0
 10
-174.854767
 20
-14.542633
 11
265.145233
 21
-14.542633
  0
LINE
  8
0
 10
-174.854767
 20
-27.542625
 11
265.145233
 21
-27.542625
  0
LINE
  8
0
 10
-174.854767
 20
-30.942627
 11
265.145233
 21
-30.942627
  0
LINE
  8
0
 10
-180.854736
 20
-13.392632
 11
-174.854767
 21
-13.392632
  0
LINE
  8
0
 10
-180.854736
 20
-19.092628
 11
-174.854767
 21
-19.092628
  0
LINE
  8
0
 10
-180.854736
 20
-26.392624
 11
-174.854767
 21
-26.392624
  0
LINE
  8
0
 10
-182.354736
 20
-17.742630
 11
-180.854736
 21
-17.742630
  0
LINE
  8
0
 10
-199.854614
 20
-19.542671
 11
-200.854630
 21
-20.542692
  0
LINE
  8
0
 10
-200.854614
 20
-24.542374
 11
-199.854630
 21
-25.542353
  0
LINE
  8
0
 10
-199.854736
 20
-19.542625
 11
-192.354736
 21
-19.542625
  0
LINE
  8
0
 10
-200.854736
 20
-20.542587
 11
-200.854736
 21
-24.542595
  0
LINE
  8
0
 10
-199.854736
 20
-19.542587
 11
-199.854736
 21
-25.542587
  0
LINE
  8
0
 62
     2
 10
-200.854736
 20
-20.542625
 11
-191.854736
 21
-20.542625
  0
LINE
  8
0
 62
     2
 10
-200.854736
 20
-24.542625
 11
-191.854736
 21
-24.542625
  0
LINE
  8
0
 10
-199.854736
 20
-25.542625
 11
-191.854736
 21
-25.542625
  0
LINE
  8
0
 10
-183.354736
 20
-25.333221
 11
-183.354736
 21
-20.152031
  0
LINE
  8
0
 10
-191.354736
 20
-25.333221
 11
-191.354736
 21
-20.152031
  0
LINE
  8
0
 10
-191.354782
 20
-25.333374
 11
-187.354782
 21
-27.642776
  0
LINE
  8
0
 10
-187.354813
 20
-17.842768
 11
-183.354782
 21
-20.152185
  0
LINE
  8
0
 10
-191.354889
 20
-20.151834
 11
-187.354889
 21
-17.842434
  0
LINE
  8
0
 10
-187.354797
 20
-27.642429
 11
-183.354843
 21
-25.333057
  0
LINE
  8
0
 10
-191.854736
 20
-27.742630
 11
-180.854736
 21
-27.742630
  0
LINE
  8
0
 10
-182.354736
 20
-7.742630
 11
-192.354736
 21
-7.742630
  0
LINE
  8
0
 10
-192.354736
 20
-22.742630
 11
-192.354736
 21
-10.242630
  0
LINE
  8
0
 10
-182.354736
 20
-22.742630
 11
-182.354736
 21
-10.242630
  0
LINE
  8
0
 10
-182.354736
 20
-9.242630
 11
-192.354736
 21
-9.242630
  0
LINE
  8
0
 10
-182.354736
 20
-10.242630
 11
-192.354736
 21
-10.242630
  0
LINE
  8
0
 10
-182.354736
 20
-14.742630
 11
-192.354736
 21
-14.742630
  0
LINE
  8
0
 10
-190.654724
 20
-10.242630
 11
-190.654724
 21
-9.242630
  0
LINE
  8
0
 10
-184.054718
 20
-10.242630
 11
-184.054718
 21
-9.242630
  0
LINE
  8
0
 10
-192.354736
 20
-9.242630
 11
-192.354736
 21
-7.742630
  0
LINE
  8
0
 10
-182.354736
 20
-9.242630
 11
-182.354736
 21
-7.742630
  0
LINE
  8
0
 10
290.145203
 20
-19.542633
 11
291.145203
 21
-20.542635
  0
LINE
  8
0
 10
291.145203
 20
-24.542542
 11
290.145203
 21
-25.542543
  0
LINE
  8
0
 10
290.145233
 20
-25.542625
 11
276.145233
 21
-25.542625
  0
LINE
  8
0
 10
290.145233
 20
-19.542625
 11
276.145233
 21
-19.542625
  0
LINE
  8
0
 10
291.145233
 20
-20.542587
 11
291.145233
 21
-24.542595
  0
LINE
  8
0
 10
290.145233
 20
-19.542587
 11
290.145233
 21
-25.542587
  0
LINE
  8
0
 62
     2
 10
291.145233
 20
-20.542625
 11
276.145233
 21
-20.542625
  0
LINE
  8
0
 62
     2
 10
291.145233
 20
-24.542625
 11
276.145233
 21
-24.542625
  0
LINE
  8
0
 10
265.145233
 20
-6.242630
 11
265.145233
 21
-14.742630
  0
LINE
  8
0
 10
271.145233
 20
-6.742630
 11
271.145233
 21
-14.742630
  0
LINE
  8
0
 10
265.145233
 20
-6.742630
 11
271.145233
 21
-6.742630
  0
LINE
  8
0
 10
265.145233
 20
-30.242630
 11
271.145233
 21
-30.242630
  0
LINE
  8
0
 10
265.145233
 20
-13.392632
 11
271.145233
 21
-13.392632
  0
LINE
  8
0
 10
265.145233
 20
-19.092628
 11
271.145233
 21
-19.092628
  0
LINE
  8
0
 10
265.145233
 20
-26.392624
 11
271.145233
 21
-26.392624
  0
LINE
  8
0
 10
276.145233
 20
-17.742630
 11
276.145233
 21
-27.542625
  0
LINE
  8
0
 10
271.145233
 20
-27.542625
 11
276.145233
 21
-27.542625
  0
LINE
  8
0
 10
280.145233
 20
-25.542625
 11
280.145233
 21
-26.042625
  0
LINE
  8
0
 10
276.145233
 20
-26.042625
 11
280.145233
 21
-26.042625
  0
LINE
  8
0
 10
271.145233
 20
-22.542625
 11
276.145233
 21
-22.542625
  0
LINE
  8
0
 10
272.645233
 20
-7.742630
 11
282.645233
 21
-7.742630
  0
LINE
  8
0
 10
282.645233
 20
-9.242630
 11
282.645233
 21
-7.742630
  0
LINE
  8
0
 10
272.645233
 20
-9.242630
 11
272.645233
 21
-7.742630
  0
LINE
  8
0
 10
272.645233
 20
-9.242630
 11
282.645233
 21
-9.242630
  0
LINE
  8
0
 10
280.945221
 20
-10.242630
 11
280.945221
 21
-9.242630
  0
LINE
  8
0
 10
274.345215
 20
-10.242630
 11
274.345215
 21
-9.242630
  0
LINE
  8
0
 10
272.645233
 20
-10.242630
 11
282.645233
 21
-10.242630
  0
LINE
  8
0
 10
282.645233
 20
-19.542625
 11
282.645233
 21
-17.742630
  0
LINE
  8
0
  6
CENTER
 62
     2
 10
45.145233
 20
2.376492
 11
45.145233
 21
-47.909592
  0
LINE
  8
0
 10
206.145203
 20
-17.942627
 11
206.145203
 21
-14.542633
  0
LINE
  8
0
 10
232.145203
 20
-17.942627
 11
232.145203
 21
-14.542633
  0
LINE
  8
0
 10
216.745209
 20
-17.942627
 11
216.745209
 21
-14.542633
  0
LINE
  8
0
 10
221.545197
 20
-17.942627
 11
221.545197
 21
-14.542633
  0
LINE
  8
0
 10
218.529709
 20
-15.626990
 11
219.780304
 21
-16.877590
  0
LINE
  8
0
 10
218.527328
 20
-16.860680
 11
219.826019
 21
-15.561991
  0
LINE
  8
0
 10
232.145203
 20
-17.742630
 11
292.264557
 21
-17.742630
  0
LINE
  8
0
 10
232.145203
 20
-14.742630
 11
293.068420
 21
-14.742630
  0
LINE
  8
0
 10
265.145233
 20
-17.742630
 11
265.145233
 21
-41.242626
  0
LINE
  8
0
 10
271.145233
 20
-17.742630
 11
271.145233
 21
-30.242630
  0
LINE
  8
0
 10
272.645233
 20
-14.742630
 11
272.645233
 21
-10.242630
  0
LINE
  8
0
 10
282.645233
 20
-14.742630
 11
282.645233
 21
-10.242630
  0
LINE
  8
0
  6
PHANTOM
 62
     2
 10
293.975677
 20
-18.820848
 11
295.634125
 21
-12.631489
  0
LINE
  8
0
 10
207.145203
 20
-17.942627
 11
207.145203
 21
-14.542633
  0
LINE
  8
0
 10
-174.854767
 20
-41.242626
 11
265.145233
 21
-41.242626
  0
LINE
  8
0
  6
PHANTOM
 62
     2
 10
291.975677
 20
-18.820852
 11
293.634125
 21
-12.631490
  0
LINE
  8
0
 10
-174.854767
 20
-118.042648
 11
-1.137619
 21
-118.042648
  0
LINE
  8
0
 10
-174.854767
 20
-200.442642
 11
-1.137627
 21
-200.442642
  0
LINE
  8
0
  6
CENTER
 62
     2
 10
-191.706055
 20
-159.242630
 11
287.904144
 21
-159.242630
  0
LINE
  8
0
 10
-180.854736
 20
-109.242630
 11
271.145172
 21
-109.242630
  0
LINE
  8
0
 10
-128.854767
 20
-150.242630
 11
-97.854767
 21
-150.242630
  0
LINE
  8
0
 10
-128.854767
 20
-168.242630
 11
-97.854767
 21
-168.242630
  0
LINE
  8
0
 10
-174.854767
 20
-126.242630
 11
265.145203
 21
-126.242630
  0
LINE
  8
0
 10
-180.854736
 20
-109.242630
 11
-180.854736
 21
-209.242599
  0
LINE
  8
0
 10
-173.854767
 20
-150.242630
 11
-172.854767
 21
-150.242630
  0
LINE
  8
0
 10
-173.854767
 20
-168.242630
 11
-172.854767
 21
-168.242630
  0
LINE
  8
0
 10
-81.865082
 20
-140.492538
 11
-85.854736
 21
-140.492538
  0
LINE
  8
0
 10
-81.865082
 20
-128.992538
 11
-85.854736
 21
-128.992538
  0
LINE
  8
0
 10
-80.855156
 20
-138.742340
 11
-81.865517
 21
-140.492325
  0
LINE
  8
0
 10
-80.854446
 20
-130.742447
 11
-81.864807
 21
-128.992447
  0
LINE
  8
0
 10
-80.854767
 20
-138.742630
 11
-80.854767
 21
-130.742630
  0
LINE
  8
0
 10
-66.854736
 20
-131.742538
 11
-80.854736
 21
-131.742538
  0
LINE
  8
0
 10
-66.854736
 20
-137.742538
 11
-80.854736
 21
-137.742538
  0
LINE
  8
0
 62
     2
 10
-65.854736
 20
-136.742538
 11
-80.854736
 21
-136.742538
  0
LINE
  8
0
 62
     2
 10
-65.854736
 20
-132.742538
 11
-80.854736
 21
-132.742538
  0
LINE
  8
0
 10
-144.104767
 20
-148.014328
 11
-144.104767
 21
-149.470963
  0
LINE
  8
0
 10
-145.354782
 20
-147.292664
 11
-146.604767
 21
-148.014343
  0
LINE
  8
0
 10
-144.104858
 20
-148.014404
 11
-145.354843
 21
-147.292725
  0
LINE
  8
0
 10
-146.604767
 20
-148.014328
 11
-146.604767
 21
-149.470963
  0
LINE
  8
0
 10
-145.354767
 20
-150.192703
 11
-146.604752
 21
-149.471024
  0
LINE
  8
0
 10
-144.104721
 20
-149.470886
 11
-145.354752
 21
-150.192581
  0
LINE
  8
0
 10
-156.104767
 20
-170.470963
 11
-156.104767
 21
-169.014328
  0
LINE
  8
0
 10
-156.105377
 20
-169.015259
 11
-157.355392
 21
-168.293579
  0
LINE
  8
0
 10
-157.355072
 20
-171.192978
 11
-158.605087
 21
-170.471283
  0
LINE
  8
0
 10
-157.354721
 20
-168.292664
 11
-158.604706
 21
-169.014343
  0
LINE
  8
0
 10
-158.604767
 20
-170.470932
 11
-158.604767
 21
-169.014328
  0
LINE
  8
0
 10
-156.104736
 20
-170.470947
 11
-157.354721
 21
-171.192627
  0
LINE
  8
0
 10
-145.354965
 20
-171.193054
 11
-146.604996
 21
-170.471344
  0
LINE
  8
0
 10
-146.604767
 20
-170.470932
 11
-146.604767
 21
-169.014328
  0
LINE
  8
0
 10
-145.354797
 20
-168.292679
 11
-146.604782
 21
-169.014359
  0
LINE
  8
0
 10
-144.104767
 20
-170.470963
 11
-144.104767
 21
-169.014328
  0
LINE
  8
0
 10
-144.104538
 20
-169.014008
 11
-145.354523
 21
-168.292313
  0
LINE
  8
0
 10
-144.104813
 20
-170.470932
 11
-145.354797
 21
-171.192612
  0
LINE
  8
0
 10
-157.354782
 20
-147.292572
 11
-158.604767
 21
-148.014252
  0
LINE
  8
0
 10
-158.604767
 20
-148.014328
 11
-158.604767
 21
-149.470963
  0
LINE
  8
0
 10
-157.354828
 20
-150.192673
 11
-158.604813
 21
-149.470993
  0
LINE
  8
0
 10
-156.104736
 20
-149.470825
 11
-157.354782
 21
-150.192535
  0
LINE
  8
0
 10
-156.104767
 20
-148.014328
 11
-156.104767
 21
-149.470963
  0
LINE
  8
0
 10
-156.104858
 20
-148.014542
 11
-157.354843
 21
-147.292862
  0
LINE
  8
0
 10
-81.346741
 20
-131.892563
 11
-85.854736
 21
-131.892563
  0
LINE
  8
0
 10
-81.346741
 20
-137.592545
 11
-85.854736
 21
-137.592545
  0
LINE
  8
0
 10
-174.854767
 20
-121.442642
 11
265.145203
 21
-121.442642
  0
LINE
  8
0
 10
-180.854736
 20
-200.742630
 11
-174.854767
 21
-200.742630
  0
LINE
  8
0
 10
-180.854736
 20
-117.742630
 11
-174.854767
 21
-117.742630
  0
LINE
  8
0
 10
-127.354767
 20
-131.992630
 11
-127.354767
 21
-137.492630
  0
LINE
  8
0
 10
-89.654816
 20
-175.242630
 11
-89.654816
 21
-192.242630
  0
LINE
  8
0
 10
-89.654755
 20
-178.742599
 11
-80.354767
 21
-178.742599
  0
LINE
  8
0
 10
-90.854767
 20
-175.242599
 11
-89.654755
 21
-175.242599
  0
LINE
  8
0
 10
-90.854767
 20
-192.242599
 11
-89.654755
 21
-192.242599
  0
LINE
  8
0
 10
-79.854767
 20
-187.242783
 11
-79.854767
 21
-179.242813
  0
LINE
  8
0
 10
-80.354767
 20
-178.742813
 11
-80.354767
 21
-187.242813
  0
LINE
  8
0
 10
-80.355194
 20
-178.742798
 11
-79.855034
 21
-179.242966
  0
LINE
  8
0
 10
-89.654755
 20
-188.742783
 11
-88.854767
 21
-188.742783
  0
LINE
  8
0
 10
-88.854828
 20
-188.742813
 11
-88.854828
 21
-187.242783
  0
LINE
  8
0
 10
-82.354797
 20
-237.842758
 11
-86.354797
 21
-237.842758
  0
LINE
  8
0
 10
-86.854767
 20
-237.342819
 11
-86.854767
 21
-234.342819
  0
LINE
  8
0
 10
-81.854767
 20
-237.342819
 11
-81.854767
 21
-234.342819
  0
LINE
  8
0
 10
-86.854950
 20
-237.343140
 11
-86.354942
 21
-237.843155
  0
LINE
  8
0
 10
-82.354866
 20
-237.842789
 11
-81.854881
 21
-237.342804
  0
LINE
  8
0
 10
-82.354797
 20
-233.842758
 11
-86.354797
 21
-233.842758
  0
LINE
  8
0
 10
-81.854996
 20
-234.343002
 11
-82.355011
 21
-233.842987
  0
LINE
  8
0
 10
-86.354942
 20
-233.842819
 11
-86.854935
 21
-234.342804
  0
LINE
  8
0
 10
-81.854797
 20
-237.342758
 11
-86.854797
 21
-237.342758
  0
LINE
  8
0
 10
-81.854797
 20
-234.342758
 11
-86.854797
 21
-234.342758
  0
LINE
  8
0
 10
-80.454803
 20
-187.842789
 11
-88.254791
 21
-187.842789
  0
LINE
  8
0
 10
-80.354797
 20
-225.342758
 11
-88.354797
 21
-225.342758
  0
LINE
  8
0
 10
-80.854797
 20
-226.142746
 11
-87.854797
 21
-226.142746
  0
LINE
  8
0
 10
-80.854797
 20
-228.642746
 11
-87.854797
 21
-228.642746
  0
LINE
  8
0
 10
-88.354767
 20
-228.142807
 11
-88.354767
 21
-226.642807
  0
LINE
  8
0
 10
-80.354767
 20
-228.142807
 11
-80.354767
 21
-226.642807
  0
LINE
  8
0
 10
-88.355156
 20
-228.143127
 11
-87.855141
 21
-228.643143
  0
LINE
  8
0
 10
-80.854927
 20
-228.642776
 11
-80.354897
 21
-228.142746
  0
LINE
  8
0
 10
-80.354553
 20
-226.642548
 11
-80.854546
 21
-226.142563
  0
LINE
  8
0
 10
-87.854797
 20
-226.142700
 11
-88.354790
 21
-226.642700
  0
LINE
  8
0
 10
-80.354797
 20
-228.142746
 11
-88.354797
 21
-228.142746
  0
LINE
  8
0
 10
-80.354797
 20
-226.642746
 11
-88.354797
 21
-226.642746
  0
LINE
  8
0
 10
-86.854767
 20
-226.142807
 11
-86.854767
 21
-225.342819
  0
LINE
  8
0
 10
-81.854767
 20
-226.142807
 11
-81.854767
 21
-225.342819
  0
LINE
  8
0
 10
-82.854767
 20
-233.842819
 11
-82.854767
 21
-228.642807
  0
LINE
  8
0
 10
-85.854767
 20
-233.842819
 11
-85.854767
 21
-228.642807
  0
LINE
  8
0
 62
     2
 10
-85.584259
 20
-233.842819
 11
-85.584259
 21
-228.642807
  0
LINE
  8
0
 62
     2
 10
-83.125275
 20
-233.842819
 11
-83.125275
 21
-228.642807
  0
LINE
  8
0
 10
-87.604767
 20
-212.342758
 11
-87.604767
 21
-210.842758
  0
LINE
  8
0
 10
-81.104767
 20
-212.342758
 11
-81.104767
 21
-210.842758
  0
LINE
  8
0
 10
-88.254791
 20
-187.842789
 11
-88.254791
 21
-187.242783
  0
LINE
  8
0
 10
-80.454803
 20
-187.842789
 11
-80.454803
 21
-187.242783
  0
LINE
  8
0
 10
-79.454803
 20
-212.342758
 11
-89.254791
 21
-212.342758
  0
LINE
  8
0
 10
-88.354767
 20
-225.342819
 11
-88.354767
 21
-221.342758
  0
LINE
  8
0
 10
-80.354767
 20
-225.342819
 11
-80.354767
 21
-221.342758
  0
LINE
  8
0
 10
-84.354767
 20
-224.985519
 11
-84.354767
 21
-222.342819
  0
LINE
  8
0
 10
-79.454773
 20
-221.342758
 11
-89.254791
 21
-221.342758
  0
LINE
  8
0
 10
-89.254791
 20
-221.342819
 11
-89.254791
 21
-212.342758
  0
LINE
  8
0
 10
-79.454803
 20
-221.342819
 11
-79.454803
 21
-212.342758
  0
LINE
  8
0
 10
-79.854767
 20
-187.242783
 11
-88.854767
 21
-187.242783
  0
LINE
  8
0
 10
-163.854767
 20
-126.242630
 11
-163.854767
 21
-192.242630
  0
LINE
  8
0
 10
-128.854767
 20
-187.742630
 11
-98.354767
 21
-187.742630
  0
LINE
  8
0
 10
-128.854767
 20
-179.742630
 11
-98.354767
 21
-179.742630
  0
LINE
  8
0
 10
-173.354767
 20
-128.742630
 11
-173.354767
 21
-140.742630
  0
LINE
  8
0
 10
-174.854767
 20
-128.742630
 11
-173.354767
 21
-128.742630
  0
LINE
  8
0
 10
-174.854767
 20
-140.742630
 11
-173.354767
 21
-140.742630
  0
LINE
  8
0
 10
-89.654785
 20
-179.042618
 11
-90.854767
 21
-179.042618
  0
LINE
  8
0
 10
-89.654785
 20
-188.442612
 11
-90.854767
 21
-188.442612
  0
LINE
  8
0
 10
-128.854767
 20
-131.992630
 11
-127.354767
 21
-131.992630
  0
LINE
  8
0
 10
-128.854767
 20
-137.492630
 11
-127.354767
 21
-137.492630
  0
LINE
  8
0
 10
-174.354767
 20
-186.492630
 11
-172.854767
 21
-186.492630
  0
LINE
  8
0
 10
-174.354767
 20
-180.992630
 11
-172.854767
 21
-180.992630
  0
LINE
  8
0
 10
-174.354767
 20
-180.742630
 11
-174.354767
 21
-186.742630
  0
LINE
  8
0
 10
-85.854767
 20
-126.742630
 11
-85.854767
 21
-173.742630
  0
LINE
  8
0
 10
-182.054718
 20
-143.242630
 11
-182.054718
 21
-126.242630
  0
LINE
  8
0
 10
-182.054749
 20
-139.742661
 11
-191.354736
 21
-139.742661
  0
LINE
  8
0
 10
-180.854736
 20
-143.242661
 11
-182.054749
 21
-143.242661
  0
LINE
  8
0
 10
-180.854736
 20
-126.242661
 11
-182.054749
 21
-126.242661
  0
LINE
  8
0
 10
-191.854736
 20
-131.242477
 11
-191.854736
 21
-139.242447
  0
LINE
  8
0
 10
-183.454712
 20
-131.242477
 11
-191.254700
 21
-131.242477
  0
LINE
  8
0
 10
-191.354736
 20
-139.742447
 11
-191.354736
 21
-131.242447
  0
LINE
  8
0
 10
-191.354996
 20
-139.742996
 11
-191.855164
 21
-139.242844
  0
LINE
  8
0
 10
-182.054749
 20
-129.742477
 11
-182.854736
 21
-129.742477
  0
LINE
  8
0
 10
-182.854706
 20
-129.742477
 11
-182.854706
 21
-131.242477
  0
LINE
  8
0
 10
-189.354706
 20
-103.642441
 11
-185.354706
 21
-103.642441
  0
LINE
  8
0
 10
-184.854736
 20
-104.142471
 11
-184.854736
 21
-107.142471
  0
LINE
  8
0
 10
-189.854736
 20
-104.142471
 11
-189.854736
 21
-107.142471
  0
LINE
  8
0
 10
-184.855026
 20
-104.142754
 11
-185.355042
 21
-103.642746
  0
LINE
  8
0
 10
-189.354553
 20
-103.642624
 11
-189.854538
 21
-104.142609
  0
LINE
  8
0
 10
-189.354706
 20
-107.642441
 11
-185.354706
 21
-107.642441
  0
LINE
  8
0
 10
-189.855011
 20
-107.142876
 11
-189.354996
 21
-107.642883
  0
LINE
  8
0
 10
-185.354584
 20
-107.642586
 11
-184.854568
 21
-107.142578
  0
LINE
  8
0
 10
-189.854706
 20
-104.142441
 11
-184.854706
 21
-104.142441
  0
LINE
  8
0
 10
-189.854706
 20
-107.142441
 11
-184.854706
 21
-107.142441
  0
LINE
  8
0
 10
-191.254700
 20
-130.642471
 11
-183.454712
 21
-130.642471
  0
LINE
  8
0
 10
-191.354706
 20
-116.142471
 11
-183.354706
 21
-116.142471
  0
LINE
  8
0
 10
-190.854706
 20
-115.342484
 11
-183.854706
 21
-115.342484
  0
LINE
  8
0
 10
-190.854706
 20
-112.842484
 11
-183.854706
 21
-112.842484
  0
LINE
  8
0
 10
-183.354736
 20
-113.342484
 11
-183.354736
 21
-114.842484
  0
LINE
  8
0
 10
-191.354736
 20
-113.342484
 11
-191.354736
 21
-114.842484
  0
LINE
  8
0
 10
-183.355011
 20
-113.342789
 11
-183.855026
 21
-112.842781
  0
LINE
  8
0
 10
-190.854568
 20
-112.842598
 11
-191.354584
 21
-113.342606
  0
LINE
  8
0
 10
-191.354630
 20
-114.842316
 11
-190.854630
 21
-115.342300
  0
LINE
  8
0
 10
-183.854660
 20
-115.342690
 11
-183.354675
 21
-114.842705
  0
LINE
  8
0
 10
-191.354706
 20
-113.342484
 11
-183.354706
 21
-113.342484
  0
LINE
  8
0
 10
-191.354706
 20
-114.842484
 11
-183.354706
 21
-114.842484
  0
LINE
  8
0
 10
-184.854736
 20
-115.342484
 11
-184.854736
 21
-116.142471
  0
LINE
  8
0
 10
-189.854736
 20
-115.342484
 11
-189.854736
 21
-116.142471
  0
LINE
  8
0
 10
-188.854736
 20
-107.642471
 11
-188.854736
 21
-112.842484
  0
LINE
  8
0
 10
-185.854736
 20
-107.642471
 11
-185.854736
 21
-112.842484
  0
LINE
  8
0
 62
     2
 10
-186.125244
 20
-107.642471
 11
-186.125244
 21
-112.842484
  0
LINE
  8
0
 62
     2
 10
-188.584229
 20
-107.642471
 11
-188.584229
 21
-112.842484
  0
LINE
  8
0
 10
-184.104736
 20
-129.142502
 11
-184.104736
 21
-130.642502
  0
LINE
  8
0
 10
-190.604736
 20
-129.142502
 11
-190.604736
 21
-130.642502
  0
LINE
  8
0
 10
-183.454742
 20
-130.642502
 11
-183.454742
 21
-131.242477
  0
LINE
  8
0
 10
-191.254730
 20
-130.642502
 11
-191.254730
 21
-131.242477
  0
LINE
  8
0
 10
-192.254700
 20
-129.142471
 11
-182.454712
 21
-129.142471
  0
LINE
  8
0
 10
-183.354736
 20
-116.142471
 11
-183.354736
 21
-120.142502
  0
LINE
  8
0
 10
-191.354736
 20
-116.142471
 11
-191.354736
 21
-120.142502
  0
LINE
  8
0
 10
-187.354736
 20
-116.499741
 11
-187.354736
 21
-119.142441
  0
LINE
  8
0
 10
-192.254730
 20
-120.142471
 11
-182.454712
 21
-120.142471
  0
LINE
  8
0
 10
-182.454742
 20
-120.142471
 11
-182.454742
 21
-129.142502
  0
LINE
  8
0
 10
-192.254730
 20
-120.142471
 11
-192.254730
 21
-129.142502
  0
LINE
  8
0
 10
-191.854736
 20
-131.242477
 11
-182.854736
 21
-131.242477
  0
LINE
  8
0
 10
-98.354767
 20
-177.742630
 11
-98.354767
 21
-189.742630
  0
LINE
  8
0
 10
-98.354767
 20
-177.742630
 11
-96.854767
 21
-177.742630
  0
LINE
  8
0
 10
-98.354767
 20
-189.742630
 11
-96.854767
 21
-189.742630
  0
LINE
  8
0
 10
-105.854744
 20
-157.792618
 11
-107.104782
 21
-158.514328
  0
LINE
  8
0
 10
-105.854797
 20
-160.692673
 11
-107.104729
 21
-159.971024
  0
LINE
  8
0
 10
-107.104767
 20
-158.514328
 11
-107.104767
 21
-159.970963
  0
LINE
  8
0
 10
-105.854881
 20
-157.792969
 11
-104.604897
 21
-158.514648
  0
LINE
  8
0
 10
-104.604767
 20
-158.514328
 11
-104.604767
 21
-159.970963
  0
LINE
  8
0
 10
-105.854706
 20
-160.692596
 11
-104.604774
 21
-159.970947
  0
LINE
  8
0
 10
-174.854767
 20
-109.242630
 11
-174.854767
 21
-209.242599
  0
LINE
  8
0
 10
-171.854767
 20
-126.242630
 11
-171.854767
 21
-192.242630
  0
LINE
  8
0
 10
-172.854767
 20
-126.242630
 11
-172.854767
 21
-192.242630
  0
LINE
  8
0
 10
-96.854767
 20
-126.742630
 11
-96.854767
 21
-191.742630
  0
LINE
  8
0
 10
-173.854767
 20
-150.242630
 11
-173.854767
 21
-168.242630
  0
LINE
  8
0
 10
-97.854767
 20
-150.242630
 11
-97.854767
 21
-168.242630
  0
LINE
  8
0
 10
-184.844421
 20
-177.992691
 11
-180.854767
 21
-177.992691
  0
LINE
  8
0
 10
-184.844421
 20
-189.492691
 11
-180.854767
 21
-189.492691
  0
LINE
  8
0
 10
-185.854813
 20
-179.742615
 11
-184.844452
 21
-177.992615
  0
LINE
  8
0
 10
-185.854919
 20
-187.742798
 11
-184.844559
 21
-189.492783
  0
LINE
  8
0
 10
-185.854767
 20
-179.742630
 11
-185.854767
 21
-187.742630
  0
LINE
  8
0
 10
-199.854797
 20
-180.742691
 11
-200.854782
 21
-181.742676
  0
LINE
  8
0
 10
-200.854645
 20
-185.742477
 11
-199.854645
 21
-186.742477
  0
LINE
  8
0
 10
-199.854767
 20
-186.742691
 11
-185.854767
 21
-186.742691
  0
LINE
  8
0
 10
-199.854767
 20
-180.742691
 11
-185.854767
 21
-180.742691
  0
LINE
  8
0
 10
-200.854767
 20
-181.742630
 11
-200.854767
 21
-185.742630
  0
LINE
  8
0
 10
-199.854767
 20
-180.742630
 11
-199.854767
 21
-186.742630
  0
LINE
  8
0
 62
     2
 10
-200.854767
 20
-181.742691
 11
-185.854767
 21
-181.742691
  0
LINE
  8
0
 62
     2
 10
-200.854767
 20
-185.742691
 11
-185.854767
 21
-185.742691
  0
LINE
  8
0
 10
-185.362762
 20
-186.592697
 11
-180.854767
 21
-186.592697
  0
LINE
  8
0
 10
-185.362762
 20
-180.892685
 11
-180.854767
 21
-180.892685
  0
LINE
  8
0
 10
-97.354767
 20
-131.742538
 11
-97.354767
 21
-137.742630
  0
LINE
  8
0
 10
-97.354767
 20
-137.742630
 11
-96.854767
 21
-137.742630
  0
LINE
  8
0
 10
-97.354767
 20
-131.742630
 11
-96.854767
 21
-131.742630
  0
LINE
  8
0
 10
-96.854767
 20
-191.742630
 11
-90.854767
 21
-191.742630
  0
LINE
  8
0
 10
-96.854767
 20
-126.742630
 11
-85.854767
 21
-126.742630
  0
LINE
  8
0
 10
-80.454803
 20
-210.842758
 11
-88.254791
 21
-210.842758
  0
LINE
  8
0
 10
-88.354767
 20
-210.842758
 11
-88.354767
 21
-209.242599
  0
LINE
  8
0
 10
-80.354767
 20
-210.842758
 11
-80.354767
 21
-209.242599
  0
LINE
  8
0
 10
-180.854736
 20
-209.242599
 11
271.145172
 21
-209.242599
  0
LINE
  8
0
 10
-174.854767
 20
-197.042648
 11
265.145203
 21
-197.042648
  0
LINE
  8
0
 10
-174.854767
 20
-192.242630
 11
265.145203
 21
-192.242630
  0
LINE
  8
0
 10
-128.854767
 20
-126.242630
 11
-128.854767
 21
-192.242630
  0
LINE
  8
0
 10
-90.854767
 20
-173.742630
 11
-90.854767
 21
-191.742630
  0
LINE
  8
0
 10
-90.854767
 20
-173.742630
 11
-85.854767
 21
-173.742630
  0
LINE
  8
0
 10
-174.854767
 20
-186.742630
 11
-174.354767
 21
-186.742630
  0
LINE
  8
0
 10
-174.854767
 20
-180.742630
 11
-174.354767
 21
-180.742630
  0
LINE
  8
0
 10
-80.354767
 20
-192.242630
 11
-80.354767
 21
-187.842789
  0
LINE
  8
0
 10
-88.354767
 20
-192.242630
 11
-88.354767
 21
-187.842789
  0
LINE
  8
0
 10
-173.354767
 20
-130.742630
 11
-172.854767
 21
-130.742630
  0
LINE
  8
0
 10
-173.354767
 20
-138.742630
 11
-172.854767
 21
-138.742630
  0
LINE
  8
0
 10
-93.354767
 20
-167.047318
 11
-93.354767
 21
-169.437943
  0
LINE
  8
0
 10
-89.354767
 20
-167.047318
 11
-89.354767
 21
-169.437943
  0
LINE
  8
0
 10
-93.354782
 20
-167.047348
 11
-91.354797
 21
-165.892654
  0
LINE
  8
0
 10
-91.354851
 20
-170.592636
 11
-89.354858
 21
-169.437943
  0
LINE
  8
0
 10
-91.354698
 20
-165.892502
 11
-89.354713
 21
-167.047195
  0
LINE
  8
0
 10
-93.354736
 20
-169.437820
 11
-91.354752
 21
-170.592514
  0
LINE
  8
0
 10
-91.354706
 20
-147.892487
 11
-89.354721
 21
-149.047180
  0
LINE
  8
0
 10
-89.354767
 20
-149.047318
 11
-89.354767
 21
-151.437943
  0
LINE
  8
0
 10
-93.354752
 20
-149.047333
 11
-91.354767
 21
-147.892639
  0
LINE
  8
0
 10
-93.354767
 20
-149.047318
 11
-93.354767
 21
-151.437943
  0
LINE
  8
0
 10
-93.354683
 20
-151.437927
 11
-91.354691
 21
-152.592621
  0
LINE
  8
0
 10
-91.354790
 20
-152.592651
 11
-89.354774
 21
-151.437943
  0
LINE
  8
0
 10
-171.854767
 20
-156.242630
 11
-163.854767
 21
-156.242630
  0
LINE
  8
0
 10
-171.854767
 20
-162.242630
 11
-163.854767
 21
-162.242630
  0
LINE
  8
0
 10
-84.854767
 20
-140.492538
 11
-84.854767
 21
-178.742599
  0
LINE
  8
0
 10
-79.854767
 20
-181.242630
 11
26.145233
 21
-181.242630
  0
LINE
  8
0
 10
-171.854767
 20
-127.242630
 11
-163.854767
 21
-127.242630
  0
LINE
  8
0
 10
-171.854767
 20
-191.242630
 11
-163.854767
 21
-191.242630
  0
LINE
  8
0
 10
265.145233
 20
-200.442612
 11
91.428085
 21
-200.442612
  0
LINE
  8
0
 10
265.145203
 20
-118.042618
 11
91.428101
 21
-118.042618
  0
LINE
  8
0
 10
219.145233
 20
-168.242599
 11
188.145233
 21
-168.242599
  0
LINE
  8
0
 10
219.145233
 20
-150.242599
 11
188.145233
 21
-150.242599
  0
LINE
  8
0
 10
271.145172
 20
-209.242661
 11
271.145172
 21
-109.242661
  0
LINE
  8
0
 10
264.145233
 20
-168.242599
 11
263.145233
 21
-168.242599
  0
LINE
  8
0
 10
264.145233
 20
-150.242599
 11
263.145233
 21
-150.242599
  0
LINE
  8
0
  6
CENTER
 62
     2
 10
87.645203
 20
-206.012146
 11
87.645203
 21
-197.815414
  0
LINE
  8
0
  6
CENTER
 62
     2
 10
92.817444
 20
-116.742630
 11
82.044594
 21
-116.742630
  0
LINE
  8
0
  6
CENTER
 62
     2
 10
87.645203
 20
-120.531937
 11
87.645203
 21
-111.643295
  0
LINE
  8
0
  6
CENTER
 62
     2
 10
93.335052
 20
-201.742599
 11
81.657349
 21
-201.742599
  0
LINE
  8
0
 10
173.155548
 20
-177.992691
 11
177.145203
 21
-177.992691
  0
LINE
  8
0
 10
173.155548
 20
-189.492691
 11
177.145203
 21
-189.492691
  0
LINE
  8
0
 10
172.145294
 20
-179.742645
 11
173.155655
 21
-177.992645
  0
LINE
  8
0
 10
172.144989
 20
-187.742828
 11
173.155334
 21
-189.492828
  0
LINE
  8
0
 10
172.145203
 20
-179.742661
 11
172.145203
 21
-187.742661
  0
LINE
  8
0
 10
158.145233
 20
-180.742554
 11
157.145248
 21
-181.742523
  0
LINE
  8
0
 10
157.145142
 20
-185.742584
 11
158.145142
 21
-186.742584
  0
LINE
  8
0
 10
158.145203
 20
-186.742691
 11
172.145203
 21
-186.742691
  0
LINE
  8
0
 10
158.145203
 20
-180.742691
 11
172.145203
 21
-180.742691
  0
LINE
  8
0
 10
157.145203
 20
-181.742630
 11
157.145203
 21
-185.742630
  0
LINE
  8
0
 10
158.145203
 20
-180.742630
 11
158.145203
 21
-186.742630
  0
LINE
  8
0
 62
     2
 10
157.145203
 20
-181.742691
 11
172.145203
 21
-181.742691
  0
LINE
  8
0
 62
     2
 10
157.145203
 20
-185.742691
 11
172.145203
 21
-185.742691
  0
LINE
  8
0
 10
234.395203
 20
-170.470963
 11
234.395203
 21
-169.014359
  0
LINE
  8
0
 10
235.645157
 20
-171.192581
 11
236.895142
 21
-170.470901
  0
LINE
  8
0
 10
234.395233
 20
-170.471039
 11
235.645218
 21
-171.192719
  0
LINE
  8
0
 10
236.895203
 20
-170.470963
 11
236.895203
 21
-169.014359
  0
LINE
  8
0
 10
235.645187
 20
-168.292709
 11
236.895172
 21
-169.014389
  0
LINE
  8
0
 10
234.395279
 20
-169.014481
 11
235.645279
 21
-168.292786
  0
LINE
  8
0
 10
246.395203
 20
-148.014328
 11
246.395203
 21
-149.470963
  0
LINE
  8
0
 10
246.395248
 20
-149.471008
 11
247.645294
 21
-150.192703
  0
LINE
  8
0
 10
247.645233
 20
-147.292648
 11
248.895248
 21
-148.014343
  0
LINE
  8
0
 10
247.645279
 20
-150.192581
 11
248.895264
 21
-149.470901
  0
LINE
  8
0
 10
248.895203
 20
-148.014359
 11
248.895203
 21
-149.470963
  0
LINE
  8
0
 10
246.395203
 20
-148.014343
 11
247.645187
 21
-147.292664
  0
LINE
  8
0
 10
235.645218
 20
-147.292679
 11
236.895233
 21
-148.014374
  0
LINE
  8
0
 10
236.895203
 20
-148.014359
 11
236.895203
 21
-149.470963
  0
LINE
  8
0
 10
235.645187
 20
-150.192566
 11
236.895203
 21
-149.470871
  0
LINE
  8
0
 10
234.395203
 20
-148.014328
 11
234.395203
 21
-149.470963
  0
LINE
  8
0
 10
234.395126
 20
-149.470993
 11
235.645111
 21
-150.192673
  0
LINE
  8
0
 10
234.395233
 20
-148.014313
 11
235.645218
 21
-147.292633
  0
LINE
  8
0
 10
247.645248
 20
-171.192673
 11
248.895264
 21
-170.470978
  0
LINE
  8
0
 10
248.895203
 20
-170.470963
 11
248.895203
 21
-169.014359
  0
LINE
  8
0
 10
247.645187
 20
-168.292725
 11
248.895172
 21
-169.014404
  0
LINE
  8
0
 10
246.395248
 20
-169.014465
 11
247.645264
 21
-168.292770
  0
LINE
  8
0
 10
246.395203
 20
-170.470963
 11
246.395203
 21
-169.014359
  0
LINE
  8
0
 10
246.395218
 20
-170.470947
 11
247.645203
 21
-171.192627
  0
LINE
  8
0
 10
172.637207
 20
-186.592697
 11
177.145203
 21
-186.592697
  0
LINE
  8
0
 10
172.637207
 20
-180.892685
 11
177.145203
 21
-180.892685
  0
LINE
  8
0
 10
271.145203
 20
-117.742599
 11
265.145233
 21
-117.742599
  0
LINE
  8
0
 10
271.145203
 20
-200.742599
 11
265.145233
 21
-200.742599
  0
LINE
  8
0
 10
217.645203
 20
-186.492661
 11
217.645203
 21
-180.992661
  0
LINE
  8
0
 10
179.945251
 20
-143.242661
 11
179.945251
 21
-126.242661
  0
LINE
  8
0
 10
179.945221
 20
-139.742661
 11
170.645233
 21
-139.742661
  0
LINE
  8
0
 10
181.145233
 20
-143.242661
 11
179.945221
 21
-143.242661
  0
LINE
  8
0
 10
181.145233
 20
-126.242661
 11
179.945221
 21
-126.242661
  0
LINE
  8
0
 10
170.145233
 20
-131.242508
 11
170.145233
 21
-139.242477
  0
LINE
  8
0
 10
170.645233
 20
-139.742477
 11
170.645233
 21
-131.242477
  0
LINE
  8
0
 10
170.645340
 20
-139.742691
 11
170.145187
 21
-139.242523
  0
LINE
  8
0
 10
179.945221
 20
-129.742447
 11
179.145233
 21
-129.742447
  0
LINE
  8
0
 10
179.145264
 20
-129.742477
 11
179.145264
 21
-131.242508
  0
LINE
  8
0
 10
172.645264
 20
-80.642448
 11
176.645264
 21
-80.642448
  0
LINE
  8
0
 10
177.145233
 20
-81.142479
 11
177.145233
 21
-84.142479
  0
LINE
  8
0
 10
172.145233
 20
-81.142479
 11
172.145233
 21
-84.142479
  0
LINE
  8
0
 10
177.145264
 20
-81.142456
 11
176.645248
 21
-80.642448
  0
LINE
  8
0
 10
172.645279
 20
-80.642517
 11
172.145279
 21
-81.142502
  0
LINE
  8
0
 10
172.645264
 20
-84.642448
 11
176.645264
 21
-84.642448
  0
LINE
  8
0
 10
172.145187
 20
-84.142593
 11
172.645203
 21
-84.642601
  0
LINE
  8
0
 10
176.645309
 20
-84.642464
 11
177.145309
 21
-84.142471
  0
LINE
  8
0
 10
172.145264
 20
-81.142448
 11
177.145264
 21
-81.142448
  0
LINE
  8
0
 10
172.145264
 20
-84.142448
 11
177.145264
 21
-84.142448
  0
LINE
  8
0
 10
170.745270
 20
-130.642471
 11
178.545258
 21
-130.642471
  0
LINE
  8
0
 10
170.645264
 20
-93.142441
 11
178.645264
 21
-93.142441
  0
LINE
  8
0
 10
171.145264
 20
-92.342453
 11
178.145264
 21
-92.342453
  0
LINE
  8
0
 10
171.145264
 20
-89.842453
 11
178.145264
 21
-89.842453
  0
LINE
  8
0
 10
178.645233
 20
-90.342484
 11
178.645233
 21
-91.842484
  0
LINE
  8
0
 10
170.645233
 20
-90.342484
 11
170.645233
 21
-91.842484
  0
LINE
  8
0
 10
178.645218
 20
-90.342499
 11
178.145203
 21
-89.842484
  0
LINE
  8
0
 10
171.145355
 20
-89.842476
 11
170.645325
 21
-90.342506
  0
LINE
  8
0
 10
170.645203
 20
-91.842575
 11
171.145187
 21
-92.342567
  0
LINE
  8
0
 10
178.145218
 20
-92.342522
 11
178.645203
 21
-91.842529
  0
LINE
  8
0
 10
170.645264
 20
-90.342453
 11
178.645264
 21
-90.342453
  0
LINE
  8
0
 10
170.645264
 20
-91.842453
 11
178.645264
 21
-91.842453
  0
LINE
  8
0
 10
177.145233
 20
-92.342484
 11
177.145233
 21
-93.142471
  0
LINE
  8
0
 10
172.145233
 20
-92.342484
 11
172.145233
 21
-93.142471
  0
LINE
  8
0
 10
173.145233
 20
-84.642479
 11
173.145233
 21
-89.842484
  0
LINE
  8
0
 10
176.145233
 20
-84.642479
 11
176.145233
 21
-89.842484
  0
LINE
  8
0
 62
     2
 10
175.874725
 20
-84.642479
 11
175.874725
 21
-89.842484
  0
LINE
  8
0
 62
     2
 10
173.415741
 20
-84.642479
 11
173.415741
 21
-89.842484
  0
LINE
  8
0
 10
177.895233
 20
-106.142502
 11
177.895233
 21
-107.642502
  0
LINE
  8
0
 10
171.395233
 20
-106.142502
 11
171.395233
 21
-107.642502
  0
LINE
  8
0
 10
178.545227
 20
-130.642502
 11
178.545227
 21
-131.242508
  0
LINE
  8
0
 10
170.745239
 20
-130.642502
 11
170.745239
 21
-131.242508
  0
LINE
  8
0
 10
169.745270
 20
-106.142441
 11
179.545258
 21
-106.142441
  0
LINE
  8
0
 10
178.645233
 20
-93.142471
 11
178.645233
 21
-97.142502
  0
LINE
  8
0
 10
170.645233
 20
-93.142471
 11
170.645233
 21
-97.142502
  0
LINE
  8
0
 10
174.645233
 20
-93.499741
 11
174.645233
 21
-96.142441
  0
LINE
  8
0
 10
169.745239
 20
-97.142441
 11
179.545258
 21
-97.142441
  0
LINE
  8
0
 10
179.545227
 20
-97.142471
 11
179.545227
 21
-106.142502
  0
LINE
  8
0
 10
169.745239
 20
-97.142471
 11
169.745239
 21
-106.142502
  0
LINE
  8
0
 10
170.145233
 20
-131.242477
 11
179.145233
 21
-131.242477
  0
LINE
  8
0
 10
254.145203
 20
-192.242630
 11
254.145203
 21
-126.242630
  0
LINE
  8
0
 10
219.145203
 20
-130.742599
 11
188.645233
 21
-130.742599
  0
LINE
  8
0
 10
219.145203
 20
-138.742599
 11
188.645233
 21
-138.742599
  0
LINE
  8
0
 10
263.645203
 20
-189.742661
 11
263.645203
 21
-177.742661
  0
LINE
  8
0
 10
265.145233
 20
-189.742599
 11
263.645233
 21
-189.742599
  0
LINE
  8
0
 10
265.145233
 20
-177.742599
 11
263.645233
 21
-177.742599
  0
LINE
  8
0
 10
179.945251
 20
-139.442642
 11
181.145233
 21
-139.442642
  0
LINE
  8
0
 10
179.945251
 20
-130.042648
 11
181.145233
 21
-130.042648
  0
LINE
  8
0
 10
219.145233
 20
-186.492599
 11
217.645233
 21
-186.492599
  0
LINE
  8
0
 10
219.145233
 20
-180.992599
 11
217.645233
 21
-180.992599
  0
LINE
  8
0
 10
264.645233
 20
-131.992599
 11
263.145233
 21
-131.992599
  0
LINE
  8
0
 10
264.645233
 20
-137.492599
 11
263.145233
 21
-137.492599
  0
LINE
  8
0
 10
264.645203
 20
-137.742661
 11
264.645203
 21
-131.742661
  0
LINE
  8
0
 10
177.145203
 20
-191.742661
 11
177.145203
 21
-144.742661
  0
LINE
  8
0
 10
272.345154
 20
-175.242661
 11
272.345154
 21
-192.242661
  0
LINE
  8
0
 10
272.345215
 20
-178.742569
 11
281.645203
 21
-178.742569
  0
LINE
  8
0
 10
271.145203
 20
-175.242569
 11
272.345215
 21
-175.242569
  0
LINE
  8
0
 10
271.145203
 20
-192.242569
 11
272.345215
 21
-192.242569
  0
LINE
  8
0
 10
282.145172
 20
-187.242813
 11
282.145172
 21
-179.242844
  0
LINE
  8
0
 10
273.745178
 20
-187.242752
 11
281.545166
 21
-187.242752
  0
LINE
  8
0
 10
281.645172
 20
-178.742844
 11
281.645172
 21
-187.242844
  0
LINE
  8
0
 10
281.645050
 20
-178.742676
 11
282.145203
 21
-179.242828
  0
LINE
  8
0
 10
272.345215
 20
-188.742783
 11
273.145203
 21
-188.742783
  0
LINE
  8
0
 10
273.145142
 20
-188.742813
 11
273.145142
 21
-187.242813
  0
LINE
  8
0
 10
279.645172
 20
-214.842758
 11
275.645172
 21
-214.842758
  0
LINE
  8
0
 10
275.145172
 20
-214.342819
 11
275.145172
 21
-211.342819
  0
LINE
  8
0
 10
280.145172
 20
-214.342819
 11
280.145172
 21
-211.342819
  0
LINE
  8
0
 10
275.145142
 20
-214.342834
 11
275.645172
 21
-214.842880
  0
LINE
  8
0
 10
279.644989
 20
-214.842606
 11
280.144989
 21
-214.342606
  0
LINE
  8
0
 10
279.645172
 20
-210.842758
 11
275.645172
 21
-210.842758
  0
LINE
  8
0
 10
280.145233
 20
-211.342682
 11
279.645264
 21
-210.842697
  0
LINE
  8
0
 10
275.644928
 20
-210.842697
 11
275.144928
 21
-211.342697
  0
LINE
  8
0
 10
280.145172
 20
-214.342758
 11
275.145172
 21
-214.342758
  0
LINE
  8
0
 10
280.145172
 20
-211.342758
 11
275.145172
 21
-211.342758
  0
LINE
  8
0
 10
281.545166
 20
-187.842758
 11
273.745178
 21
-187.842758
  0
LINE
  8
0
 10
281.645172
 20
-202.342789
 11
273.645172
 21
-202.342789
  0
LINE
  8
0
 10
281.145172
 20
-203.142776
 11
274.145172
 21
-203.142776
  0
LINE
  8
0
 10
281.145172
 20
-205.642746
 11
274.145172
 21
-205.642746
  0
LINE
  8
0
 10
273.645172
 20
-205.142807
 11
273.645172
 21
-203.642807
  0
LINE
  8
0
 10
281.645172
 20
-205.142807
 11
281.645172
 21
-203.642807
  0
LINE
  8
0
 10
273.645203
 20
-205.142761
 11
274.145203
 21
-205.642761
  0
LINE
  8
0
 10
281.144958
 20
-205.642670
 11
281.644958
 21
-205.142670
  0
LINE
  8
0
 10
281.645233
 20
-203.642776
 11
281.145233
 21
-203.142792
  0
LINE
  8
0
 10
274.145081
 20
-203.142654
 11
273.645081
 21
-203.642654
  0
LINE
  8
0
 10
281.645172
 20
-205.142746
 11
273.645172
 21
-205.142746
  0
LINE
  8
0
 10
281.645172
 20
-203.642776
 11
273.645172
 21
-203.642776
  0
LINE
  8
0
 10
275.145172
 20
-203.142807
 11
275.145172
 21
-202.342819
  0
LINE
  8
0
 10
280.145172
 20
-203.142807
 11
280.145172
 21
-202.342819
  0
LINE
  8
0
 10
279.145172
 20
-210.842819
 11
279.145172
 21
-205.642807
  0
LINE
  8
0
 10
276.145172
 20
-210.842819
 11
276.145172
 21
-205.642807
  0
LINE
  8
0
 62
     2
 10
276.415680
 20
-210.842819
 11
276.415680
 21
-205.642807
  0
LINE
  8
0
 62
     2
 10
278.874664
 20
-210.842819
 11
278.874664
 21
-205.642807
  0
LINE
  8
0
 10
274.395172
 20
-189.342789
 11
274.395172
 21
-187.842789
  0
LINE
  8
0
 10
280.895172
 20
-189.342789
 11
280.895172
 21
-187.842789
  0
LINE
  8
0
 10
273.745178
 20
-187.842789
 11
273.745178
 21
-187.242813
  0
LINE
  8
0
 10
281.545166
 20
-187.842789
 11
281.545166
 21
-187.242813
  0
LINE
  8
0
 10
282.545135
 20
-189.342789
 11
272.745178
 21
-189.342789
  0
LINE
  8
0
 10
273.645172
 20
-202.342819
 11
273.645172
 21
-198.342789
  0
LINE
  8
0
 10
281.645172
 20
-202.342819
 11
281.645172
 21
-198.342789
  0
LINE
  8
0
 10
277.645172
 20
-201.985550
 11
277.645172
 21
-199.342850
  0
LINE
  8
0
 10
282.545197
 20
-198.342789
 11
272.745178
 21
-198.342789
  0
LINE
  8
0
 10
272.745178
 20
-198.342819
 11
272.745178
 21
-189.342789
  0
LINE
  8
0
 10
282.545166
 20
-198.342819
 11
282.545166
 21
-189.342789
  0
LINE
  8
0
 10
282.145203
 20
-187.242752
 11
273.145203
 21
-187.242752
  0
LINE
  8
0
 10
272.345184
 20
-179.042618
 11
271.145203
 21
-179.042618
  0
LINE
  8
0
 10
272.345184
 20
-188.442612
 11
271.145203
 21
-188.442612
  0
LINE
  8
0
 10
188.645203
 20
-140.742661
 11
188.645203
 21
-128.742661
  0
LINE
  8
0
 10
188.645233
 20
-140.742599
 11
187.145233
 21
-140.742599
  0
LINE
  8
0
 10
188.645233
 20
-128.742599
 11
187.145233
 21
-128.742599
  0
LINE
  8
0
 10
196.145233
 20
-160.692734
 11
197.395248
 21
-159.971054
  0
LINE
  8
0
 10
196.145172
 20
-157.792831
 11
197.395096
 21
-158.514481
  0
LINE
  8
0
 10
197.395203
 20
-159.970963
 11
197.395203
 21
-158.514359
  0
LINE
  8
0
 10
196.145157
 20
-160.692749
 11
194.895172
 21
-159.971069
  0
LINE
  8
0
 10
194.895203
 20
-159.970963
 11
194.895203
 21
-158.514359
  0
LINE
  8
0
 10
196.145187
 20
-157.792725
 11
194.895264
 21
-158.514374
  0
LINE
  8
0
 10
262.145203
 20
-192.242630
 11
262.145203
 21
-126.242630
  0
LINE
  8
0
 10
263.145203
 20
-192.242630
 11
263.145203
 21
-126.242661
  0
LINE
  8
0
 10
187.145203
 20
-191.742661
 11
187.145203
 21
-126.742661
  0
LINE
  8
0
 10
264.145203
 20
-168.242661
 11
264.145203
 21
-150.242661
  0
LINE
  8
0
 10
188.145203
 20
-168.242661
 11
188.145203
 21
-150.242661
  0
LINE
  8
0
 10
275.134888
 20
-140.492569
 11
271.145233
 21
-140.492569
  0
LINE
  8
0
 10
275.134888
 20
-128.992569
 11
271.145233
 21
-128.992569
  0
LINE
  8
0
 10
276.145264
 20
-138.742722
 11
275.134918
 21
-140.492722
  0
LINE
  8
0
 10
276.145325
 20
-130.742645
 11
275.134979
 21
-128.992645
  0
LINE
  8
0
 10
276.145203
 20
-138.742661
 11
276.145203
 21
-130.742661
  0
LINE
  8
0
 10
290.145172
 20
-137.742538
 11
291.145142
 21
-136.742554
  0
LINE
  8
0
 10
291.145294
 20
-132.742661
 11
290.145264
 21
-131.742645
  0
LINE
  8
0
 10
290.145233
 20
-131.742569
 11
276.145233
 21
-131.742569
  0
LINE
  8
0
 10
290.145233
 20
-137.742569
 11
276.145233
 21
-137.742569
  0
LINE
  8
0
 10
291.145203
 20
-136.742661
 11
291.145203
 21
-132.742661
  0
LINE
  8
0
 10
290.145203
 20
-137.742661
 11
290.145203
 21
-131.742661
  0
LINE
  8
0
 62
     2
 10
291.145233
 20
-136.742569
 11
276.145233
 21
-136.742569
  0
LINE
  8
0
 62
     2
 10
291.145233
 20
-132.742569
 11
276.145233
 21
-132.742569
  0
LINE
  8
0
 10
275.653229
 20
-131.892563
 11
271.145233
 21
-131.892563
  0
LINE
  8
0
 10
275.653229
 20
-137.592545
 11
271.145233
 21
-137.592545
  0
LINE
  8
0
 10
187.645203
 20
-186.742752
 11
187.645203
 21
-180.742661
  0
LINE
  8
0
 10
187.645233
 20
-180.742599
 11
187.145233
 21
-180.742599
  0
LINE
  8
0
 10
187.645233
 20
-186.742599
 11
187.145233
 21
-186.742599
  0
LINE
  8
0
 10
187.145233
 20
-126.742599
 11
181.145233
 21
-126.742599
  0
LINE
  8
0
 10
187.145233
 20
-191.742599
 11
177.145233
 21
-191.742599
  0
LINE
  8
0
 10
170.745270
 20
-107.642441
 11
178.545258
 21
-107.642441
  0
LINE
  8
0
 10
178.645233
 20
-107.642441
 11
178.645233
 21
-109.242630
  0
LINE
  8
0
 10
170.645233
 20
-107.642441
 11
170.645233
 21
-109.242630
  0
LINE
  8
0
 10
219.145203
 20
-192.242661
 11
219.145203
 21
-126.242630
  0
LINE
  8
0
 10
181.145203
 20
-144.742661
 11
181.145203
 21
-126.742661
  0
LINE
  8
0
 10
181.145203
 20
-144.742599
 11
177.145233
 21
-144.742599
  0
LINE
  8
0
 10
265.145233
 20
-131.742599
 11
264.645233
 21
-131.742599
  0
LINE
  8
0
 10
265.145233
 20
-137.742599
 11
264.645233
 21
-137.742599
  0
LINE
  8
0
  6
CENTER
 62
     2
 10
2.645233
 20
-110.935684
 11
2.645233
 21
-120.297745
  0
LINE
  8
0
  6
CENTER
 62
     2
 10
-2.498840
 20
-201.742630
 11
7.571426
 21
-201.742630
  0
LINE
  8
0
  6
CENTER
 62
     2
 10
2.645233
 20
-197.581223
 11
2.645233
 21
-206.841965
  0
LINE
  8
0
  6
CENTER
 62
     2
 10
-3.044586
 20
-116.742630
 11
8.633118
 21
-116.742630
  0
LINE
  8
0
 10
-66.854744
 20
-137.742676
 11
-65.854767
 21
-136.742691
  0
LINE
  8
0
 10
-65.854645
 20
-132.742599
 11
-66.854645
 21
-131.742584
  0
LINE
  8
0
 10
-65.854767
 20
-136.742630
 11
-65.854767
 21
-132.742630
  0
LINE
  8
0
 10
-66.854767
 20
-137.742630
 11
-66.854767
 21
-131.742630
  0
LINE
  8
0
 10
6.428101
 20
-200.442642
 11
83.862366
 21
-200.442642
  0
LINE
  8
0
  6
CENTER
 62
     2
 10
45.145233
 20
-93.193665
 11
45.145233
 21
-227.609100
  0
LINE
  8
0
 10
178.645233
 20
-126.242630
 11
178.645233
 21
-130.642502
  0
LINE
  8
0
 10
170.645233
 20
-126.242630
 11
170.645233
 21
-130.642502
  0
LINE
  8
0
 10
263.145203
 20
-187.742630
 11
263.645203
 21
-187.742630
  0
LINE
  8
0
 10
263.145203
 20
-179.742630
 11
263.645203
 21
-179.742630
  0
LINE
  8
0
 10
182.145264
 20
-147.892593
 11
184.145248
 21
-149.047287
  0
LINE
  8
0
 10
184.145233
 20
-149.047348
 11
184.145233
 21
-151.437973
  0
LINE
  8
0
 10
180.145203
 20
-149.047287
 11
182.145203
 21
-147.892578
  0
LINE
  8
0
 10
180.145233
 20
-149.047348
 11
180.145233
 21
-151.437943
  0
LINE
  8
0
 10
180.145233
 20
-151.437912
 11
182.145218
 21
-152.592606
  0
LINE
  8
0
 10
182.145172
 20
-152.592606
 11
184.145187
 21
-151.437897
  0
LINE
  8
0
 10
182.145264
 20
-165.892593
 11
184.145248
 21
-167.047287
  0
LINE
  8
0
 10
184.145233
 20
-167.047348
 11
184.145233
 21
-169.437973
  0
LINE
  8
0
 10
180.145218
 20
-167.047287
 11
182.145203
 21
-165.892593
  0
LINE
  8
0
 10
180.145233
 20
-167.047348
 11
180.145233
 21
-169.437943
  0
LINE
  8
0
 10
180.145218
 20
-169.437881
 11
182.145248
 21
-170.592606
  0
LINE
  8
0
 10
182.145172
 20
-170.592636
 11
184.145187
 21
-169.437927
  0
LINE
  8
0
 10
254.145203
 20
-156.242630
 11
262.145203
 21
-156.242630
  0
LINE
  8
0
 10
254.145203
 20
-162.242630
 11
262.145203
 21
-162.242630
  0
LINE
  8
0
 10
83.862366
 20
-118.042618
 11
6.428101
 21
-118.042618
  0
LINE
  8
0
 10
175.145203
 20
-177.992691
 11
175.145203
 21
-139.742661
  0
LINE
  8
0
 10
265.145203
 20
-209.242599
 11
265.145203
 21
-109.242630
  0
LINE
  8
0
 10
254.145203
 20
-127.242630
 11
262.145203
 21
-127.242630
  0
LINE
  8
0
 10
254.145203
 20
-191.242630
 11
262.145203
 21
-191.242630
  0
LINE
  8
0
 10
30.145233
 20
-141.242630
 11
30.145233
 21
-177.242630
  0
LINE
  8
0
 10
60.145210
 20
-177.242630
 11
60.145210
 21
-141.242630
  0
LINE
  8
0
 10
64.145210
 20
-137.242630
 11
170.145233
 21
-137.242630
  0
LINE
  8
0
 10
64.145210
 20
-181.242630
 11
157.145203
 21
-181.242630
  0
LINE
  8
0
 10
-66.854767
 20
-137.242630
 11
26.145233
 21
-137.242630
  0
ARC
  8
0
 10
64.145210
 20
105.757370
 40
4.000000
 50
180.000000
 51
270.000000
  0
ARC
  8
0
 10
171.145203
 20
105.757370
 40
4.000000
 50
270.000000
 51
0.000000
  0
CIRCLE
  8
0
 10
-165.854767
 20
123.757370
 40
1.000000
  0
CIRCLE
  8
0
 10
-135.854767
 20
123.757370
 40
1.000000
  0
CIRCLE
  8
0
 10
-105.854767
 20
123.757370
 40
1.000000
  0
CIRCLE
  8
0
 62
     2
 10
-105.854767
 20
123.757370
 40
1.500000
  0
CIRCLE
  8
0
 62
     2
 10
-135.854767
 20
123.757370
 40
1.500000
  0
CIRCLE
  8
0
 62
     2
 10
-165.854767
 20
123.757370
 40
1.500000
  0
ARC
  8
0
 10
-184.263550
 20
152.257919
 40
1.591202
 50
180.000000
 51
226.308228
  0
ARC
  8
0
 10
-177.354736
 20
148.257370
 40
8.500002
 50
160.409531
 51
199.590363
  0
ARC
  8
0
 10
-184.265869
 20
144.257828
 40
1.588871
 50
133.655609
 51
180.015961
  0
ARC
  8
0
 10
-189.354706
 20
86.433945
 40
5.776714
 50
249.743866
 51
290.256165
  0
ARC
  8
0
 10
-185.354706
 20
86.433914
 40
5.776707
 50
249.743835
 51
290.256134
  0
CIRCLE
  8
0
 10
-187.354736
 20
88.657150
 40
5.000000
  0
CIRCLE
  8
0
 10
-187.354736
 20
88.657150
 40
2.000000
  0
ARC
  8
0
 10
-82.354797
 20
184.280823
 40
5.776714
 50
69.743858
 51
110.256142
  0
ARC
  8
0
 10
-86.354797
 20
184.280823
 40
5.776717
 50
69.743790
 51
110.256065
  0
CIRCLE
  8
0
 62
     2
 10
2.645233
 20
166.257370
 40
2.500000
  0
CIRCLE
  8
0
 62
     2
 10
87.645233
 20
166.257370
 40
2.500000
  0
CIRCLE
  8
0
 62
     2
 10
2.645233
 20
81.257370
 40
2.500000
  0
CIRCLE
  8
0
 62
     2
 10
87.645233
 20
81.257370
 40
2.500000
  0
CIRCLE
  8
0
 10
2.645233
 20
81.257370
 40
2.000000
  0
CIRCLE
  8
0
 10
87.645233
 20
81.257370
 40
2.000000
  0
CIRCLE
  8
0
 10
87.645233
 20
166.257370
 40
2.000000
  0
CIRCLE
  8
0
 10
2.645233
 20
166.257370
 40
2.000000
  0
ARC
  8
0
 10
45.145233
 20
165.157364
 40
3.000000
 50
180.000000
 51
0.000000
  0
CIRCLE
  8
0
 10
45.145233
 20
81.257370
 40
3.000000
  0
ARC
  8
0
 10
267.645233
 20
99.257370
 40
8.500002
 50
340.409546
 51
19.590317
  0
ARC
  8
0
 10
274.554047
 20
95.256821
 40
1.591217
 50
0.000000
 51
46.307831
  0
ARC
  8
0
 10
274.556366
 20
103.256912
 40
1.588865
 50
313.655792
 51
0.016232
  0
ARC
  8
0
 10
275.645203
 20
161.080826
 40
5.776714
 50
69.743858
 51
110.256142
  0
ARC
  8
0
 10
279.645203
 20
161.080826
 40
5.776714
 50
69.743858
 51
110.256142
  0
CIRCLE
  8
0
 10
277.645233
 20
158.857559
 40
2.000000
  0
CIRCLE
  8
0
 10
277.645233
 20
158.857559
 40
5.000000
  0
CIRCLE
  8
0
 62
     2
 10
256.145233
 20
123.757370
 40
1.500000
  0
CIRCLE
  8
0
 10
256.145233
 20
123.757370
 40
1.000000
  0
CIRCLE
  8
0
 10
226.145233
 20
123.757370
 40
1.000000
  0
CIRCLE
  8
0
 10
196.145233
 20
123.757370
 40
1.000000
  0
CIRCLE
  8
0
 62
     2
 10
196.145233
 20
123.757370
 40
1.500000
  0
CIRCLE
  8
0
 62
     2
 10
226.145233
 20
123.757370
 40
1.500000
  0
ARC
  8
0
 10
172.645264
 20
63.433952
 40
5.776711
 50
249.743851
 51
290.256165
  0
ARC
  8
0
 10
176.645264
 20
63.433922
 40
5.776712
 50
249.743698
 51
290.256134
  0
ARC
  8
0
 10
-80.854767
 20
141.757370
 40
4.000000
 50
90.000000
 51
180.000000
  0
ARC
  8
0
 10
26.145233
 20
141.757370
 40
4.000000
 50
0.000000
 51
89.999969
  0
ARC
  8
0
 10
26.145233
 20
105.757370
 40
4.000000
 50
270.000031
 51
0.000000
  0
ARC
  8
0
 10
-80.854767
 20
105.757370
 40
4.000000
 50
180.000000
 51
270.000000
  0
ARC
  8
0
 10
64.145210
 20
141.757370
 40
4.000000
 50
90.000000
 51
180.000000
  0
ARC
  8
0
 10
171.145203
 20
141.757370
 40
4.000000
 50
0.000000
 51
90.000000
  0
ARC
  8
0
 10
-315.854797
 20
63.433975
 40
5.776711
 50
249.743851
 51
290.256165
  0
ARC
  8
0
 62
     2
 10
-324.354767
 20
171.468094
 40
1.989282
 50
17.231588
 51
162.768417
  0
ARC
  8
0
 10
-315.854797
 20
184.080765
 40
5.776714
 50
69.743858
 51
110.256142
  0
ARC
  8
0
 10
-319.854797
 20
184.080795
 40
5.776714
 50
69.743858
 51
110.256142
  0
ARC
  8
0
 10
-334.354736
 20
171.757370
 40
2.000000
 50
90.000000
 51
180.000000
  0
ARC
  8
0
 10
-334.354767
 20
75.757370
 40
2.000000
 50
180.000000
 51
270.000000
  0
CIRCLE
  8
0
 10
-316.354767
 20
165.757370
 40
1.750000
  0
CIRCLE
  8
0
 10
-316.354767
 20
165.757370
 40
3.000000
  0
CIRCLE
  8
0
 10
-305.354767
 20
148.757370
 40
3.000000
  0
CIRCLE
  8
0
 10
-305.354767
 20
148.757370
 40
1.750000
  0
ARC
  8
0
 62
     2
 10
-317.854767
 20
148.257370
 40
2.000000
 50
0.000000
 51
75.522499
  0
CIRCLE
  8
0
 62
     2
 10
-317.854767
 20
148.257370
 40
2.000000
  0
CIRCLE
  8
0
 10
-317.854767
 20
148.257370
 40
3.000000
  0
CIRCLE
  8
0
 62
     2
 10
-331.354736
 20
143.757370
 40
2.500000
  0
CIRCLE
  8
0
 10
-331.354736
 20
143.757370
 40
2.000000
  0
CIRCLE
  8
0
 10
-314.142456
 20
106.151657
 40
1.000000
  0
CIRCLE
  8
0
 10
-310.960480
 20
102.969650
 40
1.000000
  0
ARC
  8
0
 10
-309.899811
 20
103.323227
 40
0.999990
 50
314.999390
 51
45.000618
  0
ARC
  8
0
 10
-313.788910
 20
107.212326
 40
0.999990
 50
45.000618
 51
134.999374
  0
ARC
  8
0
 10
-316.354767
 20
81.757370
 40
2.999994
 50
320.698669
 51
33.557270
  0
CIRCLE
  8
0
 10
-305.354767
 20
98.757370
 40
3.000000
  0
CIRCLE
  8
0
 10
-305.354767
 20
98.757370
 40
1.750000
  0
CIRCLE
  8
0
 10
-331.354767
 20
103.757370
 40
2.000000
  0
ARC
  8
0
 10
-317.854767
 20
99.257370
 40
7.000003
 50
77.392281
 51
233.132828
  0
ARC
  8
0
 10
-317.854767
 20
99.257370
 40
4.999994
 50
315.569977
 51
224.430008
  0
ARC
  8
0
 10
-319.854736
 20
86.433945
 40
5.776714
 50
249.743866
 51
290.256165
  0
ARC
  8
0
 10
-315.854736
 20
86.433945
 40
5.776707
 50
249.743835
 51
290.256134
  0
ARC
  8
0
 10
-317.854767
 20
99.257370
 40
4.500010
 50
308.938904
 51
231.061111
  0
ARC
  8
0
 10
-317.854767
 20
99.257370
 40
7.000006
 50
306.867187
 51
12.607610
  0
CIRCLE
  8
0
 62
     2
 10
-331.354767
 20
103.757370
 40
2.500000
  0
ARC
  8
0
 10
-319.854797
 20
63.433945
 40
5.776714
 50
249.743866
 51
290.256165
  0
CIRCLE
  8
0
 10
-187.354736
 20
-22.742630
 40
2.500000
  0
CIRCLE
  8
0
 10
-187.354736
 20
-22.742630
 40
4.000000
  0
CIRCLE
  8
0
 10
-187.354736
 20
-22.742630
 40
4.900000
  0
CIRCLE
  8
0
 10
174.645233
 20
-22.742630
 40
2.500000
  0
CIRCLE
  8
0
 10
174.645233
 20
-22.742630
 40
4.000000
  0
CIRCLE
  8
0
 10
174.645233
 20
-22.742630
 40
4.900000
  0
CIRCLE
  8
0
 10
219.145203
 20
-16.242630
 40
1.600000
  0
ARC
  8
0
 10
26.145233
 20
-141.242630
 40
4.000000
 50
0.000000
 51
89.999916
  0
CIRCLE
  8
0
 10
-157.354767
 20
-148.742630
 40
3.250000
  0
CIRCLE
  8
0
 10
-145.354767
 20
-148.742630
 40
3.250000
  0
CIRCLE
  8
0
 10
-157.354767
 20
-169.742630
 40
3.250000
  0
CIRCLE
  8
0
 10
-145.354767
 20
-169.742630
 40
3.250000
  0
ARC
  8
0
 10
-89.354736
 20
-134.742630
 40
8.500005
 50
340.409637
 51
19.590462
  0
ARC
  8
0
 10
-82.445923
 20
-130.742081
 40
1.591200
 50
313.691772
 51
0.000000
  0
ARC
  8
0
 10
-82.443604
 20
-138.742172
 40
1.588867
 50
359.984039
 51
46.344395
  0
ARC
  8
0
 10
-82.354797
 20
-219.566055
 40
5.776714
 50
249.743866
 51
290.256134
  0
ARC
  8
0
 10
-86.354797
 20
-219.566086
 40
5.776714
 50
249.743866
 51
290.256134
  0
ARC
  8
0
 10
-185.354706
 20
-121.919205
 40
5.776707
 50
69.743835
 51
110.256142
  0
ARC
  8
0
 10
-189.354706
 20
-121.919205
 40
5.776707
 50
69.743835
 51
110.256142
  0
CIRCLE
  8
0
 10
-105.854767
 20
-159.242630
 40
3.250000
  0
ARC
  8
0
 10
-184.265900
 20
-179.743088
 40
1.588867
 50
179.984039
 51
226.344391
  0
ARC
  8
0
 10
-177.354767
 20
-183.742630
 40
8.499997
 50
160.409637
 51
199.590363
  0
ARC
  8
0
 10
-184.263580
 20
-187.743179
 40
1.591200
 50
133.691772
 51
180.000000
  0
CIRCLE
  8
0
 10
-91.354767
 20
-150.242630
 40
4.250000
  0
CIRCLE
  8
0
 10
-91.354767
 20
-168.242630
 40
4.250000
  0
CIRCLE
  8
0
 10
-91.354767
 20
-150.242630
 40
4.750000
  0
CIRCLE
  8
0
 10
-91.354767
 20
-168.242630
 40
4.750000
  0
CIRCLE
  8
0
 10
87.645233
 20
-201.742630
 40
2.250000
  0
CIRCLE
  8
0
 10
87.645233
 20
-116.742661
 40
2.250000
  0
CIRCLE
  8
0
 10
247.645233
 20
-169.742661
 40
3.250000
  0
CIRCLE
  8
0
 10
235.645233
 20
-169.742661
 40
3.250000
  0
CIRCLE
  8
0
 10
247.645233
 20
-148.742661
 40
3.250000
  0
CIRCLE
  8
0
 10
235.645233
 20
-148.742661
 40
3.250000
  0
ARC
  8
0
 10
180.645203
 20
-183.742661
 40
8.499997
 50
160.409637
 51
199.590469
  0
ARC
  8
0
 10
173.736389
 20
-187.743179
 40
1.591200
 50
133.691772
 51
180.000000
  0
ARC
  8
0
 10
173.734070
 20
-179.743088
 40
1.588867
 50
179.984039
 51
226.344391
  0
ARC
  8
0
 10
87.645233
 20
-116.742661
 40
4.000002
 50
341.034515
 51
198.965500
  0
ARC
  8
0
 10
87.645233
 20
-201.742630
 40
3.999997
 50
161.034363
 51
18.965635
  0
ARC
  8
0
 10
172.645264
 20
-98.919205
 40
5.776707
 50
69.743835
 51
110.256142
  0
ARC
  8
0
 10
176.645264
 20
-98.919174
 40
5.776714
 50
69.743858
 51
110.256165
  0
ARC
  8
0
 10
275.645172
 20
-196.566086
 40
5.776714
 50
249.743866
 51
290.256134
  0
ARC
  8
0
 10
279.645172
 20
-196.566086
 40
5.776714
 50
249.743866
 51
290.256134
  0
CIRCLE
  8
0
 10
196.145233
 20
-159.242661
 40
3.250000
  0
ARC
  8
0
 10
274.556366
 20
-138.742203
 40
1.588867
 50
359.984039
 51
46.344395
  0
ARC
  8
0
 10
267.645233
 20
-134.742661
 40
8.499997
 50
340.409637
 51
19.590364
  0
ARC
  8
0
 10
274.554047
 20
-130.742111
 40
1.591190
 50
313.691376
 51
0.000000
  0
CIRCLE
  8
0
 10
182.145233
 20
-168.242661
 40
4.250000
  0
CIRCLE
  8
0
 10
182.145233
 20
-150.242661
 40
4.250000
  0
CIRCLE
  8
0
 10
2.645233
 20
-116.742630
 40
2.250000
  0
CIRCLE
  8
0
 10
2.645233
 20
-201.742630
 40
2.250000
  0
ARC
  8
0
 10
2.645233
 20
-201.742630
 40
4.000002
 50
161.034393
 51
18.965609
  0
ARC
  8
0
 10
2.645233
 20
-116.742630
 40
4.000000
 50
341.034393
 51
198.965622
  0
CIRCLE
  8
0
 10
182.145233
 20
-150.242661
 40
4.750000
  0
CIRCLE
  8
0
 10
182.145233
 20
-168.242661
 40
4.750000
  0
ARC
  8
0
 10
-80.854767
 20
-177.242630
 40
4.000000
 50
180.000000
 51
187.180313
  0
ARC
  8
0
 10
26.145233
 20
-177.242630
 40
4.000000
 50
270.000031
 51
0.000000
  0
ARC
  8
0
 10
64.145210
 20
-141.242630
 40
4.000000
 50
90.000000
 51
180.000000
  0
ARC
  8
0
 10
64.145210
 20
-177.242630
 40
4.000000
 50
180.000000
 51
270.000000
  0
TEXT
  8
0
 10
-387.785309
 20
256.649994
 40
9.000000
  1
HANDLING MODULE
 50
0.000000
 41
1.052632
 51
0.000000
  7
STANDARD
  0
TEXT
  8
0
 10
242.014816
 20
-274.500000
 40
12.500000
  1
KOGANEI CORP.
 50
0.000000
 41
1.052632
 51
0.000000
  7
STANDARD
  0
TEXT
  8
0
 10
251.264664
 20
256.649994
 40
9.000000
  1
DATE: AUG ,1994
 50
0.000000
 41
1.052632
 51
0.000000
  7
STANDARD
  0
TEXT
  8
0
 10
-384.785309
 20
224.149994
 40
9.000000
  1
MODEL:SHM72L-ML
 50
0.000000
 41
1.052632
 51
0.000000
  7
STANDARD
  0
ENDSEC
  0
EOF
