  0
SECTION
  2
HEADER
  0
ENDSEC
  0
SECTION
  2
TABLES
  0
TABLE
  2
LTYPE
 70
     4
  0
LTYPE
  2
CONTINUOUS
 70
    64
  3
Solid line
 72
    65
 73
     0
 40
0.000000
  0
LTYPE
  2
DASHED
 70
    64
  3
__ __ __ __ __ __ __ __ __ __ __ __ __ __ __
 72
    65
 73
     2
 40
3.500000
 49
2.000000
 49
-1.500000
  0
LTYPE
  2
CENTER
 70
    64
  3
____ _ ____ _ ____ _ ____ _ ____ _ ____ _ ____
 72
    65
 73
     4
 40
17.500000
 49
13.000000
 49
-1.500000
 49
1.500000
 49
-1.500000
  0
LTYPE
  2
PHANTOM
 70
    64
  3
_____ _ _ _____ _ _ _____ _ _ _____ _ _ ____  
 72
    65
 73
     6
 40
15.500000
 49
8.000000
 49
-1.500000
 49
1.500000
 49
-1.500000
 49
1.500000
 49
-1.500000
  0
LTYPE
  2
DASHED1
 70
    64
  3
__ __ __ __ __ __ __ __ __ __ __ __ __ __ __
 72
    65
 73
     2
 40
1.500000
 49
1.000000
 49
-0.500000
  0
LTYPE
  2
DASHED2
 70
    64
  3
__ __ __ __ __ __ __ __ __ __ __ __ __ __ __
 72
    65
 73
     2
 40
3.500000
 49
2.500000
 49
-1.000000
  0
LTYPE
  2
DASHED3
 70
    64
  3
__ __ __ __ __ __ __ __ __ __ __ __ __ __ __
 72
    65
 73
     2
 40
6.000000
 49
4.000000
 49
-2.000000
  0
LTYPE
  2
DASHED4
 70
    64
  3
__ __ __ __ __ __ __ __ __ __ __ __ __ __ __
 72
    65
 73
     2
 40
12.000000
 49
10.000000
 49
-2.000000
  0
LTYPE
  2
DASHED5
 70
    64
  3
__ __ __ __ __ __ __ __ __ __ __ __ __ __ __
 72
    65
 73
     2
 40
17.000000
 49
15.000000
 49
-2.000000
  0
LTYPE
  2
DASHED6
 70
    64
  3
__ __ __ __ __ __ __ __ __ __ __ __ __ __ __
 72
    65
 73
     2
 40
29.000000
 49
27.000000
 49
-2.000000
  0
LTYPE
  2
PHANTOM1
 70
    64
  3
_____ _ _ _____ _ _ _____ _ _ _____ _ _ ____  
 72
    65
 73
     6
 40
31.000000
 49
25.000000
 49
-1.500000
 49
1.000000
 49
-1.000000
 49
1.000000
 49
-1.500000
  0
LTYPE
  2
PHANTOM2
 70
    64
  3
_____ _ _ _____ _ _ _____ _ _ _____ _ _ ____  
 72
    65
 73
     6
 40
36.000000
 49
27.000000
 49
-1.500000
 49
2.500000
 49
-1.000000
 49
2.500000
 49
-1.500000
  0
LTYPE
  2
PHANTOM3
 70
    64
  3
_____ _ _ _____ _ _ _____ _ _ _____ _ _ ____  
 72
    65
 73
     6
 40
78.000000
 49
64.000000
 49
-2.000000
 49
4.000000
 49
-2.000000
 49
4.000000
 49
-2.000000
  0
LTYPE
  2
CENTER1
 70
    64
  3
____ _ ____ _ ____ _ ____ _ ____ _ ____ _ ____
 72
    65
 73
     4
 40
19.000000
 49
14.000000
 49
-1.000000
 49
3.000000
 49
-1.000000
  0
LTYPE
  2
CENTER2
 70
    64
  3
____ _ ____ _ ____ _ ____ _ ____ _ ____ _ ____
 72
    65
 73
     4
 40
28.500000
 49
25.000000
 49
-1.000000
 49
1.500000
 49
-1.000000
  0
LTYPE
  2
CENTER3
 70
    64
  3
____ _ ____ _ ____ _ ____ _ ____ _ ____ _ ____
 72
    65
 73
     4
 40
31.500000
 49
27.000000
 49
-1.000000
 49
2.500000
 49
-1.000000
  0
LTYPE
  2
CENTER4
 70
    64
  3
____ _ ____ _ ____ _ ____ _ ____ _ ____ _ ____
 72
    65
 73
     4
 40
50.000000
 49
45.000000
 49
-1.000000
 49
3.000000
 49
-1.000000
  0
LTYPE
  2
CENTER5
 70
    64
  3
____ _ ____ _ ____ _ ____ _ ____ _ ____ _ ____
 72
    65
 73
     4
 40
100.000000
 49
92.000000
 49
-2.000000
 49
4.000000
 49
-2.000000
  0
LTYPE
  2
SBK1
 70
    64
  3
______ _ _ _ ______ _ _ _ ______ _ _ _ _____  
 72
    65
 73
     8
 40
60.500000
 49
45.000000
 49
-2.000000
 49
2.500000
 49
-2.000000
 49
2.500000
 49
-2.000000
 49
2.500000
 49
-2.000000
  0
LTYPE
  2
SBK2
 70
    64
  3
______ _ _ _ ______ _ _ _ ______ _ _ _ _____  
 72
    65
 73
     8
 40
84.000000
 49
64.000000
 49
-2.000000
 49
4.000000
 49
-2.000000
 49
4.000000
 49
-2.000000
 49
4.000000
 49
-2.000000
  0
LTYPE
  2
STCH
 70
    64
  3
__ __ __ __ __ __ __ __ __ __ __ __ __ __ __
 72
    65
 73
     2
 40
3.000000
 49
1.000000
 49
-2.000000
  0
LTYPE
  2
MTCH
 70
    64
  3
_____ _ _ _____ _ _ _____ _ _ _____ _ _ ____  
 72
    65
 73
     6
 40
80.000000
 49
66.000000
 49
-2.000000
 49
4.000000
 49
-2.000000
 49
4.000000
 49
-2.000000
  0
ENDTAB
  0
TABLE
  2
LAYER
 70
     1
  0
LAYER
  2
0
 70
     0
 62
     7
  6
CONTINUOUS
  0
ENDTAB
  0
TABLE
  2
STYLE
 70
     1
  0
STYLE
  2
STANDARD
 70
     0
 40
0.000000
 41
1.000000
 50
0.000000
 71
     0
 42
0.200000
  3
txt
  4
BIGFONT
  0
ENDTAB
  0
TABLE
  2
VIEW
 70
     0
  0
ENDTAB
  0
ENDSEC
  0
SECTION
  2
BLOCKS
  0
ENDSEC
  0
SECTION
  2
ENTITIES
  0
LINE
  8
0
 10
399.799988
 20
276.250000
 11
399.799988
 21
-276.750000
  0
LINE
  8
0
 10
-399.250000
 20
276.250000
 11
-399.250000
 21
-276.750000
  0
LINE
  8
0
 10
-399.250000
 20
276.250000
 11
399.799988
 21
276.250000
  0
LINE
  8
0
 10
-399.250000
 20
-276.750000
 11
399.799988
 21
-276.750000
  0
LINE
  8
0
 10
239.799988
 20
-251.750000
 11
399.799988
 21
-251.750000
  0
LINE
  8
0
 10
239.799988
 20
251.250000
 11
399.799988
 21
251.250000
  0
LINE
  8
0
 10
-399.250000
 20
251.250000
 11
-239.250000
 21
251.250000
  0
LINE
  8
0
 10
239.799988
 20
-251.750000
 11
239.799988
 21
-276.750000
  0
LINE
  8
0
 10
239.799988
 20
251.250000
 11
239.799988
 21
276.250000
  0
LINE
  8
0
 10
-239.250000
 20
276.250000
 11
-239.250000
 21
251.250000
  0
LINE
  8
0
 10
-229.666672
 20
178.500000
 11
-229.666672
 21
78.499969
  0
LINE
  8
0
  6
CENTER
 62
     2
 10
-250.957138
 20
128.500000
 11
320.905396
 21
128.500000
  0
LINE
  8
0
 10
-235.666641
 20
178.500000
 11
316.333344
 21
178.500000
  0
LINE
  8
0
 10
-235.666641
 20
78.499969
 11
316.333344
 21
78.499969
  0
LINE
  8
0
 10
-235.666641
 20
178.500000
 11
-235.666641
 21
78.499969
  0
LINE
  8
0
 10
-254.666641
 20
156.000000
 11
-240.666641
 21
156.000000
  0
LINE
  8
0
 10
-254.666641
 20
150.000000
 11
-240.666641
 21
150.000000
  0
LINE
  8
0
 10
-255.666641
 20
150.999969
 11
-255.666641
 21
154.999969
  0
LINE
  8
0
 10
-254.666641
 20
149.999969
 11
-254.666641
 21
155.999969
  0
LINE
  8
0
 62
     2
 10
-255.666641
 20
151.000000
 11
-240.666641
 21
151.000000
  0
LINE
  8
0
 62
     2
 10
-255.666641
 20
155.000000
 11
-240.666641
 21
155.000000
  0
LINE
  8
0
 10
-254.666504
 20
150.000000
 11
-255.666489
 21
150.999969
  0
LINE
  8
0
 10
-255.666412
 20
154.999756
 11
-254.666412
 21
155.999756
  0
LINE
  8
0
 10
-239.656296
 20
147.250000
 11
-235.666641
 21
147.250000
  0
LINE
  8
0
 10
-240.666901
 20
148.999908
 11
-239.656525
 21
147.249878
  0
LINE
  8
0
 10
-240.667038
 20
157.000137
 11
-239.656662
 21
158.750137
  0
LINE
  8
0
 10
-239.656296
 20
158.750000
 11
-235.666641
 21
158.750000
  0
LINE
  8
0
 10
-240.666641
 20
149.000000
 11
-240.666641
 21
157.000000
  0
LINE
  8
0
 10
-240.174606
 20
155.850006
 11
-235.666641
 21
155.850006
  0
LINE
  8
0
 10
-240.174606
 20
150.149994
 11
-235.666641
 21
150.149994
  0
LINE
  8
0
 10
-236.866623
 20
112.500000
 11
-236.866623
 21
95.500000
  0
LINE
  8
0
 10
-236.866653
 20
109.000000
 11
-246.166641
 21
109.000000
  0
LINE
  8
0
 10
-235.666641
 20
112.500000
 11
-236.866653
 21
112.500000
  0
LINE
  8
0
 10
-235.666641
 20
95.500000
 11
-236.866653
 21
95.500000
  0
LINE
  8
0
 10
-246.666641
 20
100.499847
 11
-246.666641
 21
108.499817
  0
LINE
  8
0
 10
-236.866653
 20
98.999817
 11
-237.666641
 21
98.999817
  0
LINE
  8
0
 10
-237.666611
 20
98.999817
 11
-237.666611
 21
100.499847
  0
LINE
  8
0
 10
-238.266617
 20
100.499817
 11
-246.066605
 21
100.499817
  0
LINE
  8
0
 10
-244.166611
 20
72.899811
 11
-240.166611
 21
72.899811
  0
LINE
  8
0
 10
-239.666641
 20
73.399811
 11
-239.666641
 21
76.399811
  0
LINE
  8
0
 10
-244.666641
 20
73.399811
 11
-244.666641
 21
76.399811
  0
LINE
  8
0
 10
-239.667007
 20
73.400261
 11
-240.166992
 21
72.900269
  0
LINE
  8
0
 10
-244.166504
 20
72.899971
 11
-244.666489
 21
73.399956
  0
LINE
  8
0
 10
-244.166611
 20
76.899811
 11
-240.166611
 21
76.899811
  0
LINE
  8
0
 10
-244.667099
 20
76.400383
 11
-244.167114
 21
76.900375
  0
LINE
  8
0
 10
-240.166428
 20
76.899872
 11
-239.666428
 21
76.399887
  0
LINE
  8
0
 10
-244.666611
 20
73.399811
 11
-239.666611
 21
73.399811
  0
LINE
  8
0
 10
-244.666611
 20
76.399811
 11
-239.666611
 21
76.399811
  0
LINE
  8
0
 10
-246.066605
 20
99.899811
 11
-238.266617
 21
99.899811
  0
LINE
  8
0
 10
-246.166611
 20
85.399811
 11
-238.166611
 21
85.399811
  0
LINE
  8
0
 10
-245.666611
 20
84.599823
 11
-238.666611
 21
84.599823
  0
LINE
  8
0
 10
-245.666611
 20
82.099823
 11
-238.666611
 21
82.099823
  0
LINE
  8
0
 10
-238.166641
 20
82.599823
 11
-238.166641
 21
84.099823
  0
LINE
  8
0
 10
-246.166641
 20
82.599823
 11
-246.166641
 21
84.099823
  0
LINE
  8
0
 10
-238.167191
 20
82.600327
 11
-238.667191
 21
82.100334
  0
LINE
  8
0
 10
-245.666412
 20
82.099907
 11
-246.166443
 21
82.599937
  0
LINE
  8
0
 10
-246.166367
 20
84.099609
 11
-245.666382
 21
84.599602
  0
LINE
  8
0
 10
-238.666489
 20
84.600037
 11
-238.166504
 21
84.100052
  0
LINE
  8
0
 10
-246.166611
 20
82.599823
 11
-238.166611
 21
82.599823
  0
LINE
  8
0
 10
-246.166611
 20
84.099823
 11
-238.166611
 21
84.099823
  0
LINE
  8
0
 10
-239.666641
 20
84.599823
 11
-239.666641
 21
85.399811
  0
LINE
  8
0
 10
-244.666641
 20
84.599823
 11
-244.666641
 21
85.399811
  0
LINE
  8
0
 10
-243.666641
 20
76.899811
 11
-243.666641
 21
82.099823
  0
LINE
  8
0
 10
-240.666641
 20
76.899811
 11
-240.666641
 21
82.099823
  0
LINE
  8
0
 62
     2
 10
-240.937149
 20
76.899811
 11
-240.937149
 21
82.099823
  0
LINE
  8
0
 62
     2
 10
-243.396133
 20
76.899811
 11
-243.396133
 21
82.099823
  0
LINE
  8
0
 10
-238.916641
 20
98.399841
 11
-238.916641
 21
99.899841
  0
LINE
  8
0
 10
-245.416641
 20
98.399841
 11
-245.416641
 21
99.899841
  0
LINE
  8
0
 10
-238.266647
 20
99.899841
 11
-238.266647
 21
100.499847
  0
LINE
  8
0
 10
-246.066635
 20
99.899841
 11
-246.066635
 21
100.499847
  0
LINE
  8
0
 10
-246.666641
 20
100.499817
 11
-237.666641
 21
100.499817
  0
LINE
  8
0
 10
-247.066605
 20
89.399811
 11
-245.166641
 21
89.399811
  0
LINE
  8
0
 10
-247.066605
 20
98.399811
 11
-237.266617
 21
98.399811
  0
LINE
  8
0
 10
-238.166641
 20
85.399811
 11
-238.166641
 21
89.399841
  0
LINE
  8
0
 10
-246.166641
 20
85.399811
 11
-246.166641
 21
89.399841
  0
LINE
  8
0
 10
-242.166641
 20
85.757080
 11
-242.166641
 21
88.399780
  0
LINE
  8
0
 10
-237.266647
 20
89.399841
 11
-237.266647
 21
92.404785
  0
LINE
  8
0
 10
-247.066635
 20
89.399841
 11
-247.066635
 21
92.404785
  0
LINE
  8
0
 10
-246.166641
 20
108.999817
 11
-246.166641
 21
100.499817
  0
LINE
  8
0
 10
-239.166641
 20
89.399811
 11
-237.266617
 21
89.399811
  0
LINE
  8
0
 10
-237.266647
 20
94.394806
 11
-237.266647
 21
98.399841
  0
LINE
  8
0
 10
-247.066635
 20
94.394806
 11
-247.066635
 21
98.399841
  0
LINE
  8
0
 10
-246.167053
 20
109.000397
 11
-246.667206
 21
108.500229
  0
LINE
  8
0
 10
-137.166702
 20
207.300171
 11
-141.166702
 21
207.300171
  0
LINE
  8
0
 10
-141.666672
 20
206.800201
 11
-141.666672
 21
203.800201
  0
LINE
  8
0
 10
-136.666672
 20
206.800201
 11
-136.666672
 21
203.800201
  0
LINE
  8
0
 10
-141.667053
 20
206.800674
 11
-141.167038
 21
207.300690
  0
LINE
  8
0
 10
-137.166748
 20
207.300064
 11
-136.666748
 21
206.800079
  0
LINE
  8
0
 10
-137.166702
 20
203.300171
 11
-141.166702
 21
203.300171
  0
LINE
  8
0
 10
-136.667160
 20
203.800507
 11
-137.167175
 21
203.300491
  0
LINE
  8
0
 10
-141.166809
 20
203.300171
 11
-141.666840
 21
203.800217
  0
LINE
  8
0
 10
-136.666702
 20
206.800171
 11
-141.666702
 21
206.800171
  0
LINE
  8
0
 10
-136.666702
 20
203.800171
 11
-141.666702
 21
203.800171
  0
LINE
  8
0
 10
-135.166702
 20
194.800171
 11
-143.166702
 21
194.800171
  0
LINE
  8
0
 10
-135.666702
 20
195.600159
 11
-142.666702
 21
195.600159
  0
LINE
  8
0
 10
-135.666702
 20
198.100159
 11
-142.666702
 21
198.100159
  0
LINE
  8
0
 10
-143.166672
 20
197.600189
 11
-143.166672
 21
196.100189
  0
LINE
  8
0
 10
-135.166672
 20
197.600189
 11
-135.166672
 21
196.100189
  0
LINE
  8
0
 10
-143.167252
 20
197.600708
 11
-142.667252
 21
198.100708
  0
LINE
  8
0
 10
-135.666855
 20
198.100189
 11
-135.166824
 21
197.600159
  0
LINE
  8
0
 10
-135.166351
 20
196.099670
 11
-135.666351
 21
195.599686
  0
LINE
  8
0
 10
-142.666702
 20
195.600067
 11
-143.166687
 21
196.100052
  0
LINE
  8
0
 10
-135.166702
 20
197.600159
 11
-143.166702
 21
197.600159
  0
LINE
  8
0
 10
-135.166702
 20
196.100159
 11
-143.166702
 21
196.100159
  0
LINE
  8
0
 10
-141.666672
 20
195.600189
 11
-141.666672
 21
194.800201
  0
LINE
  8
0
 10
-136.666672
 20
195.600189
 11
-136.666672
 21
194.800201
  0
LINE
  8
0
 10
-137.666672
 20
203.300201
 11
-137.666672
 21
198.100189
  0
LINE
  8
0
 10
-140.666672
 20
203.300201
 11
-140.666672
 21
198.100189
  0
LINE
  8
0
 62
     2
 10
-140.396164
 20
203.300201
 11
-140.396164
 21
198.100189
  0
LINE
  8
0
 62
     2
 10
-137.937180
 20
203.300201
 11
-137.937180
 21
198.100189
  0
LINE
  8
0
 10
-142.416672
 20
181.800171
 11
-142.416672
 21
180.300171
  0
LINE
  8
0
 10
-135.916672
 20
181.800171
 11
-135.916672
 21
180.300171
  0
LINE
  8
0
 10
-134.266708
 20
181.800171
 11
-144.066696
 21
181.800171
  0
LINE
  8
0
 10
-143.166672
 20
194.800201
 11
-143.166672
 21
190.800171
  0
LINE
  8
0
 10
-135.166672
 20
194.800201
 11
-135.166672
 21
190.800171
  0
LINE
  8
0
 10
-139.166672
 20
194.442932
 11
-139.166672
 21
191.800232
  0
LINE
  8
0
 10
-134.266678
 20
190.800171
 11
-144.066696
 21
190.800171
  0
LINE
  8
0
 10
-144.066696
 20
190.800201
 11
-144.066696
 21
181.800171
  0
LINE
  8
0
 10
-134.266708
 20
190.800201
 11
-134.266708
 21
181.800171
  0
LINE
  8
0
 10
-135.266708
 20
180.300171
 11
-143.066696
 21
180.300171
  0
LINE
  8
0
 10
-143.166672
 20
180.300171
 11
-143.166672
 21
178.500000
  0
LINE
  8
0
 10
-135.166672
 20
180.300171
 11
-135.166672
 21
178.500000
  0
LINE
  8
0
 10
-229.666672
 20
103.200012
 11
310.333344
 21
103.200012
  0
LINE
  8
0
 10
-229.666672
 20
153.799988
 11
310.333344
 21
153.799988
  0
LINE
  8
0
 10
-229.666672
 20
154.600006
 11
310.333344
 21
154.600006
  0
LINE
  8
0
 10
-229.666672
 20
102.399994
 11
310.333344
 21
102.399994
  0
LINE
  8
0
  6
CENTER
 62
     2
 10
40.333332
 20
181.709808
 11
40.333332
 21
73.135620
  0
LINE
  8
0
 10
316.333344
 20
178.500000
 11
316.333344
 21
78.499969
  0
LINE
  8
0
  6
CENTER
 62
     2
 10
-6.512939
 20
86.000000
 11
1.554523
 21
86.000000
  0
LINE
  8
0
  6
CENTER
 62
     2
 10
-6.628307
 20
171.000000
 11
1.554523
 21
171.000000
  0
LINE
  8
0
  6
CENTER
 62
     2
 10
-2.166668
 20
89.979767
 11
-2.166668
 21
82.197632
  0
LINE
  8
0
  6
CENTER
 62
     2
 10
79.086746
 20
86.000000
 11
87.107658
 21
86.000000
  0
LINE
  8
0
  6
CENTER
 62
     2
 10
82.833328
 20
89.988510
 11
82.833328
 21
81.796967
  0
LINE
  8
0
  6
CENTER
 62
     2
 10
79.495895
 20
171.000000
 11
86.860428
 21
171.000000
  0
LINE
  8
0
 10
43.333332
 20
178.500000
 11
43.333332
 21
170.000000
  0
LINE
  8
0
 10
37.333332
 20
178.500000
 11
37.333332
 21
170.000000
  0
LINE
  8
0
 10
320.322998
 20
109.749969
 11
316.333344
 21
109.749969
  0
LINE
  8
0
 10
320.322998
 20
98.249969
 11
316.333344
 21
98.249969
  0
LINE
  8
0
 10
321.333527
 20
108.000107
 11
320.323151
 21
109.750099
  0
LINE
  8
0
 10
321.333374
 20
100.000023
 11
320.323029
 21
98.250053
  0
LINE
  8
0
 10
321.333344
 20
108.000000
 11
321.333344
 21
100.000000
  0
LINE
  8
0
 10
320.841309
 20
101.149963
 11
316.333344
 21
101.149963
  0
LINE
  8
0
 10
320.841309
 20
106.849976
 11
316.333344
 21
106.849976
  0
LINE
  8
0
 10
335.333191
 20
106.999947
 11
336.333191
 21
105.999939
  0
LINE
  8
0
 10
336.333405
 20
102.000053
 11
335.333405
 21
101.000031
  0
LINE
  8
0
 10
335.333344
 20
100.999969
 11
321.333344
 21
100.999969
  0
LINE
  8
0
 10
335.333344
 20
106.999969
 11
321.333344
 21
106.999969
  0
LINE
  8
0
 10
336.333344
 20
106.000000
 11
336.333344
 21
102.000000
  0
LINE
  8
0
 10
335.333344
 20
107.000000
 11
335.333344
 21
101.000000
  0
LINE
  8
0
 62
     2
 10
336.333344
 20
105.999969
 11
321.333344
 21
105.999969
  0
LINE
  8
0
 62
     2
 10
336.333344
 20
101.999969
 11
321.333344
 21
101.999969
  0
LINE
  8
0
 10
317.533356
 20
144.500000
 11
317.533356
 21
161.500000
  0
LINE
  8
0
 10
317.533356
 20
148.000000
 11
326.833344
 21
148.000000
  0
LINE
  8
0
 10
316.333344
 20
144.500000
 11
317.533356
 21
144.500000
  0
LINE
  8
0
 10
316.333344
 20
161.500000
 11
317.533356
 21
161.500000
  0
LINE
  8
0
 10
327.333344
 20
156.500153
 11
327.333344
 21
148.500183
  0
LINE
  8
0
 10
326.833344
 20
148.000183
 11
326.833344
 21
156.500183
  0
LINE
  8
0
 10
326.833069
 20
148.000031
 11
327.333221
 21
148.500183
  0
LINE
  8
0
 10
317.533356
 20
158.000214
 11
318.333344
 21
158.000214
  0
LINE
  8
0
 10
318.333344
 20
158.000153
 11
318.333344
 21
156.500153
  0
LINE
  8
0
 10
318.933319
 20
156.500183
 11
326.733307
 21
156.500183
  0
LINE
  8
0
 10
324.833313
 20
184.100189
 11
320.833313
 21
184.100189
  0
LINE
  8
0
 10
320.333344
 20
183.600189
 11
320.333344
 21
180.600189
  0
LINE
  8
0
 10
325.333344
 20
183.600189
 11
325.333344
 21
180.600189
  0
LINE
  8
0
 10
320.333130
 20
183.600464
 11
320.833160
 21
184.100494
  0
LINE
  8
0
 10
324.833038
 20
184.099899
 11
325.333069
 21
183.599884
  0
LINE
  8
0
 10
324.833313
 20
180.100189
 11
320.833313
 21
180.100189
  0
LINE
  8
0
 10
325.333313
 20
180.600266
 11
324.833282
 21
180.100235
  0
LINE
  8
0
 10
320.833069
 20
180.099930
 11
320.333069
 21
180.599915
  0
LINE
  8
0
 10
325.333313
 20
183.600189
 11
320.333313
 21
183.600189
  0
LINE
  8
0
 10
325.333313
 20
180.600189
 11
320.333313
 21
180.600189
  0
LINE
  8
0
 10
326.733307
 20
157.100189
 11
318.933319
 21
157.100189
  0
LINE
  8
0
 10
326.833313
 20
171.600189
 11
318.833313
 21
171.600189
  0
LINE
  8
0
 10
326.333313
 20
172.400177
 11
319.333313
 21
172.400177
  0
LINE
  8
0
 10
326.333313
 20
174.900177
 11
319.333313
 21
174.900177
  0
LINE
  8
0
 10
318.833344
 20
174.400177
 11
318.833344
 21
172.900177
  0
LINE
  8
0
 10
326.833344
 20
174.400177
 11
326.833344
 21
172.900177
  0
LINE
  8
0
 10
318.833282
 20
174.400238
 11
319.333282
 21
174.900223
  0
LINE
  8
0
 10
326.333038
 20
174.899948
 11
326.833038
 21
174.399933
  0
LINE
  8
0
 10
326.833405
 20
172.899963
 11
326.333405
 21
172.399979
  0
LINE
  8
0
 10
319.333069
 20
172.399857
 11
318.833069
 21
172.899841
  0
LINE
  8
0
 10
326.833313
 20
174.400177
 11
318.833313
 21
174.400177
  0
LINE
  8
0
 10
326.833313
 20
172.900177
 11
318.833313
 21
172.900177
  0
LINE
  8
0
 10
320.333344
 20
172.400177
 11
320.333344
 21
171.600189
  0
LINE
  8
0
 10
325.333344
 20
172.400177
 11
325.333344
 21
171.600189
  0
LINE
  8
0
 10
324.333344
 20
180.100189
 11
324.333344
 21
174.900177
  0
LINE
  8
0
 10
321.333344
 20
180.100189
 11
321.333344
 21
174.900177
  0
LINE
  8
0
 62
     2
 10
321.603851
 20
180.100189
 11
321.603851
 21
174.900177
  0
LINE
  8
0
 62
     2
 10
324.062836
 20
180.100189
 11
324.062836
 21
174.900177
  0
LINE
  8
0
 10
319.583344
 20
158.600128
 11
319.583344
 21
157.100128
  0
LINE
  8
0
 10
326.083344
 20
158.600128
 11
326.083344
 21
157.100128
  0
LINE
  8
0
 10
318.933350
 20
157.100128
 11
318.933350
 21
156.500153
  0
LINE
  8
0
 10
326.733337
 20
157.100128
 11
326.733337
 21
156.500153
  0
LINE
  8
0
 10
327.333344
 20
156.500183
 11
318.333344
 21
156.500183
  0
LINE
  8
0
 10
327.733307
 20
167.600189
 11
325.833344
 21
167.600189
  0
LINE
  8
0
 10
327.733307
 20
158.600189
 11
317.933319
 21
158.600189
  0
LINE
  8
0
 10
318.833344
 20
171.600189
 11
318.833344
 21
167.600128
  0
LINE
  8
0
 10
326.833344
 20
171.600189
 11
326.833344
 21
167.600128
  0
LINE
  8
0
 10
322.833344
 20
171.242889
 11
322.833344
 21
168.600189
  0
LINE
  8
0
 10
317.933350
 20
167.600128
 11
317.933350
 21
164.595215
  0
LINE
  8
0
 10
327.733337
 20
167.600128
 11
327.733337
 21
164.595215
  0
LINE
  8
0
 10
319.833344
 20
167.600189
 11
317.933319
 21
167.600189
  0
LINE
  8
0
 10
317.933350
 20
162.605194
 11
317.933350
 21
158.600128
  0
LINE
  8
0
 10
327.733337
 20
162.605194
 11
327.733337
 21
158.600128
  0
LINE
  8
0
 10
310.333344
 20
178.500000
 11
310.333344
 21
78.499969
  0
LINE
  8
0
 10
217.833359
 20
49.899811
 11
221.833359
 21
49.899811
  0
LINE
  8
0
 10
222.333328
 20
50.399841
 11
222.333328
 21
53.399841
  0
LINE
  8
0
 10
217.333328
 20
50.399841
 11
217.333328
 21
53.399841
  0
LINE
  8
0
 10
222.333267
 20
50.399899
 11
221.833252
 21
49.899887
  0
LINE
  8
0
 10
217.833359
 20
49.899883
 11
217.333374
 21
50.399872
  0
LINE
  8
0
 10
217.833359
 20
53.899811
 11
221.833359
 21
53.899811
  0
LINE
  8
0
 10
217.333267
 20
53.399963
 11
217.833252
 21
53.899952
  0
LINE
  8
0
 10
221.833450
 20
53.899849
 11
222.333435
 21
53.399860
  0
LINE
  8
0
 10
217.333359
 20
50.399811
 11
222.333359
 21
50.399811
  0
LINE
  8
0
 10
217.333359
 20
53.399811
 11
222.333359
 21
53.399811
  0
LINE
  8
0
 10
215.833359
 20
62.399811
 11
223.833359
 21
62.399811
  0
LINE
  8
0
 10
216.333359
 20
61.599823
 11
223.333359
 21
61.599823
  0
LINE
  8
0
 10
216.333359
 20
59.099823
 11
223.333359
 21
59.099823
  0
LINE
  8
0
 10
223.833328
 20
59.599854
 11
223.833328
 21
61.099854
  0
LINE
  8
0
 10
215.833328
 20
59.599854
 11
215.833328
 21
61.099854
  0
LINE
  8
0
 10
223.833267
 20
59.599907
 11
223.333267
 21
59.099895
  0
LINE
  8
0
 10
216.333435
 20
59.099827
 11
215.833389
 21
59.599861
  0
LINE
  8
0
 10
215.833282
 20
61.099983
 11
216.333282
 21
61.599972
  0
LINE
  8
0
 10
223.333298
 20
61.599869
 11
223.833298
 21
61.099880
  0
LINE
  8
0
 10
215.833359
 20
59.599823
 11
223.833359
 21
59.599823
  0
LINE
  8
0
 10
215.833359
 20
61.099823
 11
223.833359
 21
61.099823
  0
LINE
  8
0
 10
222.333328
 20
61.599854
 11
222.333328
 21
62.399841
  0
LINE
  8
0
 10
217.333328
 20
61.599854
 11
217.333328
 21
62.399841
  0
LINE
  8
0
 10
218.333328
 20
53.899841
 11
218.333328
 21
59.099854
  0
LINE
  8
0
 10
221.333328
 20
53.899841
 11
221.333328
 21
59.099854
  0
LINE
  8
0
 62
     2
 10
221.062820
 20
53.899841
 11
221.062820
 21
59.099854
  0
LINE
  8
0
 62
     2
 10
218.603836
 20
53.899841
 11
218.603836
 21
59.099854
  0
LINE
  8
0
 10
223.083328
 20
75.399872
 11
223.083328
 21
76.899872
  0
LINE
  8
0
 10
216.583328
 20
75.399872
 11
216.583328
 21
76.899872
  0
LINE
  8
0
 10
214.933365
 20
75.399811
 11
224.733353
 21
75.399811
  0
LINE
  8
0
 10
223.833328
 20
62.399841
 11
223.833328
 21
66.399872
  0
LINE
  8
0
 10
215.833328
 20
62.399841
 11
215.833328
 21
66.399872
  0
LINE
  8
0
 10
219.833328
 20
62.757111
 11
219.833328
 21
65.399811
  0
LINE
  8
0
 10
214.933334
 20
66.399811
 11
224.733353
 21
66.399811
  0
LINE
  8
0
 10
224.733322
 20
66.399841
 11
224.733322
 21
75.399872
  0
LINE
  8
0
 10
214.933334
 20
66.399841
 11
214.933334
 21
75.399872
  0
LINE
  8
0
 10
215.933365
 20
76.899811
 11
223.733353
 21
76.899811
  0
LINE
  8
0
 10
223.833328
 20
76.899872
 11
223.833328
 21
78.499969
  0
LINE
  8
0
 10
215.833328
 20
76.899872
 11
215.833328
 21
78.499969
  0
LINE
  8
0
 10
-139.666672
 20
146.500000
 11
-139.666672
 21
110.500000
  0
LINE
  8
0
 10
-135.666672
 20
150.500000
 11
21.333332
 21
150.500000
  0
LINE
  8
0
 10
25.333332
 20
146.500000
 11
25.333332
 21
110.500000
  0
LINE
  8
0
 10
-135.666672
 20
106.500000
 11
21.333332
 21
106.500000
  0
LINE
  8
0
 10
55.333309
 20
110.500000
 11
55.333309
 21
146.500000
  0
LINE
  8
0
 10
59.333309
 20
150.500000
 11
216.333298
 21
150.500000
  0
LINE
  8
0
 10
220.333298
 20
110.500000
 11
220.333298
 21
146.500000
  0
LINE
  8
0
 10
59.333309
 20
106.500000
 11
216.333298
 21
106.500000
  0
LINE
  8
0
  6
CENTER
 62
     2
 10
-2.166668
 20
167.020233
 11
-2.166668
 21
174.802368
  0
LINE
  8
0
  6
CENTER
 62
     2
 10
82.833328
 20
167.011490
 11
82.833328
 21
175.203033
  0
LINE
  8
0
 10
-342.666687
 20
207.100098
 11
-346.666687
 21
207.100098
  0
LINE
  8
0
 10
-347.166626
 20
206.600128
 11
-347.166626
 21
203.600128
  0
LINE
  8
0
 10
-342.166626
 20
206.600128
 11
-342.166626
 21
203.600128
  0
LINE
  8
0
 10
-347.166779
 20
206.600159
 11
-346.666779
 21
207.100174
  0
LINE
  8
0
 10
-342.666626
 20
207.100113
 11
-342.166656
 21
206.600174
  0
LINE
  8
0
 10
-342.666687
 20
203.100098
 11
-346.666687
 21
203.100098
  0
LINE
  8
0
 10
-342.166687
 20
203.600204
 11
-342.666687
 21
203.100220
  0
LINE
  8
0
 10
-346.666595
 20
203.100220
 11
-347.166595
 21
203.600204
  0
LINE
  8
0
 10
-342.166687
 20
206.600098
 11
-347.166687
 21
206.600098
  0
LINE
  8
0
 10
-342.166687
 20
203.600098
 11
-347.166687
 21
203.600098
  0
LINE
  8
0
 10
-340.666687
 20
194.600098
 11
-348.666687
 21
194.600098
  0
LINE
  8
0
 10
-341.166687
 20
195.400085
 11
-348.166687
 21
195.400085
  0
LINE
  8
0
 10
-341.166687
 20
197.900085
 11
-348.166687
 21
197.900085
  0
LINE
  8
0
 10
-348.666626
 20
197.400116
 11
-348.666626
 21
195.900116
  0
LINE
  8
0
 10
-340.666626
 20
197.400116
 11
-340.666626
 21
195.900116
  0
LINE
  8
0
 10
-348.666748
 20
197.400177
 11
-348.166748
 21
197.900192
  0
LINE
  8
0
 10
-341.166656
 20
197.900223
 11
-340.666626
 21
197.400177
  0
LINE
  8
0
 10
-340.666626
 20
195.899948
 11
-341.166626
 21
195.399948
  0
LINE
  8
0
 10
-348.166595
 20
195.400040
 11
-348.666595
 21
195.900040
  0
LINE
  8
0
 10
-340.666687
 20
197.400085
 11
-348.666687
 21
197.400085
  0
LINE
  8
0
 10
-340.666687
 20
195.900085
 11
-348.666687
 21
195.900085
  0
LINE
  8
0
 10
-347.166626
 20
195.400116
 11
-347.166626
 21
194.600128
  0
LINE
  8
0
 10
-342.166626
 20
195.400116
 11
-342.166626
 21
194.600128
  0
LINE
  8
0
 10
-343.166626
 20
203.100128
 11
-343.166626
 21
197.900116
  0
LINE
  8
0
 10
-346.166626
 20
203.100128
 11
-346.166626
 21
197.900116
  0
LINE
  8
0
 62
     2
 10
-345.896118
 20
203.100128
 11
-345.896118
 21
197.900116
  0
LINE
  8
0
 62
     2
 10
-343.437134
 20
203.100128
 11
-343.437134
 21
197.900116
  0
LINE
  8
0
 10
-347.916626
 20
181.600098
 11
-347.916626
 21
180.100098
  0
LINE
  8
0
 10
-341.416626
 20
181.600098
 11
-341.416626
 21
180.100098
  0
LINE
  8
0
 10
-339.766693
 20
181.600098
 11
-349.566681
 21
181.600098
  0
LINE
  8
0
 10
-348.666626
 20
194.600128
 11
-348.666626
 21
190.600098
  0
LINE
  8
0
 10
-340.666626
 20
194.600128
 11
-340.666626
 21
190.600098
  0
LINE
  8
0
 10
-344.666626
 20
194.242859
 11
-344.666626
 21
191.600159
  0
LINE
  8
0
 10
-339.766663
 20
190.600098
 11
-349.566681
 21
190.600098
  0
LINE
  8
0
 10
-349.566620
 20
190.600128
 11
-349.566620
 21
181.600098
  0
LINE
  8
0
 10
-339.766632
 20
190.600128
 11
-339.766632
 21
181.600098
  0
LINE
  8
0
 10
-340.766693
 20
180.100098
 11
-348.566681
 21
180.100098
  0
LINE
  8
0
 10
-348.666626
 20
180.100098
 11
-348.666626
 21
178.500000
  0
LINE
  8
0
 10
-340.666626
 20
180.100098
 11
-340.666626
 21
178.500000
  0
LINE
  8
0
 10
-363.166626
 20
176.500000
 11
-363.166626
 21
169.200012
  0
LINE
  8
0
 10
-328.166626
 20
178.500000
 11
-328.166626
 21
154.300049
  0
LINE
  8
0
  6
CENTER
 62
     2
 10
-364.803864
 20
128.499939
 11
-322.981415
 21
128.499939
  0
LINE
  8
0
 10
-361.166626
 20
178.499939
 11
-353.066650
 21
178.499939
  0
LINE
  8
0
 10
-328.666626
 20
178.500000
 11
-328.666626
 21
78.500000
  0
LINE
  8
0
 10
-363.166626
 20
160.500000
 11
-363.166626
 21
131.500000
  0
LINE
  8
0
 10
-363.166626
 20
160.499939
 11
-352.166687
 21
160.499939
  0
LINE
  8
0
 10
-353.166626
 20
160.500000
 11
-353.166626
 21
96.500000
  0
LINE
  8
0
 10
-363.166626
 20
161.499939
 11
-355.166626
 21
161.499939
  0
LINE
  8
0
 10
-363.166626
 20
96.500000
 11
-363.166626
 21
91.199982
  0
LINE
  8
0
 10
-360.666626
 20
170.350006
 11
-360.666626
 21
169.200012
  0
LINE
  8
0
 10
-358.166626
 20
170.350006
 11
-358.166626
 21
164.649994
  0
LINE
  8
0
 10
-363.166626
 20
169.199951
 11
-360.666626
 21
169.199951
  0
LINE
  8
0
 10
-363.166626
 20
165.799957
 11
-360.666626
 21
165.799957
  0
LINE
  8
0
 10
-360.666626
 20
170.349945
 11
-358.166626
 21
170.349945
  0
LINE
  8
0
 10
-360.666626
 20
164.649933
 11
-358.166626
 21
164.649933
  0
LINE
  8
0
 10
-360.666626
 20
165.800018
 11
-360.666626
 21
164.649994
  0
LINE
  8
0
 10
-354.016602
 20
172.699951
 11
-351.816650
 21
172.699951
  0
LINE
  8
0
 10
-353.066650
 20
178.500000
 11
-353.066650
 21
175.200012
  0
LINE
  8
0
 10
-354.016663
 20
175.200012
 11
-354.016663
 21
172.700012
  0
LINE
  8
0
 10
-360.666626
 20
91.200012
 11
-360.666626
 21
92.350006
  0
LINE
  8
0
 10
-363.166687
 20
91.199921
 11
-360.666687
 21
91.199921
  0
LINE
  8
0
 10
-360.666626
 20
86.649994
 11
-360.666626
 21
87.799988
  0
LINE
  8
0
 10
-363.166687
 20
87.799927
 11
-360.666687
 21
87.799927
  0
LINE
  8
0
 10
-363.166626
 20
87.799988
 11
-363.166626
 21
80.500000
  0
LINE
  8
0
 10
-336.466644
 20
178.499939
 11
-328.166656
 21
178.499939
  0
LINE
  8
0
 10
-349.266632
 20
178.499939
 11
-339.866638
 21
178.499939
  0
LINE
  8
0
 10
-363.166626
 20
165.800018
 11
-363.166626
 21
160.500000
  0
LINE
  8
0
 10
-353.366455
 20
166.499878
 11
-355.166443
 21
161.499924
  0
LINE
  8
0
 10
-352.166656
 20
169.999939
 11
-347.616638
 21
169.999939
  0
LINE
  8
0
 10
-349.266632
 20
178.500000
 11
-349.266632
 21
175.200012
  0
LINE
  8
0
 10
-347.616638
 20
178.500000
 11
-347.616638
 21
170.000000
  0
LINE
  8
0
 10
-351.816620
 20
174.000000
 11
-351.816620
 21
170.000000
  0
LINE
  8
0
 10
-341.016632
 20
176.499939
 11
-339.866638
 21
176.499939
  0
LINE
  8
0
 10
-341.016632
 20
173.999939
 11
-335.316650
 21
173.999939
  0
LINE
  8
0
 10
-339.866638
 20
178.500000
 11
-339.866638
 21
176.500000
  0
LINE
  8
0
 10
-336.466644
 20
178.500000
 11
-336.466644
 21
176.500000
  0
LINE
  8
0
 10
-335.316650
 20
178.500000
 11
-335.316650
 21
174.000000
  0
LINE
  8
0
 10
-341.016632
 20
178.500000
 11
-341.016632
 21
174.000000
  0
LINE
  8
0
 10
-336.466644
 20
176.499939
 11
-335.316650
 21
176.499939
  0
LINE
  8
0
 10
-353.366577
 20
166.499939
 11
-352.166656
 21
166.499939
  0
LINE
  8
0
 10
-354.016663
 20
175.199951
 11
-347.616638
 21
175.199951
  0
LINE
  8
0
 10
-363.166626
 20
125.500000
 11
-363.166626
 21
96.500000
  0
LINE
  8
0
 10
-363.166626
 20
131.499939
 11
-354.666626
 21
131.499939
  0
LINE
  8
0
 10
-354.666626
 20
131.500000
 11
-354.666626
 21
125.500000
  0
LINE
  8
0
 10
-363.166626
 20
125.499939
 11
-354.666626
 21
125.499939
  0
LINE
  8
0
 10
-349.666687
 20
155.863235
 11
-344.666687
 21
158.749985
  0
LINE
  8
0
 10
-344.667053
 20
158.749435
 11
-339.667053
 21
155.862686
  0
LINE
  8
0
 10
-339.666626
 20
155.863251
 11
-339.666626
 21
150.136749
  0
LINE
  8
0
 10
-344.666626
 20
147.250061
 11
-339.666626
 21
150.136810
  0
LINE
  8
0
 10
-349.667053
 20
150.136047
 11
-344.667053
 21
147.249298
  0
LINE
  8
0
 10
-349.666626
 20
155.863251
 11
-349.666626
 21
150.136749
  0
LINE
  8
0
 10
-352.166626
 20
170.000000
 11
-352.166626
 21
87.000000
  0
LINE
  8
0
 10
-361.166687
 20
78.499939
 11
-353.066711
 21
78.499939
  0
LINE
  8
0
 10
-363.166626
 20
96.499939
 11
-352.166687
 21
96.499939
  0
LINE
  8
0
 10
-363.166626
 20
95.499939
 11
-355.166626
 21
95.499939
  0
LINE
  8
0
 10
-357.966675
 20
86.649994
 11
-357.966675
 21
92.350006
  0
LINE
  8
0
 10
-360.666687
 20
92.349945
 11
-358.166687
 21
92.349945
  0
LINE
  8
0
 10
-360.666687
 20
86.649933
 11
-358.166687
 21
86.649933
  0
LINE
  8
0
 10
-354.016663
 20
81.799988
 11
-354.016663
 21
84.299988
  0
LINE
  8
0
 10
-354.016724
 20
81.799927
 11
-353.066650
 21
81.799927
  0
LINE
  8
0
 10
-353.066650
 20
78.500000
 11
-353.066650
 21
81.799988
  0
LINE
  8
0
 10
-354.016724
 20
84.299927
 11
-351.816681
 21
84.299927
  0
LINE
  8
0
 10
-349.266693
 20
78.499939
 11
-346.166687
 21
78.499939
  0
LINE
  8
0
 10
-336.466705
 20
78.499939
 11
-328.166687
 21
78.499939
  0
LINE
  8
0
 10
-353.366455
 20
90.500069
 11
-355.166473
 21
95.500053
  0
LINE
  8
0
 10
-349.266632
 20
78.500000
 11
-349.266632
 21
81.799988
  0
LINE
  8
0
 10
-349.266693
 20
81.799927
 11
-347.616699
 21
81.799927
  0
LINE
  8
0
 10
-347.616638
 20
78.500000
 11
-347.616638
 21
82.099792
  0
LINE
  8
0
 10
-352.166687
 20
86.999939
 11
-348.666687
 21
86.999939
  0
LINE
  8
0
 10
-351.816620
 20
84.299988
 11
-351.816620
 21
87.000000
  0
LINE
  8
0
 10
-339.866638
 20
78.500000
 11
-339.866638
 21
80.500000
  0
LINE
  8
0
 10
-341.016693
 20
80.499939
 11
-339.866699
 21
80.499939
  0
LINE
  8
0
 10
-341.016632
 20
78.500000
 11
-341.016632
 21
82.249939
  0
LINE
  8
0
 10
-340.666687
 20
82.999939
 11
-335.316681
 21
82.999939
  0
LINE
  8
0
 10
-335.316650
 20
78.500000
 11
-335.316650
 21
83.000000
  0
LINE
  8
0
 10
-336.466705
 20
80.499939
 11
-335.316681
 21
80.499939
  0
LINE
  8
0
 10
-336.466644
 20
78.500000
 11
-336.466644
 21
80.500000
  0
LINE
  8
0
 10
-353.366699
 20
90.499939
 11
-352.166687
 21
90.499939
  0
LINE
  8
0
 10
-340.766663
 20
100.499756
 11
-348.566650
 21
100.499756
  0
LINE
  8
0
 10
-346.666656
 20
72.899719
 11
-342.666656
 21
72.899719
  0
LINE
  8
0
 10
-342.166626
 20
73.399841
 11
-342.166626
 21
76.399841
  0
LINE
  8
0
 10
-347.166626
 20
73.399841
 11
-347.166626
 21
76.399841
  0
LINE
  8
0
 10
-342.166748
 20
73.399719
 11
-342.666779
 21
72.899681
  0
LINE
  8
0
 10
-346.666382
 20
72.900200
 11
-347.166382
 21
73.400185
  0
LINE
  8
0
 10
-348.666687
 20
76.899719
 11
-340.666687
 21
76.899719
  0
LINE
  8
0
 10
-347.166840
 20
76.399879
 11
-346.666809
 21
76.899910
  0
LINE
  8
0
 10
-342.666229
 20
76.900169
 11
-342.166260
 21
76.400177
  0
LINE
  8
0
 10
-347.166656
 20
73.399719
 11
-342.166656
 21
73.399719
  0
LINE
  8
0
 10
-347.166656
 20
76.399719
 11
-342.166656
 21
76.399719
  0
LINE
  8
0
 10
-348.566650
 20
99.899750
 11
-340.766663
 21
99.899750
  0
LINE
  8
0
 10
-348.666656
 20
85.399719
 11
-340.666656
 21
85.399719
  0
LINE
  8
0
 10
-348.166656
 20
84.599731
 11
-341.166656
 21
84.599731
  0
LINE
  8
0
 10
-348.166656
 20
82.099731
 11
-341.166656
 21
82.099731
  0
LINE
  8
0
 10
-340.666626
 20
82.599854
 11
-340.666626
 21
84.099854
  0
LINE
  8
0
 10
-348.666626
 20
82.599854
 11
-348.666626
 21
84.099854
  0
LINE
  8
0
 10
-340.666870
 20
82.599907
 11
-341.166870
 21
82.099915
  0
LINE
  8
0
 10
-348.166351
 20
82.100105
 11
-348.666382
 21
82.600136
  0
LINE
  8
0
 10
-348.666534
 20
84.099991
 11
-348.166534
 21
84.599976
  0
LINE
  8
0
 10
-341.166412
 20
84.600044
 11
-340.666412
 21
84.100052
  0
LINE
  8
0
 10
-348.666656
 20
82.599731
 11
-340.666656
 21
82.599731
  0
LINE
  8
0
 10
-348.666656
 20
84.099731
 11
-340.666656
 21
84.099731
  0
LINE
  8
0
 10
-342.166626
 20
84.599854
 11
-342.166626
 21
85.399841
  0
LINE
  8
0
 10
-347.166626
 20
84.599854
 11
-347.166626
 21
85.399841
  0
LINE
  8
0
 10
-346.166626
 20
76.899841
 11
-346.166626
 21
82.099854
  0
LINE
  8
0
 10
-343.166626
 20
76.899841
 11
-343.166626
 21
82.099854
  0
LINE
  8
0
 62
     2
 10
-343.437134
 20
76.899841
 11
-343.437134
 21
82.099854
  0
LINE
  8
0
 62
     2
 10
-345.896118
 20
76.899841
 11
-345.896118
 21
82.099854
  0
LINE
  8
0
 10
-341.416626
 20
98.399841
 11
-341.416626
 21
99.899841
  0
LINE
  8
0
 10
-347.916626
 20
98.399841
 11
-347.916626
 21
99.899841
  0
LINE
  8
0
 10
-340.766632
 20
99.899841
 11
-340.766632
 21
100.499847
  0
LINE
  8
0
 10
-348.566620
 20
99.899841
 11
-348.566620
 21
100.499847
  0
LINE
  8
0
 10
-348.566650
 20
100.499756
 11
-340.766663
 21
100.499756
  0
LINE
  8
0
 10
-349.566650
 20
98.399719
 11
-339.766663
 21
98.399719
  0
LINE
  8
0
 10
-340.666626
 20
85.399780
 11
-340.666626
 21
89.399841
  0
LINE
  8
0
 10
-348.666626
 20
85.399841
 11
-348.666626
 21
89.399841
  0
LINE
  8
0
 10
-344.666626
 20
85.757080
 11
-344.666626
 21
88.399780
  0
LINE
  8
0
 10
-339.766632
 20
89.399841
 11
-339.766632
 21
92.249817
  0
LINE
  8
0
 10
-339.766632
 20
93.649780
 11
-339.766632
 21
98.399841
  0
LINE
  8
0
 10
-349.566620
 20
89.399841
 11
-349.566620
 21
98.399841
  0
LINE
  8
0
 10
-343.166687
 20
78.499939
 11
-339.866699
 21
78.499939
  0
LINE
  8
0
 10
-330.166687
 20
87.499756
 11
-331.666687
 21
87.499756
  0
LINE
  8
0
 10
-337.166626
 20
87.499817
 11
-337.166626
 21
98.399780
  0
LINE
  8
0
 10
-338.666687
 20
89.399780
 11
-349.566681
 21
89.399780
  0
LINE
  8
0
 10
-338.666626
 20
88.999817
 11
-338.666626
 21
96.899780
  0
LINE
  8
0
 10
-332.666626
 20
87.499817
 11
-332.666626
 21
98.399780
  0
LINE
  8
0
 10
-331.666626
 20
87.499817
 11
-331.666626
 21
98.399780
  0
LINE
  8
0
 10
-330.166626
 20
87.499817
 11
-330.166626
 21
98.399780
  0
LINE
  8
0
 10
-332.666687
 20
87.499756
 11
-337.166687
 21
87.499756
  0
LINE
  8
0
 10
-331.666687
 20
98.399719
 11
-330.166687
 21
98.399719
  0
LINE
  8
0
 10
-331.666687
 20
96.249756
 11
-332.666687
 21
96.249756
  0
LINE
  8
0
 10
-331.666687
 20
89.649719
 11
-332.666687
 21
89.649719
  0
LINE
  8
0
 10
-337.166718
 20
98.399826
 11
-338.666718
 21
96.899811
  0
LINE
  8
0
 10
-337.167053
 20
87.499413
 11
-338.667023
 21
88.999382
  0
LINE
  8
0
 10
-337.166687
 20
98.399719
 11
-332.666687
 21
98.399719
  0
LINE
  8
0
 10
-332.666687
 20
92.249756
 11
-344.666687
 21
92.249756
  0
LINE
  8
0
 10
-332.666687
 20
93.649719
 11
-344.666687
 21
93.649719
  0
LINE
  8
0
 10
-336.004974
 20
108.772705
 11
-337.419189
 21
110.186920
  0
LINE
  8
0
 10
-337.418915
 20
110.187157
 11
-340.640900
 21
106.965164
  0
LINE
  8
0
 10
-338.479553
 20
111.247879
 11
-341.701508
 21
108.025932
  0
LINE
  8
0
 10
-336.004669
 20
107.358856
 11
-337.835541
 21
105.527992
  0
LINE
  8
0
 10
-341.307953
 20
112.662048
 11
-343.138794
 21
110.831184
  0
LINE
  8
0
 10
-338.479828
 20
111.247581
 11
-339.894043
 21
112.661797
  0
LINE
  8
0
 10
-328.167023
 20
102.699631
 11
-328.666992
 21
103.199623
  0
LINE
  8
0
 10
-328.166779
 20
154.300034
 11
-328.666748
 21
153.800049
  0
LINE
  8
0
 10
-342.666718
 20
49.899780
 11
-346.666718
 21
49.899780
  0
LINE
  8
0
 10
-347.166626
 20
50.399872
 11
-347.166626
 21
53.399872
  0
LINE
  8
0
 10
-342.166626
 20
50.399872
 11
-342.166626
 21
53.399872
  0
LINE
  8
0
 10
-347.166351
 20
50.400188
 11
-346.666351
 21
49.900169
  0
LINE
  8
0
 10
-342.666748
 20
49.899815
 11
-342.166718
 21
50.399857
  0
LINE
  8
0
 10
-342.666718
 20
53.899780
 11
-346.666718
 21
53.899780
  0
LINE
  8
0
 10
-342.166412
 20
53.400150
 11
-342.666382
 21
53.900139
  0
LINE
  8
0
 10
-346.666748
 20
53.899750
 11
-347.166687
 21
53.399803
  0
LINE
  8
0
 10
-342.166718
 20
50.399780
 11
-347.166718
 21
50.399780
  0
LINE
  8
0
 10
-342.166718
 20
53.399780
 11
-347.166718
 21
53.399780
  0
LINE
  8
0
 10
-340.666718
 20
62.399780
 11
-348.666718
 21
62.399780
  0
LINE
  8
0
 10
-341.166718
 20
61.599792
 11
-348.166718
 21
61.599792
  0
LINE
  8
0
 10
-341.166718
 20
59.099792
 11
-348.166718
 21
59.099792
  0
LINE
  8
0
 10
-348.666626
 20
59.599884
 11
-348.666626
 21
61.099884
  0
LINE
  8
0
 10
-340.666626
 20
59.599884
 11
-340.666626
 21
61.099884
  0
LINE
  8
0
 10
-348.666504
 20
59.600174
 11
-348.166504
 21
59.100132
  0
LINE
  8
0
 10
-341.166809
 20
59.099827
 11
-340.666779
 21
59.599861
  0
LINE
  8
0
 10
-340.666443
 20
61.100063
 11
-341.166412
 21
61.600060
  0
LINE
  8
0
 10
-348.166687
 20
61.599903
 11
-348.666718
 21
61.099861
  0
LINE
  8
0
 10
-340.666718
 20
59.599792
 11
-348.666718
 21
59.599792
  0
LINE
  8
0
 10
-340.666718
 20
61.099792
 11
-348.666718
 21
61.099792
  0
LINE
  8
0
 10
-347.166626
 20
61.599884
 11
-347.166626
 21
62.399872
  0
LINE
  8
0
 10
-342.166626
 20
61.599884
 11
-342.166626
 21
62.399872
  0
LINE
  8
0
 10
-343.166626
 20
53.899872
 11
-343.166626
 21
59.099884
  0
LINE
  8
0
 10
-346.166626
 20
53.899872
 11
-346.166626
 21
59.099884
  0
LINE
  8
0
 62
     2
 10
-345.896118
 20
53.899872
 11
-345.896118
 21
59.099884
  0
LINE
  8
0
 62
     2
 10
-343.437134
 20
53.899872
 11
-343.437134
 21
59.099884
  0
LINE
  8
0
 10
-347.916626
 20
75.399902
 11
-347.916626
 21
76.899902
  0
LINE
  8
0
 10
-341.416626
 20
75.399902
 11
-341.416626
 21
76.899902
  0
LINE
  8
0
 10
-339.766724
 20
75.399780
 11
-342.166687
 21
75.399780
  0
LINE
  8
0
 10
-348.666626
 20
62.399872
 11
-348.666626
 21
66.399902
  0
LINE
  8
0
 10
-340.666626
 20
62.399872
 11
-340.666626
 21
66.399902
  0
LINE
  8
0
 10
-344.666626
 20
62.757141
 11
-344.666626
 21
65.399841
  0
LINE
  8
0
 10
-339.766693
 20
66.399780
 11
-349.566711
 21
66.399780
  0
LINE
  8
0
 10
-349.566620
 20
66.399872
 11
-349.566620
 21
75.399902
  0
LINE
  8
0
 10
-339.766632
 20
66.399872
 11
-339.766632
 21
75.399902
  0
LINE
  8
0
 10
-348.666626
 20
76.899902
 11
-348.666626
 21
78.500000
  0
LINE
  8
0
 10
-340.666626
 20
76.899902
 11
-340.666626
 21
78.500000
  0
LINE
  8
0
 10
-347.166687
 20
75.399780
 11
-349.566711
 21
75.399780
  0
LINE
  8
0
 10
-352.166656
 20
173.999939
 11
-347.616638
 21
173.999939
  0
LINE
  8
0
 10
-354.016663
 20
174.199951
 11
-347.616638
 21
174.199951
  0
LINE
  8
0
 62
     2
 10
-350.166626
 20
176.800018
 11
-350.166626
 21
175.200012
  0
LINE
  8
0
 62
     2
 10
-352.166626
 20
176.800018
 11
-352.166626
 21
175.200012
  0
LINE
  8
0
 10
-354.016663
 20
174.199951
 11
-347.616638
 21
174.199951
  0
LINE
  8
0
 10
-354.016663
 20
175.199951
 11
-347.616638
 21
175.199951
  0
LINE
  8
0
 62
     2
 10
-353.066650
 20
176.799927
 11
-349.266663
 21
176.799927
  0
LINE
  8
0
 62
     2
 10
-350.166626
 20
174.200012
 11
-350.166626
 21
174.000000
  0
LINE
  8
0
 62
     2
 10
-352.166626
 20
174.200012
 11
-352.166626
 21
174.000000
  0
LINE
  8
0
 62
     2
 10
-350.158722
 20
177.617996
 11
-351.166718
 21
178.199966
  0
LINE
  8
0
 62
     2
 10
-351.166718
 20
178.200027
 11
-352.145599
 21
177.634857
  0
LINE
  8
0
 10
-328.166626
 20
102.699493
 11
-328.166626
 21
78.500000
  0
LINE
  8
0
 10
-246.666641
 20
-18.000000
 11
-246.666641
 21
-14.939034
  0
LINE
  8
0
 10
-229.666672
 20
3.500000
 11
310.333344
 21
3.500000
  0
LINE
  8
0
 10
-235.666641
 20
3.000000
 11
-235.666641
 21
-20.500000
  0
LINE
  8
0
 10
-229.666672
 20
3.500000
 11
-229.666672
 21
-31.499996
  0
LINE
  8
0
 10
-229.666672
 20
-31.499996
 11
310.333344
 21
-31.499996
  0
LINE
  8
0
 10
-235.666641
 20
3.000000
 11
-229.666672
 21
3.000000
  0
LINE
  8
0
 10
-229.666672
 20
1.000000
 11
310.333344
 21
1.000000
  0
LINE
  8
0
 10
-229.666672
 20
0.000000
 11
310.333344
 21
0.000000
  0
LINE
  8
0
 10
-235.666641
 20
-20.500000
 11
-229.666672
 21
-20.500000
  0
LINE
  8
0
 10
-229.666672
 20
-8.199997
 11
310.333344
 21
-8.199997
  0
LINE
  8
0
 10
-229.666672
 20
-4.800003
 11
310.333344
 21
-4.800003
  0
LINE
  8
0
 10
-229.666672
 20
-17.799995
 11
310.333344
 21
-17.799995
  0
LINE
  8
0
 10
-229.666672
 20
-21.199997
 11
310.333344
 21
-21.199997
  0
LINE
  8
0
 10
-235.666641
 20
-3.650002
 11
-229.666672
 21
-3.650002
  0
LINE
  8
0
 10
-235.666641
 20
-9.349998
 11
-229.666672
 21
-9.349998
  0
LINE
  8
0
 10
-235.666641
 20
-16.649994
 11
-229.666672
 21
-16.649994
  0
LINE
  8
0
 10
-237.166641
 20
-8.000000
 11
-235.666641
 21
-8.000000
  0
LINE
  8
0
 10
-254.666519
 20
-9.800047
 11
-255.666534
 21
-10.800059
  0
LINE
  8
0
 10
-255.666489
 20
-14.799805
 11
-254.666504
 21
-15.799784
  0
LINE
  8
0
 10
-254.666641
 20
-9.799995
 11
-247.166641
 21
-9.799995
  0
LINE
  8
0
 10
-255.666641
 20
-10.799957
 11
-255.666641
 21
-14.799965
  0
LINE
  8
0
 10
-254.666641
 20
-9.799957
 11
-254.666641
 21
-15.799957
  0
LINE
  8
0
 62
     2
 10
-255.666641
 20
-10.799995
 11
-246.666641
 21
-10.799995
  0
LINE
  8
0
 62
     2
 10
-255.666641
 20
-14.799995
 11
-246.666641
 21
-14.799995
  0
LINE
  8
0
 10
-254.666641
 20
-15.799995
 11
-246.666641
 21
-15.799995
  0
LINE
  8
0
 10
-238.166641
 20
-15.590591
 11
-238.166641
 21
-10.409401
  0
LINE
  8
0
 10
-246.166641
 20
-15.590591
 11
-246.166641
 21
-10.409401
  0
LINE
  8
0
 10
-246.166702
 20
-15.590757
 11
-242.166687
 21
-17.900160
  0
LINE
  8
0
 10
-242.166718
 20
-8.100130
 11
-238.166687
 21
-10.409548
  0
LINE
  8
0
 10
-246.166794
 20
-10.409209
 11
-242.166779
 21
-8.099807
  0
LINE
  8
0
 10
-242.166718
 20
-17.899818
 11
-238.166763
 21
-15.590446
  0
LINE
  8
0
 10
-246.666641
 20
-18.000000
 11
-235.666641
 21
-18.000000
  0
LINE
  8
0
 10
-237.166641
 20
2.000000
 11
-247.166641
 21
2.000000
  0
LINE
  8
0
 10
-247.166641
 20
-13.000000
 11
-247.166641
 21
-0.500000
  0
LINE
  8
0
 10
-237.166641
 20
-13.000000
 11
-237.166641
 21
-0.500000
  0
LINE
  8
0
 10
-237.166641
 20
0.500000
 11
-247.166641
 21
0.500000
  0
LINE
  8
0
 10
-237.166641
 20
-0.500000
 11
-247.166641
 21
-0.500000
  0
LINE
  8
0
 10
-237.166641
 20
-5.000000
 11
-247.166641
 21
-5.000000
  0
LINE
  8
0
 10
-245.466629
 20
-0.500000
 11
-245.466629
 21
0.500000
  0
LINE
  8
0
 10
-238.866623
 20
-0.500000
 11
-238.866623
 21
0.500000
  0
LINE
  8
0
 10
-247.166641
 20
0.500000
 11
-247.166641
 21
2.000000
  0
LINE
  8
0
 10
-237.166641
 20
0.500000
 11
-237.166641
 21
2.000000
  0
LINE
  8
0
 10
335.333282
 20
-9.800001
 11
336.333282
 21
-10.800002
  0
LINE
  8
0
 10
336.333282
 20
-14.799920
 11
335.333282
 21
-15.799921
  0
LINE
  8
0
 10
335.333344
 20
-15.799995
 11
321.333344
 21
-15.799995
  0
LINE
  8
0
 10
335.333344
 20
-9.799995
 11
321.333344
 21
-9.799995
  0
LINE
  8
0
 10
336.333344
 20
-10.799957
 11
336.333344
 21
-14.799965
  0
LINE
  8
0
 10
335.333344
 20
-9.799957
 11
335.333344
 21
-15.799957
  0
LINE
  8
0
 62
     2
 10
336.333344
 20
-10.799995
 11
321.333344
 21
-10.799995
  0
LINE
  8
0
 62
     2
 10
336.333344
 20
-14.799995
 11
321.333344
 21
-14.799995
  0
LINE
  8
0
 10
310.333344
 20
3.500000
 11
310.333344
 21
-5.000000
  0
LINE
  8
0
 10
316.333344
 20
3.000000
 11
316.333344
 21
-5.000000
  0
LINE
  8
0
 10
310.333344
 20
3.000000
 11
316.333344
 21
3.000000
  0
LINE
  8
0
 10
310.333344
 20
-20.500000
 11
316.333344
 21
-20.500000
  0
LINE
  8
0
 10
310.333344
 20
-3.650002
 11
316.333344
 21
-3.650002
  0
LINE
  8
0
 10
310.333344
 20
-9.349998
 11
316.333344
 21
-9.349998
  0
LINE
  8
0
 10
310.333344
 20
-16.649994
 11
316.333344
 21
-16.649994
  0
LINE
  8
0
 10
321.333344
 20
-8.000000
 11
321.333344
 21
-17.799995
  0
LINE
  8
0
 10
316.333344
 20
-17.799995
 11
321.333344
 21
-17.799995
  0
LINE
  8
0
 10
325.333344
 20
-15.799995
 11
325.333344
 21
-16.299995
  0
LINE
  8
0
 10
321.333344
 20
-16.299995
 11
325.333344
 21
-16.299995
  0
LINE
  8
0
 10
316.333344
 20
-12.799995
 11
321.333344
 21
-12.799995
  0
LINE
  8
0
 10
317.833344
 20
2.000000
 11
327.833344
 21
2.000000
  0
LINE
  8
0
 10
327.833344
 20
0.500000
 11
327.833344
 21
2.000000
  0
LINE
  8
0
 10
317.833344
 20
0.500000
 11
317.833344
 21
2.000000
  0
LINE
  8
0
 10
317.833344
 20
0.500000
 11
327.833344
 21
0.500000
  0
LINE
  8
0
 10
326.133331
 20
-0.500000
 11
326.133331
 21
0.500000
  0
LINE
  8
0
 10
319.533325
 20
-0.500000
 11
319.533325
 21
0.500000
  0
LINE
  8
0
 10
317.833344
 20
-0.500000
 11
327.833344
 21
-0.500000
  0
LINE
  8
0
 10
327.833344
 20
-9.799995
 11
327.833344
 21
-8.000000
  0
LINE
  8
0
 62
     2
 10
40.333332
 20
6.812424
 11
40.333332
 21
-33.366272
  0
LINE
  8
0
 10
251.333298
 20
-8.199997
 11
251.333298
 21
-4.800003
  0
LINE
  8
0
 10
277.333313
 20
-8.199997
 11
277.333313
 21
-4.800003
  0
LINE
  8
0
 10
261.933319
 20
-8.199997
 11
261.933319
 21
-4.800003
  0
LINE
  8
0
 10
266.733307
 20
-8.199997
 11
266.733307
 21
-4.800003
  0
LINE
  8
0
 10
263.717834
 20
-5.884364
 11
264.968414
 21
-7.134942
  0
LINE
  8
0
 10
263.715393
 20
-7.118014
 11
265.014099
 21
-5.819324
  0
LINE
  8
0
 10
277.333313
 20
-8.000000
 11
337.452667
 21
-8.000000
  0
LINE
  8
0
 10
277.333313
 20
-5.000000
 11
338.256531
 21
-5.000000
  0
LINE
  8
0
 10
310.333344
 20
-8.000000
 11
310.333344
 21
-31.499996
  0
LINE
  8
0
 10
316.333344
 20
-8.000000
 11
316.333344
 21
-20.500000
  0
LINE
  8
0
 10
317.833344
 20
-5.000000
 11
317.833344
 21
-0.500000
  0
LINE
  8
0
 10
327.833344
 20
-5.000000
 11
327.833344
 21
-0.500000
  0
LINE
  8
0
  6
PHANTOM
 62
     2
 10
338.432526
 20
-9.941074
 11
340.322174
 21
-2.888884
  0
LINE
  8
0
 10
252.333298
 20
-8.199997
 11
252.333298
 21
-4.800003
  0
LINE
  8
0
  6
PHANTOM
 62
     2
 10
336.932526
 20
-9.941069
 11
338.822174
 21
-2.888879
  0
LINE
  8
0
 10
-229.666672
 20
-113.300018
 11
-5.949520
 21
-113.300018
  0
LINE
  8
0
 10
-229.666672
 20
-195.700012
 11
-123.209427
 21
-195.700012
  0
LINE
  8
0
  6
CENTER
 62
     2
 10
-241.344498
 20
-154.500000
 11
320.855988
 21
-154.500000
  0
LINE
  8
0
 10
-235.666641
 20
-104.500008
 11
316.333282
 21
-104.500008
  0
LINE
  8
0
 10
-183.666672
 20
-145.500000
 11
-152.666672
 21
-145.500000
  0
LINE
  8
0
 10
-183.666672
 20
-163.500000
 11
-152.666672
 21
-163.500000
  0
LINE
  8
0
 10
-229.666672
 20
-121.500000
 11
310.333313
 21
-121.500000
  0
LINE
  8
0
 10
-235.666641
 20
-104.500008
 11
-235.666641
 21
-204.499969
  0
LINE
  8
0
 10
-228.666672
 20
-145.500000
 11
-227.666672
 21
-145.500000
  0
LINE
  8
0
 10
-228.666672
 20
-163.500000
 11
-227.666672
 21
-163.500000
  0
LINE
  8
0
 10
-136.676987
 20
-135.749908
 11
-140.666641
 21
-135.749908
  0
LINE
  8
0
 10
-136.676987
 20
-124.249908
 11
-140.666641
 21
-124.249908
  0
LINE
  8
0
 10
-135.667053
 20
-133.999710
 11
-136.677414
 21
-135.749710
  0
LINE
  8
0
 10
-135.666306
 20
-125.999817
 11
-136.676666
 21
-124.249817
  0
LINE
  8
0
 10
-135.666672
 20
-134.000000
 11
-135.666672
 21
-126.000000
  0
LINE
  8
0
 10
-121.666641
 20
-126.999908
 11
-135.666641
 21
-126.999908
  0
LINE
  8
0
 10
-121.666641
 20
-132.999908
 11
-135.666641
 21
-132.999908
  0
LINE
  8
0
 62
     2
 10
-120.666641
 20
-131.999908
 11
-135.666641
 21
-131.999908
  0
LINE
  8
0
 62
     2
 10
-120.666641
 20
-127.999908
 11
-135.666641
 21
-127.999908
  0
LINE
  8
0
 10
-198.916672
 20
-143.271698
 11
-198.916672
 21
-144.728333
  0
LINE
  8
0
 10
-200.166656
 20
-142.550034
 11
-201.416641
 21
-143.271713
  0
LINE
  8
0
 10
-198.916748
 20
-143.271744
 11
-200.166733
 21
-142.550064
  0
LINE
  8
0
 10
-201.416672
 20
-143.271698
 11
-201.416672
 21
-144.728333
  0
LINE
  8
0
 10
-200.166626
 20
-145.450027
 11
-201.416626
 21
-144.728348
  0
LINE
  8
0
 10
-198.916626
 20
-144.728256
 11
-200.166672
 21
-145.449966
  0
LINE
  8
0
 10
-210.916672
 20
-165.728333
 11
-210.916672
 21
-164.271698
  0
LINE
  8
0
 10
-210.917282
 20
-164.272598
 11
-212.167297
 21
-163.550903
  0
LINE
  8
0
 10
-212.167007
 20
-166.450302
 11
-213.417023
 21
-165.728622
  0
LINE
  8
0
 10
-212.166611
 20
-163.550003
 11
-213.416595
 21
-164.271683
  0
LINE
  8
0
 10
-213.416672
 20
-165.728302
 11
-213.416672
 21
-164.271698
  0
LINE
  8
0
 10
-210.916656
 20
-165.728302
 11
-212.166641
 21
-166.449982
  0
LINE
  8
0
 10
-200.166855
 20
-166.450363
 11
-201.416901
 21
-165.728653
  0
LINE
  8
0
 10
-201.416672
 20
-165.728302
 11
-201.416672
 21
-164.271698
  0
LINE
  8
0
 10
-200.166702
 20
-163.550064
 11
-201.416672
 21
-164.271729
  0
LINE
  8
0
 10
-198.916672
 20
-165.728333
 11
-198.916672
 21
-164.271698
  0
LINE
  8
0
 10
-198.916443
 20
-164.271378
 11
-200.166428
 21
-163.549698
  0
LINE
  8
0
 10
-198.916718
 20
-165.728317
 11
-200.166702
 21
-166.449997
  0
LINE
  8
0
 10
-212.166687
 20
-142.549942
 11
-213.416672
 21
-143.271622
  0
LINE
  8
0
 10
-213.416672
 20
-143.271698
 11
-213.416672
 21
-144.728333
  0
LINE
  8
0
 10
-212.166702
 20
-145.450058
 11
-213.416687
 21
-144.728378
  0
LINE
  8
0
 10
-210.916656
 20
-144.728195
 11
-212.166702
 21
-145.449905
  0
LINE
  8
0
 10
-210.916672
 20
-143.271698
 11
-210.916672
 21
-144.728333
  0
LINE
  8
0
 10
-210.916763
 20
-143.271896
 11
-212.166748
 21
-142.550217
  0
LINE
  8
0
 10
-136.158646
 20
-127.149933
 11
-140.666641
 21
-127.149933
  0
LINE
  8
0
 10
-136.158646
 20
-132.849915
 11
-140.666641
 21
-132.849915
  0
LINE
  8
0
 10
-229.666672
 20
-116.700012
 11
310.333313
 21
-116.700012
  0
LINE
  8
0
 10
-235.666641
 20
-196.000000
 11
-229.666672
 21
-196.000000
  0
LINE
  8
0
 10
-235.666641
 20
-113.000000
 11
-229.666672
 21
-113.000000
  0
LINE
  8
0
 10
-182.166672
 20
-127.250000
 11
-182.166672
 21
-132.750000
  0
LINE
  8
0
 10
-144.466721
 20
-170.500000
 11
-144.466721
 21
-187.500000
  0
LINE
  8
0
 10
-144.466660
 20
-173.999969
 11
-135.166672
 21
-173.999969
  0
LINE
  8
0
 10
-145.666672
 20
-170.499969
 11
-144.466660
 21
-170.499969
  0
LINE
  8
0
 10
-145.666672
 20
-187.499969
 11
-144.466660
 21
-187.499969
  0
LINE
  8
0
 10
-134.666672
 20
-182.500153
 11
-134.666672
 21
-174.500183
  0
LINE
  8
0
 10
-135.166672
 20
-174.000183
 11
-135.166672
 21
-182.500183
  0
LINE
  8
0
 10
-135.167068
 20
-174.000168
 11
-134.666901
 21
-174.500336
  0
LINE
  8
0
 10
-144.466660
 20
-184.000153
 11
-143.666672
 21
-184.000153
  0
LINE
  8
0
 10
-143.666733
 20
-184.000183
 11
-143.666733
 21
-182.500153
  0
LINE
  8
0
 10
-137.166702
 20
-233.100128
 11
-141.166702
 21
-233.100128
  0
LINE
  8
0
 10
-141.666672
 20
-232.600189
 11
-141.666672
 21
-229.600189
  0
LINE
  8
0
 10
-136.666672
 20
-232.600189
 11
-136.666672
 21
-229.600189
  0
LINE
  8
0
 10
-141.666870
 20
-232.600525
 11
-141.166870
 21
-233.100525
  0
LINE
  8
0
 10
-137.166748
 20
-233.100174
 11
-136.666763
 21
-232.600174
  0
LINE
  8
0
 10
-137.166702
 20
-229.100128
 11
-141.166702
 21
-229.100128
  0
LINE
  8
0
 10
-136.666901
 20
-229.600327
 11
-137.166916
 21
-229.100311
  0
LINE
  8
0
 10
-141.166809
 20
-229.100204
 11
-141.666794
 21
-229.600189
  0
LINE
  8
0
 10
-136.666702
 20
-232.600128
 11
-141.666702
 21
-232.600128
  0
LINE
  8
0
 10
-136.666702
 20
-229.600128
 11
-141.666702
 21
-229.600128
  0
LINE
  8
0
 10
-135.266708
 20
-183.100159
 11
-143.066696
 21
-183.100159
  0
LINE
  8
0
 10
-135.166702
 20
-220.600128
 11
-143.166702
 21
-220.600128
  0
LINE
  8
0
 10
-135.666702
 20
-221.400116
 11
-142.666702
 21
-221.400116
  0
LINE
  8
0
 10
-135.666702
 20
-223.900116
 11
-142.666702
 21
-223.900116
  0
LINE
  8
0
 10
-143.166672
 20
-223.400177
 11
-143.166672
 21
-221.900177
  0
LINE
  8
0
 10
-135.166672
 20
-223.400177
 11
-135.166672
 21
-221.900177
  0
LINE
  8
0
 10
-143.167053
 20
-223.400528
 11
-142.667038
 21
-223.900543
  0
LINE
  8
0
 10
-135.666794
 20
-223.900146
 11
-135.166763
 21
-223.400116
  0
LINE
  8
0
 10
-135.166443
 20
-221.899948
 11
-135.666443
 21
-221.399963
  0
LINE
  8
0
 10
-142.666672
 20
-221.400070
 11
-143.166672
 21
-221.900055
  0
LINE
  8
0
 10
-135.166702
 20
-223.400116
 11
-143.166702
 21
-223.400116
  0
LINE
  8
0
 10
-135.166702
 20
-221.900116
 11
-143.166702
 21
-221.900116
  0
LINE
  8
0
 10
-141.666672
 20
-221.400177
 11
-141.666672
 21
-220.600189
  0
LINE
  8
0
 10
-136.666672
 20
-221.400177
 11
-136.666672
 21
-220.600189
  0
LINE
  8
0
 10
-137.666672
 20
-229.100189
 11
-137.666672
 21
-223.900177
  0
LINE
  8
0
 10
-140.666672
 20
-229.100189
 11
-140.666672
 21
-223.900177
  0
LINE
  8
0
 62
     2
 10
-140.396164
 20
-229.100189
 11
-140.396164
 21
-223.900177
  0
LINE
  8
0
 62
     2
 10
-137.937180
 20
-229.100189
 11
-137.937180
 21
-223.900177
  0
LINE
  8
0
 10
-142.416672
 20
-207.600128
 11
-142.416672
 21
-206.100128
  0
LINE
  8
0
 10
-135.916672
 20
-207.600128
 11
-135.916672
 21
-206.100128
  0
LINE
  8
0
 10
-143.066696
 20
-183.100159
 11
-143.066696
 21
-182.500153
  0
LINE
  8
0
 10
-135.266708
 20
-183.100159
 11
-135.266708
 21
-182.500153
  0
LINE
  8
0
 10
-134.266708
 20
-207.600128
 11
-144.066696
 21
-207.600128
  0
LINE
  8
0
 10
-143.166672
 20
-220.600189
 11
-143.166672
 21
-216.600128
  0
LINE
  8
0
 10
-135.166672
 20
-220.600189
 11
-135.166672
 21
-216.600128
  0
LINE
  8
0
 10
-139.166672
 20
-220.242889
 11
-139.166672
 21
-217.600189
  0
LINE
  8
0
 10
-134.266678
 20
-216.600128
 11
-144.066696
 21
-216.600128
  0
LINE
  8
0
 10
-144.066696
 20
-216.600189
 11
-144.066696
 21
-207.600128
  0
LINE
  8
0
 10
-134.266708
 20
-216.600189
 11
-134.266708
 21
-207.600128
  0
LINE
  8
0
 10
-134.666672
 20
-182.500153
 11
-143.666672
 21
-182.500153
  0
LINE
  8
0
 10
-218.666672
 20
-121.500000
 11
-218.666672
 21
-187.500000
  0
LINE
  8
0
 10
-183.666672
 20
-183.000000
 11
-153.166672
 21
-183.000000
  0
LINE
  8
0
 10
-183.666672
 20
-175.000000
 11
-153.166672
 21
-175.000000
  0
LINE
  8
0
 10
-228.166672
 20
-125.000000
 11
-228.166672
 21
-137.000000
  0
LINE
  8
0
 10
-229.666672
 20
-125.000000
 11
-228.166672
 21
-125.000000
  0
LINE
  8
0
 10
-229.666672
 20
-137.000000
 11
-228.166672
 21
-137.000000
  0
LINE
  8
0
 10
-144.466690
 20
-174.299988
 11
-145.666672
 21
-174.299988
  0
LINE
  8
0
 10
-144.466690
 20
-183.699982
 11
-145.666672
 21
-183.699982
  0
LINE
  8
0
 10
-183.666672
 20
-127.250000
 11
-182.166672
 21
-127.250000
  0
LINE
  8
0
 10
-183.666672
 20
-132.750000
 11
-182.166672
 21
-132.750000
  0
LINE
  8
0
 10
-229.166672
 20
-181.750000
 11
-227.666672
 21
-181.750000
  0
LINE
  8
0
 10
-229.166672
 20
-176.250000
 11
-227.666672
 21
-176.250000
  0
LINE
  8
0
 10
-229.166672
 20
-176.000000
 11
-229.166672
 21
-182.000000
  0
LINE
  8
0
 10
-140.666672
 20
-122.000000
 11
-140.666672
 21
-169.000000
  0
LINE
  8
0
 10
-236.866623
 20
-138.500000
 11
-236.866623
 21
-121.500000
  0
LINE
  8
0
 10
-236.866653
 20
-135.000031
 11
-246.166641
 21
-135.000031
  0
LINE
  8
0
 10
-235.666641
 20
-138.500031
 11
-236.866653
 21
-138.500031
  0
LINE
  8
0
 10
-235.666641
 20
-121.500031
 11
-236.866653
 21
-121.500031
  0
LINE
  8
0
 10
-246.666641
 20
-126.499847
 11
-246.666641
 21
-134.499817
  0
LINE
  8
0
 10
-238.266617
 20
-126.499847
 11
-246.066605
 21
-126.499847
  0
LINE
  8
0
 10
-246.166641
 20
-134.999817
 11
-246.166641
 21
-126.499817
  0
LINE
  8
0
 10
-246.166870
 20
-135.000320
 11
-246.667023
 21
-134.500153
  0
LINE
  8
0
 10
-236.866653
 20
-124.999847
 11
-237.666641
 21
-124.999847
  0
LINE
  8
0
 10
-237.666611
 20
-124.999847
 11
-237.666611
 21
-126.499847
  0
LINE
  8
0
 10
-244.166611
 20
-98.899818
 11
-240.166611
 21
-98.899818
  0
LINE
  8
0
 10
-239.666641
 20
-99.399834
 11
-239.666641
 21
-102.399834
  0
LINE
  8
0
 10
-244.666641
 20
-99.399834
 11
-244.666641
 21
-102.399834
  0
LINE
  8
0
 10
-239.666916
 20
-99.400108
 11
-240.166931
 21
-98.900101
  0
LINE
  8
0
 10
-244.166458
 20
-98.900009
 11
-244.666458
 21
-99.399994
  0
LINE
  8
0
 10
-244.166611
 20
-102.899818
 11
-240.166611
 21
-102.899818
  0
LINE
  8
0
 10
-244.666946
 20
-102.400253
 11
-244.166931
 21
-102.900269
  0
LINE
  8
0
 10
-240.166489
 20
-102.899979
 11
-239.666473
 21
-102.399971
  0
LINE
  8
0
 10
-244.666611
 20
-99.399818
 11
-239.666611
 21
-99.399818
  0
LINE
  8
0
 10
-244.666611
 20
-102.399818
 11
-239.666611
 21
-102.399818
  0
LINE
  8
0
 10
-246.066605
 20
-125.899841
 11
-238.266617
 21
-125.899841
  0
LINE
  8
0
 10
-246.166611
 20
-111.399841
 11
-238.166611
 21
-111.399841
  0
LINE
  8
0
 10
-245.666611
 20
-110.599854
 11
-238.666611
 21
-110.599854
  0
LINE
  8
0
 10
-245.666611
 20
-108.099854
 11
-238.666611
 21
-108.099854
  0
LINE
  8
0
 10
-238.166641
 20
-108.599854
 11
-238.166641
 21
-110.099854
  0
LINE
  8
0
 10
-246.166641
 20
-108.599854
 11
-246.166641
 21
-110.099854
  0
LINE
  8
0
 10
-238.166916
 20
-108.600166
 11
-238.666916
 21
-108.100151
  0
LINE
  8
0
 10
-245.666458
 20
-108.099960
 11
-246.166473
 21
-108.599968
  0
LINE
  8
0
 10
-246.166519
 20
-110.099655
 11
-245.666519
 21
-110.599648
  0
LINE
  8
0
 10
-238.666580
 20
-110.600037
 11
-238.166580
 21
-110.100052
  0
LINE
  8
0
 10
-246.166611
 20
-108.599854
 11
-238.166611
 21
-108.599854
  0
LINE
  8
0
 10
-246.166611
 20
-110.099854
 11
-238.166611
 21
-110.099854
  0
LINE
  8
0
 10
-239.666641
 20
-110.599854
 11
-239.666641
 21
-111.399841
  0
LINE
  8
0
 10
-244.666641
 20
-110.599854
 11
-244.666641
 21
-111.399841
  0
LINE
  8
0
 10
-243.666641
 20
-102.899834
 11
-243.666641
 21
-108.099854
  0
LINE
  8
0
 10
-240.666641
 20
-102.899834
 11
-240.666641
 21
-108.099854
  0
LINE
  8
0
 62
     2
 10
-240.937149
 20
-102.899834
 11
-240.937149
 21
-108.099854
  0
LINE
  8
0
 62
     2
 10
-243.396133
 20
-102.899834
 11
-243.396133
 21
-108.099854
  0
LINE
  8
0
 10
-238.916641
 20
-124.399872
 11
-238.916641
 21
-125.899872
  0
LINE
  8
0
 10
-245.416641
 20
-124.399872
 11
-245.416641
 21
-125.899872
  0
LINE
  8
0
 10
-238.266647
 20
-125.899872
 11
-238.266647
 21
-126.499847
  0
LINE
  8
0
 10
-246.066635
 20
-125.899872
 11
-246.066635
 21
-126.499847
  0
LINE
  8
0
 10
-247.066605
 20
-124.399841
 11
-237.266617
 21
-124.399841
  0
LINE
  8
0
 10
-238.166641
 20
-111.399841
 11
-238.166641
 21
-115.399872
  0
LINE
  8
0
 10
-246.166641
 20
-111.399841
 11
-246.166641
 21
-115.399872
  0
LINE
  8
0
 10
-242.166641
 20
-111.757111
 11
-242.166641
 21
-114.399811
  0
LINE
  8
0
 10
-247.066635
 20
-115.399841
 11
-237.266617
 21
-115.399841
  0
LINE
  8
0
 10
-237.266647
 20
-115.399841
 11
-237.266647
 21
-124.399872
  0
LINE
  8
0
 10
-247.066635
 20
-115.399841
 11
-247.066635
 21
-124.399872
  0
LINE
  8
0
 10
-246.666641
 20
-126.499847
 11
-237.666641
 21
-126.499847
  0
LINE
  8
0
 10
-153.166672
 20
-173.000000
 11
-153.166672
 21
-185.000000
  0
LINE
  8
0
 10
-153.166672
 20
-173.000000
 11
-151.666672
 21
-173.000000
  0
LINE
  8
0
 10
-153.166672
 20
-185.000000
 11
-151.666672
 21
-185.000000
  0
LINE
  8
0
 10
-160.666641
 20
-153.049988
 11
-161.916687
 21
-153.771698
  0
LINE
  8
0
 10
-160.666702
 20
-155.950043
 11
-161.916626
 21
-155.228394
  0
LINE
  8
0
 10
-161.916672
 20
-153.771698
 11
-161.916672
 21
-155.228333
  0
LINE
  8
0
 10
-160.666779
 20
-153.050308
 11
-159.416794
 21
-153.771988
  0
LINE
  8
0
 10
-159.416672
 20
-153.771698
 11
-159.416672
 21
-155.228333
  0
LINE
  8
0
 10
-160.666626
 20
-155.949951
 11
-159.416687
 21
-155.228302
  0
LINE
  8
0
 10
-229.666672
 20
-104.500008
 11
-229.666672
 21
-204.499969
  0
LINE
  8
0
 10
-226.666672
 20
-121.500000
 11
-226.666672
 21
-187.500000
  0
LINE
  8
0
 10
-227.666672
 20
-121.500000
 11
-227.666672
 21
-187.500000
  0
LINE
  8
0
 10
-151.666672
 20
-122.000000
 11
-151.666672
 21
-187.000000
  0
LINE
  8
0
 10
-228.666672
 20
-145.500000
 11
-228.666672
 21
-163.500000
  0
LINE
  8
0
 10
-152.666672
 20
-145.500000
 11
-152.666672
 21
-163.500000
  0
LINE
  8
0
 10
-239.656326
 20
-173.250061
 11
-235.666672
 21
-173.250061
  0
LINE
  8
0
 10
-239.656326
 20
-184.750061
 11
-235.666672
 21
-184.750061
  0
LINE
  8
0
 10
-240.666748
 20
-174.999954
 11
-239.656387
 21
-173.249969
  0
LINE
  8
0
 10
-240.666748
 20
-183.000137
 11
-239.656387
 21
-184.750137
  0
LINE
  8
0
 10
-240.666672
 20
-175.000000
 11
-240.666672
 21
-183.000000
  0
LINE
  8
0
 10
-254.666702
 20
-176.000076
 11
-255.666687
 21
-177.000046
  0
LINE
  8
0
 10
-255.666534
 20
-180.999832
 11
-254.666534
 21
-181.999832
  0
LINE
  8
0
 10
-254.666672
 20
-182.000061
 11
-240.666672
 21
-182.000061
  0
LINE
  8
0
 10
-254.666672
 20
-176.000061
 11
-240.666672
 21
-176.000061
  0
LINE
  8
0
 10
-255.666672
 20
-177.000000
 11
-255.666672
 21
-181.000000
  0
LINE
  8
0
 10
-254.666672
 20
-176.000000
 11
-254.666672
 21
-182.000000
  0
LINE
  8
0
 62
     2
 10
-255.666672
 20
-177.000061
 11
-240.666672
 21
-177.000061
  0
LINE
  8
0
 62
     2
 10
-255.666672
 20
-181.000061
 11
-240.666672
 21
-181.000061
  0
LINE
  8
0
 10
-240.174667
 20
-181.850067
 11
-235.666672
 21
-181.850067
  0
LINE
  8
0
 10
-240.174667
 20
-176.150055
 11
-235.666672
 21
-176.150055
  0
LINE
  8
0
 10
-152.166672
 20
-126.999908
 11
-152.166672
 21
-133.000000
  0
LINE
  8
0
 10
-152.166672
 20
-133.000000
 11
-151.666672
 21
-133.000000
  0
LINE
  8
0
 10
-152.166672
 20
-127.000000
 11
-151.666672
 21
-127.000000
  0
LINE
  8
0
 10
-151.666672
 20
-187.000000
 11
-145.666672
 21
-187.000000
  0
LINE
  8
0
 10
-151.666672
 20
-122.000000
 11
-140.666672
 21
-122.000000
  0
LINE
  8
0
 10
-135.266708
 20
-206.100128
 11
-143.066696
 21
-206.100128
  0
LINE
  8
0
 10
-143.166672
 20
-206.100128
 11
-143.166672
 21
-204.499969
  0
LINE
  8
0
 10
-135.166672
 20
-206.100128
 11
-135.166672
 21
-204.499969
  0
LINE
  8
0
 10
-235.666641
 20
-204.499969
 11
316.333282
 21
-204.499969
  0
LINE
  8
0
 10
-229.666672
 20
-192.300018
 11
310.333313
 21
-192.300018
  0
LINE
  8
0
 10
-229.666672
 20
-187.500000
 11
310.333313
 21
-187.500000
  0
LINE
  8
0
 10
-183.666672
 20
-121.500000
 11
-183.666672
 21
-187.500000
  0
LINE
  8
0
 10
-145.666672
 20
-169.000000
 11
-145.666672
 21
-187.000000
  0
LINE
  8
0
 10
-145.666672
 20
-169.000000
 11
-140.666672
 21
-169.000000
  0
LINE
  8
0
 10
-229.666672
 20
-182.000000
 11
-229.166672
 21
-182.000000
  0
LINE
  8
0
 10
-229.666672
 20
-176.000000
 11
-229.166672
 21
-176.000000
  0
LINE
  8
0
 10
-135.166672
 20
-187.500000
 11
-135.166672
 21
-183.100159
  0
LINE
  8
0
 10
-143.166672
 20
-187.500000
 11
-143.166672
 21
-183.100159
  0
LINE
  8
0
 10
-228.166672
 20
-127.000000
 11
-227.666672
 21
-127.000000
  0
LINE
  8
0
 10
-228.166672
 20
-135.000000
 11
-227.666672
 21
-135.000000
  0
LINE
  8
0
 10
-148.166672
 20
-162.304687
 11
-148.166672
 21
-164.695312
  0
LINE
  8
0
 10
-144.166672
 20
-162.304687
 11
-144.166672
 21
-164.695312
  0
LINE
  8
0
 10
-148.166687
 20
-162.304718
 11
-146.166702
 21
-161.150024
  0
LINE
  8
0
 10
-146.166748
 20
-165.850006
 11
-144.166763
 21
-164.695312
  0
LINE
  8
0
 10
-146.166595
 20
-161.149872
 11
-144.166611
 21
-162.304565
  0
LINE
  8
0
 10
-148.166611
 20
-164.695160
 11
-146.166626
 21
-165.849854
  0
LINE
  8
0
 10
-146.166611
 20
-143.149887
 11
-144.166626
 21
-144.304581
  0
LINE
  8
0
 10
-144.166672
 20
-144.304687
 11
-144.166672
 21
-146.695312
  0
LINE
  8
0
 10
-148.166641
 20
-144.304718
 11
-146.166656
 21
-143.150024
  0
LINE
  8
0
 10
-148.166672
 20
-144.304687
 11
-148.166672
 21
-146.695312
  0
LINE
  8
0
 10
-148.166595
 20
-146.695312
 11
-146.166611
 21
-147.850006
  0
LINE
  8
0
 10
-146.166687
 20
-147.850037
 11
-144.166672
 21
-146.695328
  0
LINE
  8
0
 10
-226.666672
 20
-151.500000
 11
-218.666672
 21
-151.500000
  0
LINE
  8
0
 10
-226.666672
 20
-157.500000
 11
-218.666672
 21
-157.500000
  0
LINE
  8
0
 10
-139.666672
 20
-135.749908
 11
-139.666672
 21
-173.999969
  0
LINE
  8
0
 10
-120.666672
 20
-132.500000
 11
21.333332
 21
-132.500000
  0
LINE
  8
0
 10
-134.666672
 20
-176.500000
 11
21.333332
 21
-176.500000
  0
LINE
  8
0
 10
-226.666672
 20
-122.500000
 11
-218.666672
 21
-122.500000
  0
LINE
  8
0
 10
-226.666672
 20
-186.500000
 11
-218.666672
 21
-186.500000
  0
LINE
  8
0
 10
310.333313
 20
-195.699982
 11
86.616180
 21
-195.699982
  0
LINE
  8
0
 10
310.333313
 20
-113.299988
 11
86.616196
 21
-113.299988
  0
LINE
  8
0
 10
264.333344
 20
-163.499969
 11
233.333328
 21
-163.499969
  0
LINE
  8
0
 10
264.333344
 20
-145.499969
 11
233.333328
 21
-145.499969
  0
LINE
  8
0
 10
316.333282
 20
-204.500031
 11
316.333282
 21
-104.500038
  0
LINE
  8
0
 10
309.333344
 20
-163.499969
 11
308.333344
 21
-163.499969
  0
LINE
  8
0
 10
309.333344
 20
-145.499969
 11
308.333344
 21
-145.499969
  0
LINE
  8
0
  6
CENTER
 62
     2
 10
82.833298
 20
-202.806976
 11
82.833298
 21
-191.626190
  0
LINE
  8
0
  6
CENTER
 62
     2
 10
88.063683
 20
-112.000000
 11
77.686737
 21
-112.000000
  0
LINE
  8
0
  6
CENTER
 62
     2
 10
82.833298
 20
-117.584534
 11
82.833298
 21
-106.900665
  0
LINE
  8
0
  6
CENTER
 62
     2
 10
88.523148
 20
-196.999969
 11
76.845444
 21
-196.999969
  0
LINE
  8
0
 10
218.343643
 20
-173.250061
 11
222.333298
 21
-173.250061
  0
LINE
  8
0
 10
218.343643
 20
-184.750061
 11
222.333298
 21
-184.750061
  0
LINE
  8
0
 10
217.333389
 20
-175.000015
 11
218.343750
 21
-173.250015
  0
LINE
  8
0
 10
217.333069
 20
-183.000183
 11
218.343430
 21
-184.750183
  0
LINE
  8
0
 10
217.333298
 20
-175.000031
 11
217.333298
 21
-183.000031
  0
LINE
  8
0
 10
203.333282
 20
-175.999924
 11
202.333298
 21
-176.999893
  0
LINE
  8
0
 10
202.333237
 20
-180.999969
 11
203.333221
 21
-181.999939
  0
LINE
  8
0
 10
203.333298
 20
-182.000061
 11
217.333298
 21
-182.000061
  0
LINE
  8
0
 10
203.333298
 20
-176.000061
 11
217.333298
 21
-176.000061
  0
LINE
  8
0
 10
202.333298
 20
-177.000000
 11
202.333298
 21
-181.000000
  0
LINE
  8
0
 10
203.333298
 20
-176.000000
 11
203.333298
 21
-182.000000
  0
LINE
  8
0
 62
     2
 10
202.333298
 20
-177.000061
 11
217.333298
 21
-177.000061
  0
LINE
  8
0
 62
     2
 10
202.333298
 20
-181.000061
 11
217.333298
 21
-181.000061
  0
LINE
  8
0
 10
279.583313
 20
-165.728333
 11
279.583313
 21
-164.271729
  0
LINE
  8
0
 10
280.833252
 20
-166.449951
 11
282.083252
 21
-165.728271
  0
LINE
  8
0
 10
279.583313
 20
-165.728424
 11
280.833282
 21
-166.450104
  0
LINE
  8
0
 10
282.083313
 20
-165.728333
 11
282.083313
 21
-164.271729
  0
LINE
  8
0
 10
280.833282
 20
-163.550079
 11
282.083282
 21
-164.271759
  0
LINE
  8
0
 10
279.583344
 20
-164.271744
 11
280.833344
 21
-163.550049
  0
LINE
  8
0
 10
291.583313
 20
-143.271698
 11
291.583313
 21
-144.728333
  0
LINE
  8
0
 10
291.583374
 20
-144.728378
 11
292.833405
 21
-145.450073
  0
LINE
  8
0
 10
292.833313
 20
-142.550003
 11
294.083313
 21
-143.271698
  0
LINE
  8
0
 10
292.833344
 20
-145.449921
 11
294.083344
 21
-144.728241
  0
LINE
  8
0
 10
294.083313
 20
-143.271729
 11
294.083313
 21
-144.728333
  0
LINE
  8
0
 10
291.583313
 20
-143.271713
 11
292.833313
 21
-142.550034
  0
LINE
  8
0
 10
280.833313
 20
-142.550018
 11
282.083313
 21
-143.271713
  0
LINE
  8
0
 10
282.083313
 20
-143.271729
 11
282.083313
 21
-144.728333
  0
LINE
  8
0
 10
280.833282
 20
-145.449951
 11
282.083282
 21
-144.728256
  0
LINE
  8
0
 10
279.583313
 20
-143.271698
 11
279.583313
 21
-144.728333
  0
LINE
  8
0
 10
279.583221
 20
-144.728348
 11
280.833221
 21
-145.450043
  0
LINE
  8
0
 10
279.583313
 20
-143.271713
 11
280.833313
 21
-142.550034
  0
LINE
  8
0
 10
292.833374
 20
-166.450058
 11
294.083374
 21
-165.728363
  0
LINE
  8
0
 10
294.083313
 20
-165.728333
 11
294.083313
 21
-164.271729
  0
LINE
  8
0
 10
292.833282
 20
-163.550079
 11
294.083282
 21
-164.271759
  0
LINE
  8
0
 10
291.583344
 20
-164.271790
 11
292.833374
 21
-163.550095
  0
LINE
  8
0
 10
291.583313
 20
-165.728333
 11
291.583313
 21
-164.271729
  0
LINE
  8
0
 10
291.583344
 20
-165.728302
 11
292.833313
 21
-166.449982
  0
LINE
  8
0
 10
217.825302
 20
-181.850067
 11
222.333298
 21
-181.850067
  0
LINE
  8
0
 10
217.825302
 20
-176.150055
 11
222.333298
 21
-176.150055
  0
LINE
  8
0
 10
316.333313
 20
-112.999969
 11
310.333344
 21
-112.999969
  0
LINE
  8
0
 10
316.333313
 20
-195.999969
 11
310.333344
 21
-195.999969
  0
LINE
  8
0
 10
262.833313
 20
-181.750031
 11
262.833313
 21
-176.250031
  0
LINE
  8
0
 10
225.133347
 20
-138.500031
 11
225.133347
 21
-121.500031
  0
LINE
  8
0
 10
225.133316
 20
-135.000031
 11
215.833328
 21
-135.000031
  0
LINE
  8
0
 10
226.333328
 20
-138.500031
 11
225.133316
 21
-138.500031
  0
LINE
  8
0
 10
226.333328
 20
-121.500031
 11
225.133316
 21
-121.500031
  0
LINE
  8
0
 10
215.333328
 20
-126.499878
 11
215.333328
 21
-134.499847
  0
LINE
  8
0
 10
215.833328
 20
-134.999847
 11
215.833328
 21
-126.499847
  0
LINE
  8
0
 10
215.833450
 20
-135.000076
 11
215.333298
 21
-134.499908
  0
LINE
  8
0
 10
225.133316
 20
-124.999817
 11
224.333328
 21
-124.999817
  0
LINE
  8
0
 10
224.333359
 20
-124.999847
 11
224.333359
 21
-126.499847
  0
LINE
  8
0
 10
217.833359
 20
-75.899818
 11
221.833359
 21
-75.899818
  0
LINE
  8
0
 10
222.333328
 20
-76.399849
 11
222.333328
 21
-79.399849
  0
LINE
  8
0
 10
217.333328
 20
-76.399849
 11
217.333328
 21
-79.399849
  0
LINE
  8
0
 10
222.333328
 20
-76.399841
 11
221.833313
 21
-75.899834
  0
LINE
  8
0
 10
217.833359
 20
-75.899887
 11
217.333374
 21
-76.399879
  0
LINE
  8
0
 10
217.833359
 20
-79.899818
 11
221.833359
 21
-79.899818
  0
LINE
  8
0
 10
217.333298
 20
-79.399971
 11
217.833298
 21
-79.899979
  0
LINE
  8
0
 10
221.833405
 20
-79.899849
 11
222.333389
 21
-79.399857
  0
LINE
  8
0
 10
217.333359
 20
-76.399818
 11
222.333359
 21
-76.399818
  0
LINE
  8
0
 10
217.333359
 20
-79.399818
 11
222.333359
 21
-79.399818
  0
LINE
  8
0
 10
215.933365
 20
-125.899841
 11
223.833328
 21
-125.899841
  0
LINE
  8
0
 10
215.833359
 20
-88.399818
 11
223.833359
 21
-88.399818
  0
LINE
  8
0
 10
216.333359
 20
-87.599831
 11
223.333359
 21
-87.599831
  0
LINE
  8
0
 10
216.333359
 20
-85.099831
 11
223.333359
 21
-85.099831
  0
LINE
  8
0
 10
223.833328
 20
-85.599861
 11
223.833328
 21
-87.099861
  0
LINE
  8
0
 10
215.833328
 20
-85.599861
 11
215.833328
 21
-87.099861
  0
LINE
  8
0
 10
223.833313
 20
-85.599854
 11
223.333313
 21
-85.099846
  0
LINE
  8
0
 10
216.333466
 20
-85.099869
 11
215.833435
 21
-85.599899
  0
LINE
  8
0
 10
215.833267
 20
-87.099945
 11
216.333252
 21
-87.599937
  0
LINE
  8
0
 10
223.333298
 20
-87.599899
 11
223.833298
 21
-87.099907
  0
LINE
  8
0
 10
215.833359
 20
-85.599831
 11
223.833359
 21
-85.599831
  0
LINE
  8
0
 10
215.833359
 20
-87.099831
 11
223.833359
 21
-87.099831
  0
LINE
  8
0
 10
222.333328
 20
-87.599861
 11
222.333328
 21
-88.399849
  0
LINE
  8
0
 10
217.333328
 20
-87.599861
 11
217.333328
 21
-88.399849
  0
LINE
  8
0
 10
218.333328
 20
-79.899849
 11
218.333328
 21
-85.099861
  0
LINE
  8
0
 10
221.333328
 20
-79.899849
 11
221.333328
 21
-85.099861
  0
LINE
  8
0
 62
     2
 10
221.062820
 20
-79.899849
 11
221.062820
 21
-85.099861
  0
LINE
  8
0
 62
     2
 10
218.603836
 20
-79.899849
 11
218.603836
 21
-85.099861
  0
LINE
  8
0
 10
223.083328
 20
-101.399879
 11
223.083328
 21
-102.899879
  0
LINE
  8
0
 10
216.583328
 20
-101.399879
 11
216.583328
 21
-102.899879
  0
LINE
  8
0
 10
223.733322
 20
-125.899872
 11
223.733322
 21
-126.499878
  0
LINE
  8
0
 10
215.933334
 20
-125.899872
 11
215.933334
 21
-126.499878
  0
LINE
  8
0
 10
214.933365
 20
-101.399818
 11
224.733353
 21
-101.399818
  0
LINE
  8
0
 10
223.833328
 20
-88.399849
 11
223.833328
 21
-92.399879
  0
LINE
  8
0
 10
215.833328
 20
-88.399849
 11
215.833328
 21
-92.399879
  0
LINE
  8
0
 10
219.833328
 20
-88.757118
 11
219.833328
 21
-91.399818
  0
LINE
  8
0
 10
214.933334
 20
-92.399818
 11
224.733353
 21
-92.399818
  0
LINE
  8
0
 10
224.733322
 20
-92.399849
 11
224.733322
 21
-101.399879
  0
LINE
  8
0
 10
214.933334
 20
-92.399849
 11
214.933334
 21
-101.399879
  0
LINE
  8
0
 10
215.333328
 20
-126.499847
 11
224.333328
 21
-126.499847
  0
LINE
  8
0
 10
299.333313
 20
-187.500000
 11
299.333313
 21
-121.500000
  0
LINE
  8
0
 10
264.333313
 20
-125.999969
 11
233.833328
 21
-125.999969
  0
LINE
  8
0
 10
264.333313
 20
-133.999969
 11
233.833328
 21
-133.999969
  0
LINE
  8
0
 10
308.833313
 20
-185.000031
 11
308.833313
 21
-173.000031
  0
LINE
  8
0
 10
310.333344
 20
-184.999969
 11
308.833344
 21
-184.999969
  0
LINE
  8
0
 10
310.333344
 20
-172.999969
 11
308.833344
 21
-172.999969
  0
LINE
  8
0
 10
225.133347
 20
-134.700012
 11
226.333328
 21
-134.700012
  0
LINE
  8
0
 10
225.133347
 20
-125.300018
 11
226.333328
 21
-125.300018
  0
LINE
  8
0
 10
264.333344
 20
-181.749969
 11
262.833344
 21
-181.749969
  0
LINE
  8
0
 10
264.333344
 20
-176.249969
 11
262.833344
 21
-176.249969
  0
LINE
  8
0
 10
309.833344
 20
-127.249969
 11
308.333344
 21
-127.249969
  0
LINE
  8
0
 10
309.833344
 20
-132.749969
 11
308.333344
 21
-132.749969
  0
LINE
  8
0
 10
309.833313
 20
-133.000031
 11
309.833313
 21
-127.000031
  0
LINE
  8
0
 10
222.333298
 20
-187.000031
 11
222.333298
 21
-140.000031
  0
LINE
  8
0
 10
317.533264
 20
-170.500031
 11
317.533264
 21
-187.500031
  0
LINE
  8
0
 10
317.533325
 20
-173.999939
 11
326.833313
 21
-173.999939
  0
LINE
  8
0
 10
316.333313
 20
-170.499939
 11
317.533325
 21
-170.499939
  0
LINE
  8
0
 10
316.333313
 20
-187.499939
 11
317.533325
 21
-187.499939
  0
LINE
  8
0
 10
327.333282
 20
-182.500183
 11
327.333282
 21
-174.500214
  0
LINE
  8
0
 10
318.933289
 20
-182.500122
 11
326.733276
 21
-182.500122
  0
LINE
  8
0
 10
326.833282
 20
-174.000214
 11
326.833282
 21
-182.500214
  0
LINE
  8
0
 10
326.833191
 20
-174.000046
 11
327.333344
 21
-174.500214
  0
LINE
  8
0
 10
317.533325
 20
-184.000153
 11
318.333313
 21
-184.000153
  0
LINE
  8
0
 10
318.333252
 20
-184.000183
 11
318.333252
 21
-182.500183
  0
LINE
  8
0
 10
324.833282
 20
-210.100128
 11
320.833282
 21
-210.100128
  0
LINE
  8
0
 10
320.333282
 20
-209.600189
 11
320.333282
 21
-206.600189
  0
LINE
  8
0
 10
325.333282
 20
-209.600189
 11
325.333282
 21
-206.600189
  0
LINE
  8
0
 10
320.333252
 20
-209.600220
 11
320.833282
 21
-210.100250
  0
LINE
  8
0
 10
324.833069
 20
-210.100006
 11
325.333069
 21
-209.599991
  0
LINE
  8
0
 10
324.833282
 20
-206.100128
 11
320.833282
 21
-206.100128
  0
LINE
  8
0
 10
325.333344
 20
-206.600067
 11
324.833374
 21
-206.100082
  0
LINE
  8
0
 10
320.832977
 20
-206.100037
 11
320.332977
 21
-206.600052
  0
LINE
  8
0
 10
325.333282
 20
-209.600128
 11
320.333282
 21
-209.600128
  0
LINE
  8
0
 10
325.333282
 20
-206.600128
 11
320.333282
 21
-206.600128
  0
LINE
  8
0
 10
326.733276
 20
-183.100128
 11
318.933289
 21
-183.100128
  0
LINE
  8
0
 10
326.833282
 20
-197.600159
 11
318.833282
 21
-197.600159
  0
LINE
  8
0
 10
326.333282
 20
-198.400146
 11
319.333282
 21
-198.400146
  0
LINE
  8
0
 10
326.333282
 20
-200.900116
 11
319.333282
 21
-200.900116
  0
LINE
  8
0
 10
318.833282
 20
-200.400177
 11
318.833282
 21
-198.900177
  0
LINE
  8
0
 10
326.833282
 20
-200.400177
 11
326.833282
 21
-198.900177
  0
LINE
  8
0
 10
318.833344
 20
-200.400177
 11
319.333344
 21
-200.900162
  0
LINE
  8
0
 10
326.333008
 20
-200.899994
 11
326.833038
 21
-200.399979
  0
LINE
  8
0
 10
326.833344
 20
-198.900177
 11
326.333344
 21
-198.400192
  0
LINE
  8
0
 10
319.333191
 20
-198.400055
 11
318.833191
 21
-198.900055
  0
LINE
  8
0
 10
326.833282
 20
-200.400116
 11
318.833282
 21
-200.400116
  0
LINE
  8
0
 10
326.833282
 20
-198.900146
 11
318.833282
 21
-198.900146
  0
LINE
  8
0
 10
320.333282
 20
-198.400177
 11
320.333282
 21
-197.600189
  0
LINE
  8
0
 10
325.333282
 20
-198.400177
 11
325.333282
 21
-197.600189
  0
LINE
  8
0
 10
324.333282
 20
-206.100189
 11
324.333282
 21
-200.900177
  0
LINE
  8
0
 10
321.333282
 20
-206.100189
 11
321.333282
 21
-200.900177
  0
LINE
  8
0
 62
     2
 10
321.603790
 20
-206.100189
 11
321.603790
 21
-200.900177
  0
LINE
  8
0
 62
     2
 10
324.062775
 20
-206.100189
 11
324.062775
 21
-200.900177
  0
LINE
  8
0
 10
319.583282
 20
-184.600159
 11
319.583282
 21
-183.100159
  0
LINE
  8
0
 10
326.083282
 20
-184.600159
 11
326.083282
 21
-183.100159
  0
LINE
  8
0
 10
318.933289
 20
-183.100159
 11
318.933289
 21
-182.500183
  0
LINE
  8
0
 10
326.733276
 20
-183.100159
 11
326.733276
 21
-182.500183
  0
LINE
  8
0
 10
327.733246
 20
-184.600159
 11
317.933289
 21
-184.600159
  0
LINE
  8
0
 10
318.833282
 20
-197.600189
 11
318.833282
 21
-193.600159
  0
LINE
  8
0
 10
326.833282
 20
-197.600189
 11
326.833282
 21
-193.600159
  0
LINE
  8
0
 10
322.833282
 20
-197.242920
 11
322.833282
 21
-194.600220
  0
LINE
  8
0
 10
327.733307
 20
-193.600159
 11
317.933289
 21
-193.600159
  0
LINE
  8
0
 10
317.933289
 20
-193.600189
 11
317.933289
 21
-184.600159
  0
LINE
  8
0
 10
327.733276
 20
-193.600189
 11
327.733276
 21
-184.600159
  0
LINE
  8
0
 10
327.333313
 20
-182.500122
 11
318.333313
 21
-182.500122
  0
LINE
  8
0
 10
317.533295
 20
-174.299988
 11
316.333313
 21
-174.299988
  0
LINE
  8
0
 10
317.533295
 20
-183.699982
 11
316.333313
 21
-183.699982
  0
LINE
  8
0
 10
233.833298
 20
-136.000031
 11
233.833298
 21
-124.000031
  0
LINE
  8
0
 10
233.833328
 20
-135.999969
 11
232.333328
 21
-135.999969
  0
LINE
  8
0
 10
233.833328
 20
-123.999969
 11
232.333328
 21
-123.999969
  0
LINE
  8
0
 10
241.333298
 20
-155.950089
 11
242.583313
 21
-155.228394
  0
LINE
  8
0
 10
241.333252
 20
-153.050186
 11
242.583191
 21
-153.771835
  0
LINE
  8
0
 10
242.583298
 20
-155.228333
 11
242.583298
 21
-153.771729
  0
LINE
  8
0
 10
241.333252
 20
-155.950119
 11
240.083267
 21
-155.228439
  0
LINE
  8
0
 10
240.083298
 20
-155.228333
 11
240.083298
 21
-153.771729
  0
LINE
  8
0
 10
241.333282
 20
-153.050064
 11
240.083344
 21
-153.771713
  0
LINE
  8
0
 10
307.333313
 20
-187.500000
 11
307.333313
 21
-121.500000
  0
LINE
  8
0
 10
308.333313
 20
-187.500000
 11
308.333313
 21
-121.500031
  0
LINE
  8
0
 10
232.333298
 20
-187.000031
 11
232.333298
 21
-122.000031
  0
LINE
  8
0
 10
309.333313
 20
-163.500031
 11
309.333313
 21
-145.500031
  0
LINE
  8
0
 10
233.333298
 20
-163.500031
 11
233.333298
 21
-145.500031
  0
LINE
  8
0
 10
320.322998
 20
-135.749939
 11
316.333344
 21
-135.749939
  0
LINE
  8
0
 10
320.322998
 20
-124.249939
 11
316.333344
 21
-124.249939
  0
LINE
  8
0
 10
321.333466
 20
-134.000092
 11
320.323120
 21
-135.750092
  0
LINE
  8
0
 10
321.333435
 20
-126.000023
 11
320.323090
 21
-124.250023
  0
LINE
  8
0
 10
321.333313
 20
-134.000031
 11
321.333313
 21
-126.000031
  0
LINE
  8
0
 10
335.333252
 20
-132.999893
 11
336.333221
 21
-131.999924
  0
LINE
  8
0
 10
336.333405
 20
-128.000046
 11
335.333374
 21
-127.000015
  0
LINE
  8
0
 10
335.333344
 20
-126.999939
 11
321.333344
 21
-126.999939
  0
LINE
  8
0
 10
335.333344
 20
-132.999939
 11
321.333344
 21
-132.999939
  0
LINE
  8
0
 10
336.333313
 20
-132.000031
 11
336.333313
 21
-128.000031
  0
LINE
  8
0
 10
335.333313
 20
-133.000031
 11
335.333313
 21
-127.000031
  0
LINE
  8
0
 62
     2
 10
336.333344
 20
-131.999939
 11
321.333344
 21
-131.999939
  0
LINE
  8
0
 62
     2
 10
336.333344
 20
-127.999939
 11
321.333344
 21
-127.999939
  0
LINE
  8
0
 10
320.841339
 20
-127.149933
 11
316.333344
 21
-127.149933
  0
LINE
  8
0
 10
320.841339
 20
-132.849915
 11
316.333344
 21
-132.849915
  0
LINE
  8
0
 10
232.833298
 20
-182.000122
 11
232.833298
 21
-176.000031
  0
LINE
  8
0
 10
232.833328
 20
-175.999969
 11
232.333328
 21
-175.999969
  0
LINE
  8
0
 10
232.833328
 20
-181.999969
 11
232.333328
 21
-181.999969
  0
LINE
  8
0
 10
232.333328
 20
-121.999969
 11
226.333328
 21
-121.999969
  0
LINE
  8
0
 10
232.333328
 20
-186.999969
 11
222.333328
 21
-186.999969
  0
LINE
  8
0
 10
215.933365
 20
-102.899818
 11
223.733353
 21
-102.899818
  0
LINE
  8
0
 10
223.833328
 20
-102.899818
 11
223.833328
 21
-104.500008
  0
LINE
  8
0
 10
215.833328
 20
-102.899818
 11
215.833328
 21
-104.500008
  0
LINE
  8
0
 10
264.333313
 20
-187.500031
 11
264.333313
 21
-121.500000
  0
LINE
  8
0
 10
226.333298
 20
-140.000031
 11
226.333298
 21
-122.000031
  0
LINE
  8
0
 10
226.333298
 20
-139.999969
 11
222.333328
 21
-139.999969
  0
LINE
  8
0
 10
310.333344
 20
-126.999969
 11
309.833344
 21
-126.999969
  0
LINE
  8
0
 10
310.333344
 20
-132.999969
 11
309.833344
 21
-132.999969
  0
LINE
  8
0
  6
CENTER
 62
     2
 10
-2.166668
 20
-106.193054
 11
-2.166668
 21
-117.373840
  0
LINE
  8
0
  6
CENTER
 62
     2
 10
-7.997215
 20
-197.000000
 11
2.972702
 21
-197.000000
  0
LINE
  8
0
  6
CENTER
 62
     2
 10
-2.166668
 20
-192.474182
 11
-2.166668
 21
-202.258163
  0
LINE
  8
0
  6
CENTER
 62
     2
 10
-7.856487
 20
-112.000000
 11
3.821217
 21
-112.000000
  0
LINE
  8
0
 10
-121.666626
 20
-133.000046
 11
-120.666641
 21
-132.000061
  0
LINE
  8
0
 10
-120.666534
 20
-127.999947
 11
-121.666534
 21
-126.999947
  0
LINE
  8
0
 10
-120.666672
 20
-132.000000
 11
-120.666672
 21
-128.000000
  0
LINE
  8
0
 10
-121.666672
 20
-133.000000
 11
-121.666672
 21
-127.000000
  0
LINE
  8
0
 10
1.616199
 20
-195.700012
 11
79.050461
 21
-195.700012
  0
LINE
  8
0
  6
CENTER
 62
     2
 10
40.333332
 20
-100.814461
 11
40.333332
 21
-206.276031
  0
LINE
  8
0
 10
223.833328
 20
-121.500000
 11
223.833328
 21
-126.499847
  0
LINE
  8
0
 10
215.833328
 20
-121.500000
 11
215.833328
 21
-126.899872
  0
LINE
  8
0
 10
308.333313
 20
-183.000000
 11
308.833313
 21
-183.000000
  0
LINE
  8
0
 10
308.333313
 20
-175.000000
 11
308.833313
 21
-175.000000
  0
LINE
  8
0
 10
227.333374
 20
-143.149979
 11
229.333374
 21
-144.304672
  0
LINE
  8
0
 10
229.333328
 20
-144.304718
 11
229.333328
 21
-146.695343
  0
LINE
  8
0
 10
225.333328
 20
-144.304703
 11
227.333313
 21
-143.150009
  0
LINE
  8
0
 10
225.333328
 20
-144.304718
 11
225.333328
 21
-146.695312
  0
LINE
  8
0
 10
225.333359
 20
-146.695297
 11
227.333359
 21
-147.849991
  0
LINE
  8
0
 10
227.333282
 20
-147.850021
 11
229.333298
 21
-146.695312
  0
LINE
  8
0
 10
227.333389
 20
-161.149963
 11
229.333374
 21
-162.304657
  0
LINE
  8
0
 10
229.333328
 20
-162.304718
 11
229.333328
 21
-164.695343
  0
LINE
  8
0
 10
225.333328
 20
-162.304657
 11
227.333313
 21
-161.149963
  0
LINE
  8
0
 10
225.333328
 20
-162.304718
 11
225.333328
 21
-164.695312
  0
LINE
  8
0
 10
225.333313
 20
-164.695251
 11
227.333359
 21
-165.849976
  0
LINE
  8
0
 10
227.333282
 20
-165.850006
 11
229.333298
 21
-164.695297
  0
LINE
  8
0
 10
299.333313
 20
-151.500000
 11
307.333313
 21
-151.500000
  0
LINE
  8
0
 10
299.333313
 20
-157.500000
 11
307.333313
 21
-157.500000
  0
LINE
  8
0
 10
79.050461
 20
-113.299988
 11
1.616199
 21
-113.299988
  0
LINE
  8
0
 10
-136.997818
 20
-195.700012
 11
-5.949528
 21
-195.700012
  0
LINE
  8
0
 10
220.333298
 20
-173.250061
 11
220.333298
 21
-136.000031
  0
LINE
  8
0
 10
310.333313
 20
-204.499969
 11
310.333313
 21
-104.500008
  0
LINE
  8
0
 10
299.333313
 20
-122.500000
 11
307.333313
 21
-122.500000
  0
LINE
  8
0
 10
299.333313
 20
-186.500000
 11
307.333313
 21
-186.500000
  0
LINE
  8
0
 10
25.333332
 20
-136.500000
 11
25.333332
 21
-172.500000
  0
LINE
  8
0
 10
55.333309
 20
-172.500000
 11
55.333309
 21
-136.500000
  0
LINE
  8
0
 10
59.333309
 20
-132.500000
 11
215.333328
 21
-132.500000
  0
LINE
  8
0
 10
59.333309
 20
-176.500000
 11
202.833237
 21
-176.500000
  0
CIRCLE
  8
0
 10
-220.666672
 20
128.500000
 40
1.000000
  0
CIRCLE
  8
0
 10
-190.666672
 20
128.500000
 40
1.000000
  0
CIRCLE
  8
0
 10
-160.666672
 20
128.500000
 40
1.000000
  0
CIRCLE
  8
0
 62
     2
 10
-160.666672
 20
128.500000
 40
1.500000
  0
CIRCLE
  8
0
 62
     2
 10
-190.666672
 20
128.500000
 40
1.500000
  0
CIRCLE
  8
0
 62
     2
 10
-220.666672
 20
128.500000
 40
1.500000
  0
ARC
  8
0
 10
-239.075455
 20
157.000549
 40
1.591202
 50
180.000000
 51
226.308228
  0
ARC
  8
0
 10
-232.166641
 20
153.000000
 40
8.500002
 50
160.409531
 51
199.590363
  0
ARC
  8
0
 10
-239.077774
 20
149.000458
 40
1.588871
 50
133.655609
 51
180.015961
  0
ARC
  8
0
 10
-244.166611
 20
91.176575
 40
5.776714
 50
249.743866
 51
290.256165
  0
ARC
  8
0
 10
-240.166611
 20
91.176544
 40
5.776707
 50
249.743835
 51
290.256134
  0
CIRCLE
  8
0
 10
-242.166641
 20
93.399780
 40
5.000000
  0
CIRCLE
  8
0
 10
-242.166641
 20
93.399780
 40
2.000000
  0
ARC
  8
0
 10
-137.166702
 20
189.023468
 40
5.776714
 50
69.743858
 51
110.256142
  0
ARC
  8
0
 10
-141.166702
 20
189.023468
 40
5.776714
 50
69.743858
 51
110.256142
  0
CIRCLE
  8
0
 62
     2
 10
-2.166668
 20
171.000000
 40
2.500000
  0
CIRCLE
  8
0
 62
     2
 10
82.833328
 20
171.000000
 40
2.500000
  0
CIRCLE
  8
0
 62
     2
 10
-2.166668
 20
86.000000
 40
2.500000
  0
CIRCLE
  8
0
 62
     2
 10
82.833328
 20
86.000000
 40
2.500000
  0
CIRCLE
  8
0
 10
-2.166668
 20
86.000000
 40
2.000000
  0
CIRCLE
  8
0
 10
82.833328
 20
86.000000
 40
2.000000
  0
CIRCLE
  8
0
 10
82.833328
 20
171.000000
 40
2.000000
  0
CIRCLE
  8
0
 10
-2.166668
 20
171.000000
 40
2.000000
  0
ARC
  8
0
 10
40.333332
 20
170.000000
 40
3.000000
 50
180.000000
 51
0.000000
  0
CIRCLE
  8
0
 10
40.333332
 20
86.000000
 40
3.000000
  0
ARC
  8
0
 10
312.833344
 20
104.000000
 40
8.500002
 50
340.409546
 51
19.590317
  0
ARC
  8
0
 10
319.742157
 20
99.999451
 40
1.591217
 50
0.000000
 51
46.307831
  0
ARC
  8
0
 10
319.744476
 20
107.999542
 40
1.588865
 50
313.655792
 51
0.016232
  0
ARC
  8
0
 10
320.833313
 20
165.823456
 40
5.776714
 50
69.743858
 51
110.256142
  0
ARC
  8
0
 10
324.833313
 20
165.823456
 40
5.776714
 50
69.743858
 51
110.256142
  0
CIRCLE
  8
0
 10
322.833344
 20
163.600189
 40
2.000000
  0
CIRCLE
  8
0
 10
322.833344
 20
163.600189
 40
5.000000
  0
CIRCLE
  8
0
 62
     2
 10
301.333344
 20
128.500000
 40
1.500000
  0
CIRCLE
  8
0
 10
301.333344
 20
128.500000
 40
1.000000
  0
CIRCLE
  8
0
 10
271.333344
 20
128.500000
 40
1.000000
  0
CIRCLE
  8
0
 10
241.333328
 20
128.500000
 40
1.000000
  0
CIRCLE
  8
0
 62
     2
 10
241.333328
 20
128.500000
 40
1.500000
  0
CIRCLE
  8
0
 62
     2
 10
271.333344
 20
128.500000
 40
1.500000
  0
ARC
  8
0
 10
217.833359
 20
68.176575
 40
5.776711
 50
249.743851
 51
290.256165
  0
ARC
  8
0
 10
221.833359
 20
68.176544
 40
5.776712
 50
249.743698
 51
290.256134
  0
ARC
  8
0
 10
-135.666672
 20
146.500000
 40
4.000000
 50
90.000000
 51
180.000000
  0
ARC
  8
0
 10
21.333332
 20
146.500000
 40
4.000000
 50
0.000000
 51
89.999969
  0
ARC
  8
0
 10
21.333332
 20
110.500000
 40
4.000000
 50
270.000031
 51
0.000000
  0
ARC
  8
0
 10
-135.666672
 20
110.500000
 40
4.000000
 50
180.000000
 51
270.000000
  0
ARC
  8
0
 10
59.333309
 20
146.500000
 40
4.000000
 50
90.000000
 51
180.000000
  0
ARC
  8
0
 10
216.333298
 20
146.500000
 40
4.000000
 50
0.000000
 51
90.000000
  0
ARC
  8
0
 10
216.333298
 20
110.500000
 40
4.000000
 50
270.000000
 51
0.000000
  0
ARC
  8
0
 10
59.333309
 20
110.500000
 40
4.000000
 50
180.000000
 51
270.000000
  0
ARC
  8
0
 10
-342.666687
 20
188.823395
 40
5.776714
 50
69.743858
 51
110.256142
  0
ARC
  8
0
 10
-346.666687
 20
188.823425
 40
5.776714
 50
69.743858
 51
110.256142
  0
ARC
  8
0
 10
-361.166626
 20
176.500000
 40
2.000000
 50
90.000000
 51
180.000000
  0
ARC
  8
0
 10
-361.166687
 20
80.500000
 40
2.000000
 50
180.000000
 51
270.000000
  0
CIRCLE
  8
0
 10
-343.166656
 20
170.500000
 40
1.750000
  0
CIRCLE
  8
0
 10
-343.166656
 20
170.500000
 40
3.000000
  0
CIRCLE
  8
0
 10
-332.166656
 20
153.500000
 40
3.000000
  0
CIRCLE
  8
0
 10
-332.166656
 20
153.500000
 40
1.750000
  0
ARC
  8
0
 62
     2
 10
-344.666656
 20
153.000000
 40
2.000000
 50
0.000000
 51
75.522499
  0
CIRCLE
  8
0
 62
     2
 10
-344.666656
 20
153.000000
 40
2.000000
  0
CIRCLE
  8
0
 10
-344.666656
 20
153.000000
 40
3.000000
  0
CIRCLE
  8
0
 62
     2
 10
-358.166626
 20
148.500000
 40
2.500000
  0
CIRCLE
  8
0
 10
-358.166626
 20
148.500000
 40
2.000000
  0
CIRCLE
  8
0
 10
-340.954346
 20
110.894287
 40
1.000000
  0
CIRCLE
  8
0
 10
-337.772369
 20
107.712280
 40
1.000000
  0
ARC
  8
0
 10
-336.711700
 20
108.065857
 40
0.999990
 50
314.999390
 51
45.000618
  0
ARC
  8
0
 10
-340.600800
 20
111.954956
 40
0.999990
 50
45.000618
 51
134.999374
  0
ARC
  8
0
 10
-343.166656
 20
86.500000
 40
2.999994
 50
320.698669
 51
33.557270
  0
CIRCLE
  8
0
 10
-332.166656
 20
103.500000
 40
3.000000
  0
CIRCLE
  8
0
 10
-332.166656
 20
103.500000
 40
1.750000
  0
CIRCLE
  8
0
 10
-358.166687
 20
108.500000
 40
2.000000
  0
ARC
  8
0
 10
-344.666656
 20
104.000000
 40
7.000003
 50
77.392281
 51
233.132828
  0
ARC
  8
0
 10
-344.666656
 20
104.000000
 40
4.999994
 50
315.569977
 51
224.430008
  0
ARC
  8
0
 10
-346.666626
 20
91.176575
 40
5.776714
 50
249.743866
 51
290.256165
  0
ARC
  8
0
 10
-342.666626
 20
91.176575
 40
5.776707
 50
249.743835
 51
290.256134
  0
ARC
  8
0
 10
-344.666656
 20
104.000000
 40
4.500010
 50
308.938904
 51
231.061111
  0
ARC
  8
0
 10
-344.666656
 20
104.000000
 40
7.000006
 50
306.867187
 51
12.607610
  0
CIRCLE
  8
0
 62
     2
 10
-358.166687
 20
108.500000
 40
2.500000
  0
ARC
  8
0
 10
-346.666687
 20
68.176575
 40
5.776714
 50
249.743866
 51
290.256165
  0
ARC
  8
0
 10
-342.666687
 20
68.176605
 40
5.776711
 50
249.743851
 51
290.256165
  0
ARC
  8
0
 62
     2
 10
-351.166656
 20
176.210724
 40
1.989282
 50
17.231588
 51
162.768417
  0
CIRCLE
  8
0
 10
-242.166641
 20
-13.000000
 40
2.500000
  0
CIRCLE
  8
0
 10
-242.166641
 20
-13.000000
 40
4.000000
  0
CIRCLE
  8
0
 10
-242.166641
 20
-13.000000
 40
4.900000
  0
CIRCLE
  8
0
 10
219.833328
 20
-13.000000
 40
2.500000
  0
CIRCLE
  8
0
 10
219.833328
 20
-13.000000
 40
4.000000
  0
CIRCLE
  8
0
 10
219.833328
 20
-13.000000
 40
4.900000
  0
CIRCLE
  8
0
 10
264.333313
 20
-6.500000
 40
1.600000
  0
CIRCLE
  8
0
 10
-212.166672
 20
-144.000000
 40
3.250000
  0
CIRCLE
  8
0
 10
-200.166672
 20
-144.000000
 40
3.250000
  0
CIRCLE
  8
0
 10
-212.166672
 20
-165.000000
 40
3.250000
  0
CIRCLE
  8
0
 10
-200.166672
 20
-165.000000
 40
3.250000
  0
ARC
  8
0
 10
-144.166641
 20
-130.000000
 40
8.499997
 50
340.409637
 51
19.590462
  0
ARC
  8
0
 10
-137.257828
 20
-125.999451
 40
1.591200
 50
313.691772
 51
0.000000
  0
ARC
  8
0
 10
-137.255508
 20
-133.999542
 40
1.588867
 50
359.984039
 51
46.344395
  0
ARC
  8
0
 10
-137.166702
 20
-214.823425
 40
5.776714
 50
249.743866
 51
290.256134
  0
ARC
  8
0
 10
-141.166702
 20
-214.823456
 40
5.776714
 50
249.743866
 51
290.256134
  0
ARC
  8
0
 10
-240.166611
 20
-117.176575
 40
5.776707
 50
69.743835
 51
110.256142
  0
ARC
  8
0
 10
-244.166611
 20
-117.176575
 40
5.776707
 50
69.743835
 51
110.256142
  0
CIRCLE
  8
0
 10
-160.666672
 20
-154.500000
 40
3.250000
  0
ARC
  8
0
 10
-239.077805
 20
-175.000458
 40
1.588867
 50
179.984039
 51
226.344391
  0
ARC
  8
0
 10
-232.166672
 20
-179.000000
 40
8.499997
 50
160.409637
 51
199.590363
  0
ARC
  8
0
 10
-239.075485
 20
-183.000549
 40
1.591200
 50
133.691772
 51
180.000000
  0
CIRCLE
  8
0
 10
-146.166672
 20
-145.500000
 40
4.250000
  0
CIRCLE
  8
0
 10
-146.166672
 20
-163.500000
 40
4.250000
  0
CIRCLE
  8
0
 10
-146.166672
 20
-145.500000
 40
4.750000
  0
CIRCLE
  8
0
 10
-146.166672
 20
-163.500000
 40
4.750000
  0
CIRCLE
  8
0
 10
82.833328
 20
-197.000000
 40
2.250000
  0
CIRCLE
  8
0
 10
82.833328
 20
-112.000031
 40
2.250000
  0
CIRCLE
  8
0
 10
292.833344
 20
-165.000031
 40
3.250000
  0
CIRCLE
  8
0
 10
280.833344
 20
-165.000031
 40
3.250000
  0
CIRCLE
  8
0
 10
292.833344
 20
-144.000031
 40
3.250000
  0
CIRCLE
  8
0
 10
280.833344
 20
-144.000031
 40
3.250000
  0
ARC
  8
0
 10
225.833298
 20
-179.000031
 40
8.499997
 50
160.409637
 51
199.590469
  0
ARC
  8
0
 10
218.924484
 20
-183.000549
 40
1.591200
 50
133.691772
 51
180.000000
  0
ARC
  8
0
 10
218.922165
 20
-175.000458
 40
1.588867
 50
179.984039
 51
226.344391
  0
ARC
  8
0
 10
82.833328
 20
-112.000031
 40
4.000002
 50
341.034515
 51
198.965500
  0
ARC
  8
0
 10
82.833328
 20
-197.000000
 40
3.999997
 50
161.034363
 51
18.965635
  0
ARC
  8
0
 10
217.833359
 20
-94.176582
 40
5.776707
 50
69.743835
 51
110.256142
  0
ARC
  8
0
 10
221.833359
 20
-94.176552
 40
5.776714
 50
69.743858
 51
110.256165
  0
ARC
  8
0
 10
320.833282
 20
-191.823456
 40
5.776714
 50
249.743866
 51
290.256134
  0
ARC
  8
0
 10
324.833282
 20
-191.823456
 40
5.776714
 50
249.743866
 51
290.256134
  0
CIRCLE
  8
0
 10
241.333328
 20
-154.500031
 40
3.250000
  0
ARC
  8
0
 10
319.744476
 20
-133.999573
 40
1.588867
 50
359.984039
 51
46.344395
  0
ARC
  8
0
 10
312.833344
 20
-130.000031
 40
8.499997
 50
340.409637
 51
19.590414
  0
ARC
  8
0
 10
319.742157
 20
-125.999481
 40
1.591190
 50
313.691376
 51
0.000000
  0
CIRCLE
  8
0
 10
227.333328
 20
-163.500031
 40
4.250000
  0
CIRCLE
  8
0
 10
227.333328
 20
-145.500031
 40
4.250000
  0
CIRCLE
  8
0
 10
-2.166668
 20
-112.000000
 40
2.250000
  0
CIRCLE
  8
0
 10
-2.166668
 20
-197.000000
 40
2.250000
  0
ARC
  8
0
 10
-2.166668
 20
-197.000000
 40
4.000002
 50
161.034393
 51
18.965403
  0
ARC
  8
0
 10
-2.166668
 20
-112.000000
 40
4.000000
 50
341.034363
 51
198.965622
  0
CIRCLE
  8
0
 10
227.333328
 20
-145.500031
 40
4.750000
  0
CIRCLE
  8
0
 10
227.333328
 20
-163.500031
 40
4.750000
  0
ARC
  8
0
 10
-135.666672
 20
-172.500000
 40
4.000000
 50
180.000000
 51
187.180313
  0
ARC
  8
0
 10
21.333332
 20
-172.500000
 40
4.000000
 50
270.000031
 51
0.000000
  0
ARC
  8
0
 10
21.333332
 20
-136.500000
 40
4.000000
 50
0.000000
 51
89.999969
  0
ARC
  8
0
 10
59.333309
 20
-136.500000
 40
4.000000
 50
90.000000
 51
180.000000
  0
ARC
  8
0
 10
59.333309
 20
-172.500000
 40
4.000000
 50
180.000000
 51
270.000000
  0
TEXT
  8
0
 10
-387.785309
 20
256.649994
 40
9.000000
  1
HANDLING MODULE
 50
0.000000
 41
1.052632
 51
0.000000
  7
STANDARD
  0
TEXT
  8
0
 10
242.014816
 20
-274.500000
 40
12.500000
  1
KOGANEI CORP.
 50
0.000000
 41
1.052632
 51
0.000000
  7
STANDARD
  0
TEXT
  8
0
 10
251.264664
 20
256.649994
 40
9.000000
  1
DATE: AUG ,1994
 50
0.000000
 41
1.052632
 51
0.000000
  7
STANDARD
  0
TEXT
  8
0
 10
-384.785309
 20
224.149994
 40
9.000000
  1
MODEL:SHM72L-LL
 50
0.000000
 41
1.052632
 51
0.000000
  7
STANDARD
  0
ENDSEC
  0
EOF
