  0
SECTION
  2
HEADER
  0
ENDSEC
  0
SECTION
  2
TABLES
  0
TABLE
  2
LTYPE
 70
     4
  0
LTYPE
  2
CONTINUOUS
 70
    64
  3
Solid line
 72
    65
 73
     0
 40
0.000000
  0
LTYPE
  2
DASHED
 70
    64
  3
__ __ __ __ __ __ __ __ __ __ __ __ __ __ __
 72
    65
 73
     2
 40
3.500000
 49
2.000000
 49
-1.500000
  0
LTYPE
  2
CENTER
 70
    64
  3
____ _ ____ _ ____ _ ____ _ ____ _ ____ _ ____
 72
    65
 73
     4
 40
17.500000
 49
13.000000
 49
-1.500000
 49
1.500000
 49
-1.500000
  0
LTYPE
  2
PHANTOM
 70
    64
  3
_____ _ _ _____ _ _ _____ _ _ _____ _ _ ____  
 72
    65
 73
     6
 40
15.500000
 49
8.000000
 49
-1.500000
 49
1.500000
 49
-1.500000
 49
1.500000
 49
-1.500000
  0
LTYPE
  2
DASHED1
 70
    64
  3
__ __ __ __ __ __ __ __ __ __ __ __ __ __ __
 72
    65
 73
     2
 40
1.500000
 49
1.000000
 49
-0.500000
  0
LTYPE
  2
DASHED2
 70
    64
  3
__ __ __ __ __ __ __ __ __ __ __ __ __ __ __
 72
    65
 73
     2
 40
3.500000
 49
2.500000
 49
-1.000000
  0
LTYPE
  2
DASHED3
 70
    64
  3
__ __ __ __ __ __ __ __ __ __ __ __ __ __ __
 72
    65
 73
     2
 40
6.000000
 49
4.000000
 49
-2.000000
  0
LTYPE
  2
DASHED4
 70
    64
  3
__ __ __ __ __ __ __ __ __ __ __ __ __ __ __
 72
    65
 73
     2
 40
12.000000
 49
10.000000
 49
-2.000000
  0
LTYPE
  2
DASHED5
 70
    64
  3
__ __ __ __ __ __ __ __ __ __ __ __ __ __ __
 72
    65
 73
     2
 40
17.000000
 49
15.000000
 49
-2.000000
  0
LTYPE
  2
DASHED6
 70
    64
  3
__ __ __ __ __ __ __ __ __ __ __ __ __ __ __
 72
    65
 73
     2
 40
29.000000
 49
27.000000
 49
-2.000000
  0
LTYPE
  2
PHANTOM1
 70
    64
  3
_____ _ _ _____ _ _ _____ _ _ _____ _ _ ____  
 72
    65
 73
     6
 40
31.000000
 49
25.000000
 49
-1.500000
 49
1.000000
 49
-1.000000
 49
1.000000
 49
-1.500000
  0
LTYPE
  2
PHANTOM2
 70
    64
  3
_____ _ _ _____ _ _ _____ _ _ _____ _ _ ____  
 72
    65
 73
     6
 40
36.000000
 49
27.000000
 49
-1.500000
 49
2.500000
 49
-1.000000
 49
2.500000
 49
-1.500000
  0
LTYPE
  2
PHANTOM3
 70
    64
  3
_____ _ _ _____ _ _ _____ _ _ _____ _ _ ____  
 72
    65
 73
     6
 40
78.000000
 49
64.000000
 49
-2.000000
 49
4.000000
 49
-2.000000
 49
4.000000
 49
-2.000000
  0
LTYPE
  2
CENTER1
 70
    64
  3
____ _ ____ _ ____ _ ____ _ ____ _ ____ _ ____
 72
    65
 73
     4
 40
19.000000
 49
14.000000
 49
-1.000000
 49
3.000000
 49
-1.000000
  0
LTYPE
  2
CENTER2
 70
    64
  3
____ _ ____ _ ____ _ ____ _ ____ _ ____ _ ____
 72
    65
 73
     4
 40
28.500000
 49
25.000000
 49
-1.000000
 49
1.500000
 49
-1.000000
  0
LTYPE
  2
CENTER3
 70
    64
  3
____ _ ____ _ ____ _ ____ _ ____ _ ____ _ ____
 72
    65
 73
     4
 40
31.500000
 49
27.000000
 49
-1.000000
 49
2.500000
 49
-1.000000
  0
LTYPE
  2
CENTER4
 70
    64
  3
____ _ ____ _ ____ _ ____ _ ____ _ ____ _ ____
 72
    65
 73
     4
 40
50.000000
 49
45.000000
 49
-1.000000
 49
3.000000
 49
-1.000000
  0
LTYPE
  2
CENTER5
 70
    64
  3
____ _ ____ _ ____ _ ____ _ ____ _ ____ _ ____
 72
    65
 73
     4
 40
100.000000
 49
92.000000
 49
-2.000000
 49
4.000000
 49
-2.000000
  0
LTYPE
  2
SBK1
 70
    64
  3
______ _ _ _ ______ _ _ _ ______ _ _ _ _____  
 72
    65
 73
     8
 40
60.500000
 49
45.000000
 49
-2.000000
 49
2.500000
 49
-2.000000
 49
2.500000
 49
-2.000000
 49
2.500000
 49
-2.000000
  0
LTYPE
  2
SBK2
 70
    64
  3
______ _ _ _ ______ _ _ _ ______ _ _ _ _____  
 72
    65
 73
     8
 40
84.000000
 49
64.000000
 49
-2.000000
 49
4.000000
 49
-2.000000
 49
4.000000
 49
-2.000000
 49
4.000000
 49
-2.000000
  0
LTYPE
  2
STCH
 70
    64
  3
__ __ __ __ __ __ __ __ __ __ __ __ __ __ __
 72
    65
 73
     2
 40
3.000000
 49
1.000000
 49
-2.000000
  0
LTYPE
  2
MTCH
 70
    64
  3
_____ _ _ _____ _ _ _____ _ _ _____ _ _ ____  
 72
    65
 73
     6
 40
80.000000
 49
66.000000
 49
-2.000000
 49
4.000000
 49
-2.000000
 49
4.000000
 49
-2.000000
  0
ENDTAB
  0
TABLE
  2
LAYER
 70
     1
  0
LAYER
  2
0
 70
     0
 62
     7
  6
CONTINUOUS
  0
ENDTAB
  0
TABLE
  2
STYLE
 70
     1
  0
STYLE
  2
STANDARD
 70
     0
 40
0.000000
 41
1.000000
 50
0.000000
 71
     0
 42
0.200000
  3
txt
  4
BIGFONT
  0
ENDTAB
  0
TABLE
  2
VIEW
 70
     0
  0
ENDTAB
  0
ENDSEC
  0
SECTION
  2
BLOCKS
  0
ENDSEC
  0
SECTION
  2
ENTITIES
  0
LINE
  8
0
 10
-281.250000
 20
195.500000
 11
282.099976
 21
195.500000
  0
LINE
  8
0
 10
-281.250000
 20
195.500000
 11
-281.250000
 21
-195.000000
  0
LINE
  8
0
 10
282.099976
 20
195.500000
 11
282.099976
 21
-195.000000
  0
LINE
  8
0
 10
-281.250000
 20
-195.000000
 11
282.099976
 21
-195.000000
  0
LINE
  8
0
 10
162.099976
 20
-175.000000
 11
162.099976
 21
-195.000000
  0
LINE
  8
0
 10
162.099976
 20
-175.000000
 11
282.099976
 21
-175.000000
  0
LINE
  8
0
 10
162.099976
 20
175.500000
 11
282.099976
 21
175.500000
  0
LINE
  8
0
 10
-281.250000
 20
175.500000
 11
-161.250000
 21
175.500000
  0
LINE
  8
0
 10
162.099976
 20
195.500000
 11
162.099976
 21
175.500000
  0
LINE
  8
0
 10
-161.250000
 20
195.500000
 11
-161.250000
 21
175.500000
  0
LINE
  8
0
  6
CENTER
 62
     2
 10
140.649490
 20
115.253708
 11
140.649490
 21
8.474777
  0
LINE
  8
0
 10
190.649490
 20
112.143906
 11
190.649490
 21
12.243912
  0
LINE
  8
0
 10
90.649506
 20
112.043900
 11
90.649506
 21
12.243912
  0
LINE
  8
0
  6
CENTER
 62
     2
 10
79.163376
 20
62.143921
 11
201.950089
 21
62.143921
  0
LINE
  8
0
 10
84.649521
 20
112.043900
 11
196.649521
 21
112.043900
  0
LINE
  8
0
 10
84.649521
 20
12.243912
 11
196.649521
 21
12.243912
  0
LINE
  8
0
 10
196.649490
 20
112.043900
 11
196.649490
 21
12.243912
  0
LINE
  8
0
 10
84.649506
 20
112.043900
 11
84.649506
 21
12.243912
  0
LINE
  8
0
  6
CENTER
 62
     2
 10
94.000931
 20
104.643906
 11
102.331848
 21
104.643906
  0
LINE
  8
0
  6
CENTER
 62
     2
 10
98.149506
 20
109.013710
 11
98.149506
 21
100.312523
  0
LINE
  8
0
  6
CENTER
 62
     2
 10
155.649490
 20
64.767235
 11
155.649490
 21
59.028152
  0
LINE
  8
0
  6
CENTER
 62
     2
 10
185.649490
 20
64.767235
 11
185.649490
 21
59.583549
  0
LINE
  8
0
 10
143.649490
 20
112.043900
 11
143.649490
 21
103.543900
  0
LINE
  8
0
 10
137.649490
 20
112.043900
 11
137.649490
 21
103.543900
  0
LINE
  8
0
 10
64.149521
 20
89.643921
 11
79.649521
 21
89.643921
  0
LINE
  8
0
 10
64.149521
 20
83.643921
 11
79.649521
 21
83.643921
  0
LINE
  8
0
 10
81.449524
 20
98.143875
 11
65.449524
 21
98.143875
  0
LINE
  8
0
 62
     2
 10
81.449539
 20
97.643875
 11
64.949524
 21
97.643875
  0
LINE
  8
0
 62
     2
 10
81.449539
 20
94.643875
 11
64.949524
 21
94.643875
  0
LINE
  8
0
 10
81.449539
 20
94.143875
 11
65.449524
 21
94.143875
  0
LINE
  8
0
 10
84.649521
 20
100.193893
 11
81.740143
 21
100.193893
  0
LINE
  8
0
 10
81.449524
 20
99.181412
 11
81.449524
 21
93.106400
  0
LINE
  8
0
 10
84.649521
 20
98.168869
 11
81.740158
 21
98.168869
  0
LINE
  8
0
 10
84.649521
 20
94.118881
 11
81.740158
 21
94.118881
  0
LINE
  8
0
 10
64.949524
 20
97.643906
 11
64.949524
 21
94.643890
  0
LINE
  8
0
 10
65.449493
 20
98.143982
 11
64.949493
 21
97.643982
  0
LINE
  8
0
 10
65.449493
 20
94.143890
 11
64.949501
 21
94.643883
  0
LINE
  8
0
 10
65.449524
 20
98.143906
 11
65.449524
 21
94.143906
  0
LINE
  8
0
 10
63.149506
 20
84.643875
 11
63.149506
 21
88.643875
  0
LINE
  8
0
 10
64.149506
 20
83.643875
 11
64.149506
 21
89.643875
  0
LINE
  8
0
 62
     2
 10
63.149521
 20
84.643921
 11
79.649521
 21
84.643921
  0
LINE
  8
0
 62
     2
 10
63.149521
 20
88.643921
 11
79.649521
 21
88.643921
  0
LINE
  8
0
 10
64.149498
 20
83.643898
 11
63.149498
 21
84.643898
  0
LINE
  8
0
 10
63.149578
 20
88.643852
 11
64.149582
 21
89.643860
  0
LINE
  8
0
 10
80.659882
 20
80.893921
 11
84.649521
 21
80.893921
  0
LINE
  8
0
 10
79.649490
 20
82.643967
 11
80.659859
 21
80.893959
  0
LINE
  8
0
 10
79.649414
 20
90.643974
 11
80.659782
 21
92.393982
  0
LINE
  8
0
 10
80.659882
 20
92.393921
 11
84.649521
 21
92.393921
  0
LINE
  8
0
 10
79.649506
 20
82.643906
 11
79.649506
 21
90.643906
  0
LINE
  8
0
 10
80.141556
 20
89.493927
 11
84.649521
 21
89.493927
  0
LINE
  8
0
 10
80.141556
 20
83.793915
 11
84.649521
 21
83.793915
  0
LINE
  8
0
 10
83.449524
 20
46.143906
 11
83.449524
 21
29.143906
  0
LINE
  8
0
 10
83.449509
 20
42.643936
 11
74.149521
 21
42.643936
  0
LINE
  8
0
 10
84.649521
 20
46.143936
 11
83.449509
 21
46.143936
  0
LINE
  8
0
 10
84.649521
 20
29.143936
 11
83.449509
 21
29.143936
  0
LINE
  8
0
 10
199.849503
 20
25.106400
 11
199.849503
 21
31.181412
  0
LINE
  8
0
 10
196.649521
 20
30.168915
 11
199.558884
 21
30.168915
  0
LINE
  8
0
 10
196.649521
 20
26.118912
 11
199.558884
 21
26.118912
  0
LINE
  8
0
 10
196.649521
 20
24.093918
 11
199.558884
 21
24.093918
  0
LINE
  8
0
 10
200.639145
 20
43.393890
 11
196.649521
 21
43.393890
  0
LINE
  8
0
 10
200.639145
 20
31.893890
 11
196.649521
 21
31.893890
  0
LINE
  8
0
 10
201.649612
 20
41.643909
 11
200.639236
 21
43.393932
  0
LINE
  8
0
 10
201.649536
 20
33.643879
 11
200.639175
 21
31.893890
  0
LINE
  8
0
 10
201.649490
 20
41.643921
 11
201.649490
 21
33.643936
  0
LINE
  8
0
 10
201.157486
 20
34.793900
 11
196.649521
 21
34.793900
  0
LINE
  8
0
 10
201.157486
 20
40.493896
 11
196.649521
 21
40.493896
  0
LINE
  8
0
 10
216.349503
 20
26.643906
 11
216.349503
 21
29.643921
  0
LINE
  8
0
 10
215.849503
 20
26.143906
 11
215.849503
 21
30.143906
  0
LINE
  8
0
 10
215.849548
 20
26.143888
 11
216.349564
 21
26.643900
  0
LINE
  8
0
 10
215.849548
 20
30.143953
 11
216.349533
 21
29.643965
  0
LINE
  8
0
 10
199.849503
 20
26.143906
 11
215.849503
 21
26.143906
  0
LINE
  8
0
 62
     2
 10
199.849503
 20
26.643906
 11
216.349503
 21
26.643906
  0
LINE
  8
0
 62
     2
 10
199.849503
 20
29.643906
 11
216.349503
 21
29.643906
  0
LINE
  8
0
 10
199.849503
 20
30.143921
 11
215.849503
 21
30.143921
  0
LINE
  8
0
 10
217.149475
 20
40.643883
 11
218.149475
 21
39.643883
  0
LINE
  8
0
 10
218.149490
 20
35.643974
 11
217.149490
 21
34.643974
  0
LINE
  8
0
 10
217.149521
 20
34.643890
 11
201.649490
 21
34.643890
  0
LINE
  8
0
 10
217.149521
 20
40.643890
 11
201.649490
 21
40.643890
  0
LINE
  8
0
 10
218.149490
 20
39.643936
 11
218.149490
 21
35.643921
  0
LINE
  8
0
 10
217.149490
 20
40.643936
 11
217.149490
 21
34.643936
  0
LINE
  8
0
 62
     2
 10
218.149521
 20
39.643890
 11
201.649490
 21
39.643890
  0
LINE
  8
0
 62
     2
 10
218.149521
 20
35.643890
 11
201.649490
 21
35.643890
  0
LINE
  8
0
 10
73.649521
 20
34.143753
 11
73.649521
 21
42.143723
  0
LINE
  8
0
 10
83.449509
 20
32.643738
 11
82.649521
 21
32.643738
  0
LINE
  8
0
 10
82.649536
 20
32.643753
 11
82.649536
 21
34.143753
  0
LINE
  8
0
 10
82.049545
 20
34.143753
 11
74.249557
 21
34.143753
  0
LINE
  8
0
 10
76.149551
 20
6.543732
 11
80.149551
 21
6.543732
  0
LINE
  8
0
 10
80.649521
 20
7.043747
 11
80.649521
 21
10.043747
  0
LINE
  8
0
 10
75.649521
 20
7.043747
 11
75.649521
 21
10.043747
  0
LINE
  8
0
 10
80.649612
 20
7.043652
 11
80.149597
 21
6.543641
  0
LINE
  8
0
 10
76.149620
 20
6.543790
 11
75.649605
 21
7.043801
  0
LINE
  8
0
 10
76.149551
 20
10.543732
 11
80.149551
 21
10.543732
  0
LINE
  8
0
 10
75.649605
 20
10.043748
 11
76.149605
 21
10.543749
  0
LINE
  8
0
 10
80.149628
 20
10.543763
 11
80.649635
 21
10.043752
  0
LINE
  8
0
 10
75.649551
 20
7.043732
 11
80.649551
 21
7.043732
  0
LINE
  8
0
 10
75.649551
 20
10.043732
 11
80.649551
 21
10.043732
  0
LINE
  8
0
 10
74.249557
 20
33.543747
 11
82.049545
 21
33.543747
  0
LINE
  8
0
 10
74.149551
 20
19.043747
 11
82.149551
 21
19.043747
  0
LINE
  8
0
 10
74.649551
 20
18.243759
 11
81.649551
 21
18.243759
  0
LINE
  8
0
 10
74.649551
 20
15.743759
 11
81.649551
 21
15.743759
  0
LINE
  8
0
 10
82.149521
 20
16.243759
 11
82.149521
 21
17.743759
  0
LINE
  8
0
 10
74.149521
 20
16.243759
 11
74.149521
 21
17.743759
  0
LINE
  8
0
 10
82.149590
 20
16.243668
 11
81.649590
 21
15.743668
  0
LINE
  8
0
 10
74.649673
 20
15.743820
 11
74.149658
 21
16.243832
  0
LINE
  8
0
 10
74.149506
 20
17.743809
 11
74.649498
 21
18.243799
  0
LINE
  8
0
 10
81.649567
 20
18.243832
 11
82.149559
 21
17.743841
  0
LINE
  8
0
 10
74.149551
 20
16.243759
 11
82.149551
 21
16.243759
  0
LINE
  8
0
 10
74.149551
 20
17.743759
 11
82.149551
 21
17.743759
  0
LINE
  8
0
 10
80.649521
 20
18.243759
 11
80.649521
 21
19.043747
  0
LINE
  8
0
 10
75.649521
 20
18.243759
 11
75.649521
 21
19.043747
  0
LINE
  8
0
 10
76.649521
 20
10.543747
 11
76.649521
 21
15.743759
  0
LINE
  8
0
 10
79.649521
 20
10.543747
 11
79.649521
 21
15.743759
  0
LINE
  8
0
 62
     2
 10
79.379013
 20
10.543747
 11
79.379013
 21
15.743759
  0
LINE
  8
0
 62
     2
 10
76.920029
 20
10.543747
 11
76.920029
 21
15.743759
  0
LINE
  8
0
 10
81.399521
 20
32.043777
 11
81.399521
 21
33.543777
  0
LINE
  8
0
 10
74.899521
 20
32.043777
 11
74.899521
 21
33.543777
  0
LINE
  8
0
 10
82.049515
 20
33.543777
 11
82.049515
 21
34.143753
  0
LINE
  8
0
 10
74.249527
 20
33.543777
 11
74.249527
 21
34.143753
  0
LINE
  8
0
 10
73.649521
 20
34.143753
 11
82.649521
 21
34.143753
  0
LINE
  8
0
 10
73.249557
 20
23.043747
 11
75.149521
 21
23.043747
  0
LINE
  8
0
 10
73.249557
 20
32.043732
 11
83.049545
 21
32.043732
  0
LINE
  8
0
 10
82.149521
 20
19.043747
 11
82.149521
 21
23.043777
  0
LINE
  8
0
 10
74.149521
 20
19.043747
 11
74.149521
 21
23.043777
  0
LINE
  8
0
 10
78.149521
 20
19.401016
 11
78.149521
 21
22.043716
  0
LINE
  8
0
 10
83.049515
 20
23.043777
 11
83.049515
 21
26.048691
  0
LINE
  8
0
 10
73.249527
 20
23.043777
 11
73.249527
 21
26.048691
  0
LINE
  8
0
 10
74.149521
 20
42.643723
 11
74.149521
 21
34.143723
  0
LINE
  8
0
 10
81.149521
 20
23.043747
 11
83.049545
 21
23.043747
  0
LINE
  8
0
 10
83.049515
 20
28.038712
 11
83.049515
 21
32.043777
  0
LINE
  8
0
 10
73.249527
 20
28.038712
 11
73.249527
 21
32.043777
  0
LINE
  8
0
 10
74.149681
 20
42.643970
 11
73.649513
 21
42.143795
  0
LINE
  8
0
 10
197.849503
 20
78.143921
 11
197.849503
 21
95.143906
  0
LINE
  8
0
 10
197.849503
 20
81.643921
 11
207.149521
 21
81.643921
  0
LINE
  8
0
 10
196.649521
 20
78.143921
 11
197.849503
 21
78.143921
  0
LINE
  8
0
 10
196.649521
 20
95.143906
 11
197.849503
 21
95.143906
  0
LINE
  8
0
 10
207.649490
 20
90.144058
 11
207.649490
 21
82.144089
  0
LINE
  8
0
 10
207.149490
 20
81.644089
 11
207.149490
 21
90.144089
  0
LINE
  8
0
 10
207.149323
 20
81.643944
 11
207.649475
 21
82.144104
  0
LINE
  8
0
 10
197.849503
 20
91.644119
 11
198.649490
 21
91.644119
  0
LINE
  8
0
 10
198.649490
 20
91.644089
 11
198.649490
 21
90.144058
  0
LINE
  8
0
 10
199.249496
 20
90.144104
 11
207.049484
 21
90.144104
  0
LINE
  8
0
 10
205.149490
 20
117.744125
 11
201.149490
 21
117.744125
  0
LINE
  8
0
 10
200.649490
 20
117.244095
 11
200.649490
 21
114.244095
  0
LINE
  8
0
 10
205.649490
 20
117.244095
 11
205.649490
 21
114.244095
  0
LINE
  8
0
 10
200.649460
 20
117.244118
 11
201.149475
 21
117.744125
  0
LINE
  8
0
 10
205.149353
 20
117.743965
 11
205.649368
 21
117.243950
  0
LINE
  8
0
 10
205.149490
 20
113.744125
 11
201.149490
 21
113.744125
  0
LINE
  8
0
 10
205.649750
 20
114.243774
 11
205.149734
 21
113.743767
  0
LINE
  8
0
 10
201.149292
 20
113.744049
 11
200.649307
 21
114.244041
  0
LINE
  8
0
 10
205.649490
 20
117.244125
 11
200.649490
 21
117.244125
  0
LINE
  8
0
 10
205.649490
 20
114.244125
 11
200.649490
 21
114.244125
  0
LINE
  8
0
 10
207.049484
 20
90.744110
 11
199.249496
 21
90.744110
  0
LINE
  8
0
 10
207.149490
 20
105.244125
 11
199.149490
 21
105.244125
  0
LINE
  8
0
 10
206.649490
 20
106.044113
 11
199.649490
 21
106.044113
  0
LINE
  8
0
 10
206.649490
 20
108.544113
 11
199.649490
 21
108.544113
  0
LINE
  8
0
 10
199.149490
 20
108.044083
 11
199.149490
 21
106.544083
  0
LINE
  8
0
 10
207.149490
 20
108.044083
 11
207.149490
 21
106.544083
  0
LINE
  8
0
 10
199.149704
 20
108.043823
 11
199.649689
 21
108.543808
  0
LINE
  8
0
 10
206.649292
 20
108.543983
 11
207.149307
 21
108.043968
  0
LINE
  8
0
 10
207.149551
 20
106.544006
 11
206.649551
 21
106.044014
  0
LINE
  8
0
 10
199.649353
 20
106.043930
 11
199.149368
 21
106.543915
  0
LINE
  8
0
 10
207.149490
 20
108.044113
 11
199.149490
 21
108.044113
  0
LINE
  8
0
 10
207.149490
 20
106.544113
 11
199.149490
 21
106.544113
  0
LINE
  8
0
 10
200.649490
 20
106.044083
 11
200.649490
 21
105.244095
  0
LINE
  8
0
 10
205.649490
 20
106.044083
 11
205.649490
 21
105.244095
  0
LINE
  8
0
 10
204.649490
 20
113.744095
 11
204.649490
 21
108.544083
  0
LINE
  8
0
 10
201.649490
 20
113.744095
 11
201.649490
 21
108.544083
  0
LINE
  8
0
 62
     2
 10
201.919998
 20
113.744095
 11
201.919998
 21
108.544083
  0
LINE
  8
0
 62
     2
 10
204.378983
 20
113.744095
 11
204.378983
 21
108.544083
  0
LINE
  8
0
 10
199.899490
 20
92.244064
 11
199.899490
 21
90.744064
  0
LINE
  8
0
 10
206.399490
 20
92.244064
 11
206.399490
 21
90.744064
  0
LINE
  8
0
 10
199.249527
 20
90.744064
 11
199.249527
 21
90.144058
  0
LINE
  8
0
 10
207.049515
 20
90.744064
 11
207.049515
 21
90.144058
  0
LINE
  8
0
 10
207.649521
 20
90.144104
 11
198.649490
 21
90.144104
  0
LINE
  8
0
 10
208.049484
 20
101.244125
 11
206.149521
 21
101.244125
  0
LINE
  8
0
 10
208.049484
 20
92.244125
 11
198.249496
 21
92.244125
  0
LINE
  8
0
 10
199.149490
 20
105.244095
 11
199.149490
 21
101.244064
  0
LINE
  8
0
 10
207.149490
 20
105.244095
 11
207.149490
 21
101.244064
  0
LINE
  8
0
 10
203.149490
 20
104.886826
 11
203.149490
 21
102.244125
  0
LINE
  8
0
 10
198.249527
 20
101.244064
 11
198.249527
 21
98.239120
  0
LINE
  8
0
 10
208.049515
 20
101.244064
 11
208.049515
 21
98.239120
  0
LINE
  8
0
 10
200.149521
 20
101.244125
 11
198.249496
 21
101.244125
  0
LINE
  8
0
 10
198.249527
 20
96.249100
 11
198.249527
 21
92.244064
  0
LINE
  8
0
 10
208.049515
 20
96.249100
 11
208.049515
 21
92.244064
  0
LINE
  8
0
 10
90.649521
 20
88.143921
 11
190.649521
 21
88.143921
  0
LINE
  8
0
 10
90.649521
 20
36.143921
 11
190.649521
 21
36.143921
  0
LINE
  8
0
 10
90.649521
 20
87.643921
 11
190.649521
 21
87.643921
  0
LINE
  8
0
 10
90.649521
 20
36.643921
 11
190.649521
 21
36.643921
  0
LINE
  8
0
  6
CENTER
 62
     2
 10
135.100159
 20
19.643906
 11
146.833633
 21
19.643906
  0
LINE
  8
0
  6
CENTER
 62
     2
 10
125.649490
 20
64.767235
 11
125.649490
 21
59.028152
  0
LINE
  8
0
  6
CENTER
 62
     2
 10
95.649490
 20
64.767235
 11
95.649490
 21
59.583549
  0
LINE
  8
0
  6
CENTER
 62
     2
 10
187.298050
 20
104.643906
 11
178.967133
 21
104.643906
  0
LINE
  8
0
  6
CENTER
 62
     2
 10
183.149475
 20
109.013710
 11
183.149475
 21
100.312523
  0
LINE
  8
0
  6
CENTER
 62
     2
 10
94.000931
 20
19.643936
 11
102.331848
 21
19.643936
  0
LINE
  8
0
  6
CENTER
 62
     2
 10
98.149506
 20
15.274132
 11
98.149506
 21
23.975319
  0
LINE
  8
0
  6
CENTER
 62
     2
 10
183.149475
 20
15.274132
 11
183.149475
 21
23.975319
  0
LINE
  8
0
  6
CENTER
 62
     2
 10
187.298050
 20
19.643936
 11
178.967133
 21
19.643936
  0
LINE
  8
0
 10
-43.850525
 20
110.143982
 11
-43.850525
 21
103.343979
  0
LINE
  8
0
  6
CENTER
 62
     2
 10
-46.337387
 20
62.143921
 11
-3.390656
 21
62.143921
  0
LINE
  8
0
 10
-41.850487
 20
12.143936
 11
-33.750496
 21
12.143936
  0
LINE
  8
0
 10
-41.850471
 20
112.143921
 11
-33.750481
 21
112.143921
  0
LINE
  8
0
 10
-9.350510
 20
112.143997
 11
-9.350510
 21
12.143982
  0
LINE
  8
0
 10
-43.850525
 20
94.143982
 11
-43.850525
 21
65.143982
  0
LINE
  8
0
 10
-43.850479
 20
30.143936
 11
-32.850479
 21
30.143936
  0
LINE
  8
0
 10
-43.850479
 20
94.143921
 11
-32.850479
 21
94.143921
  0
LINE
  8
0
 10
-33.850517
 20
94.143982
 11
-33.850517
 21
30.143982
  0
LINE
  8
0
 10
-43.850479
 20
29.143936
 11
-35.850479
 21
29.143936
  0
LINE
  8
0
 10
-43.850479
 20
95.143921
 11
-35.850479
 21
95.143921
  0
LINE
  8
0
 10
-43.850525
 20
30.143982
 11
-43.850525
 21
24.343964
  0
LINE
  8
0
 10
-41.350525
 20
104.493988
 11
-41.350525
 21
103.343979
  0
LINE
  8
0
 10
-38.850525
 20
104.493988
 11
-38.850525
 21
98.793976
  0
LINE
  8
0
 10
-43.850441
 20
103.343918
 11
-41.350441
 21
103.343918
  0
LINE
  8
0
 10
-43.850456
 20
99.943924
 11
-41.350456
 21
99.943924
  0
LINE
  8
0
 10
-41.350441
 20
104.493927
 11
-38.850441
 21
104.493927
  0
LINE
  8
0
 10
-41.350456
 20
98.793915
 11
-38.850456
 21
98.793915
  0
LINE
  8
0
 10
-41.350525
 20
99.943985
 11
-41.350525
 21
98.793976
  0
LINE
  8
0
 10
-34.700462
 20
108.843918
 11
-33.750450
 21
108.843918
  0
LINE
  8
0
 10
-34.700462
 20
106.343918
 11
-32.500450
 21
106.343918
  0
LINE
  8
0
 10
-33.750526
 20
112.143982
 11
-33.750526
 21
108.843979
  0
LINE
  8
0
 10
-34.700523
 20
108.843979
 11
-34.700523
 21
106.343979
  0
LINE
  8
0
 10
-38.850525
 20
19.793976
 11
-38.850525
 21
25.493988
  0
LINE
  8
0
 10
-41.350487
 20
25.493942
 11
-38.850487
 21
25.493942
  0
LINE
  8
0
 10
-41.350525
 20
24.343964
 11
-41.350525
 21
25.493988
  0
LINE
  8
0
 10
-43.850487
 20
24.343918
 11
-41.350487
 21
24.343918
  0
LINE
  8
0
 10
-41.350487
 20
19.793930
 11
-38.850487
 21
19.793930
  0
LINE
  8
0
 10
-41.350525
 20
19.793976
 11
-41.350525
 21
20.943970
  0
LINE
  8
0
 10
-43.850487
 20
20.943924
 11
-41.350487
 21
20.943924
  0
LINE
  8
0
 10
-34.700523
 20
15.443970
 11
-34.700523
 21
17.943970
  0
LINE
  8
0
 10
-34.700508
 20
15.443924
 11
-33.750496
 21
15.443924
  0
LINE
  8
0
 10
-33.750526
 20
12.143982
 11
-33.750526
 21
15.443970
  0
LINE
  8
0
 10
-34.700508
 20
17.943924
 11
-32.500496
 21
17.943924
  0
LINE
  8
0
 10
-43.850525
 20
20.943970
 11
-43.850525
 21
14.143982
  0
LINE
  8
0
 10
-29.950516
 20
12.143936
 11
-26.850510
 21
12.143936
  0
LINE
  8
0
 10
-17.150497
 20
12.143936
 11
-8.850494
 21
12.143936
  0
LINE
  8
0
 10
-17.150467
 20
112.143921
 11
-8.850479
 21
112.143921
  0
LINE
  8
0
 10
-29.950455
 20
112.143921
 11
-20.550461
 21
112.143921
  0
LINE
  8
0
 10
-43.850525
 20
99.943985
 11
-43.850525
 21
94.143982
  0
LINE
  8
0
 10
-9.350477
 20
79.843994
 11
-8.850476
 21
80.343994
  0
LINE
  8
0
 10
-9.350471
 20
44.443901
 11
-8.850481
 21
43.943909
  0
LINE
  8
0
 10
-34.050293
 20
100.143890
 11
-35.850307
 21
95.143890
  0
LINE
  8
0
 10
-34.050507
 20
24.143900
 11
-35.850510
 21
29.143900
  0
LINE
  8
0
 10
-32.850456
 20
103.643921
 11
-28.300430
 21
103.643921
  0
LINE
  8
0
 10
-29.950516
 20
112.143982
 11
-29.950516
 21
108.843979
  0
LINE
  8
0
 10
-28.300522
 20
112.143982
 11
-28.300522
 21
103.643982
  0
LINE
  8
0
 10
-32.500511
 20
106.343979
 11
-32.500511
 21
103.643982
  0
LINE
  8
0
 10
-21.700455
 20
110.143921
 11
-20.550461
 21
110.143921
  0
LINE
  8
0
 10
-21.700455
 20
107.643921
 11
-16.000443
 21
107.643921
  0
LINE
  8
0
 10
-20.550522
 20
112.143982
 11
-20.550522
 21
110.143982
  0
LINE
  8
0
 10
-17.150528
 20
112.143982
 11
-17.150528
 21
110.143982
  0
LINE
  8
0
 10
-16.000534
 20
112.143982
 11
-16.000534
 21
107.643982
  0
LINE
  8
0
 10
-21.700516
 20
112.143982
 11
-21.700516
 21
107.643982
  0
LINE
  8
0
 10
-17.150467
 20
110.143921
 11
-16.000443
 21
110.143921
  0
LINE
  8
0
 10
-29.950516
 20
12.143982
 11
-29.950516
 21
15.443970
  0
LINE
  8
0
 10
-29.950516
 20
15.443924
 11
-28.300491
 21
15.443924
  0
LINE
  8
0
 10
-28.300522
 20
12.143982
 11
-28.300522
 21
15.743774
  0
LINE
  8
0
 10
-32.850502
 20
20.643936
 11
-29.350479
 21
20.643936
  0
LINE
  8
0
 10
-32.500511
 20
17.943970
 11
-32.500511
 21
20.643982
  0
LINE
  8
0
 10
-20.550522
 20
12.143982
 11
-20.550522
 21
14.143982
  0
LINE
  8
0
 10
-21.700516
 20
14.143936
 11
-20.550491
 21
14.143936
  0
LINE
  8
0
 10
-21.700516
 20
12.143982
 11
-21.700516
 21
15.893921
  0
LINE
  8
0
 10
-21.350510
 20
16.643936
 11
-16.000504
 21
16.643936
  0
LINE
  8
0
 10
-16.000534
 20
12.143982
 11
-16.000534
 21
16.643982
  0
LINE
  8
0
 10
-17.150497
 20
14.143936
 11
-16.000504
 21
14.143936
  0
LINE
  8
0
 10
-17.150528
 20
12.143982
 11
-17.150528
 21
14.143982
  0
LINE
  8
0
 10
-34.050423
 20
100.143921
 11
-32.850471
 21
100.143921
  0
LINE
  8
0
 10
-34.050499
 20
24.143936
 11
-32.850487
 21
24.143936
  0
LINE
  8
0
 10
-29.950455
 20
108.843918
 11
-28.300461
 21
108.843918
  0
LINE
  8
0
 10
-24.850510
 20
89.602020
 11
-24.850510
 21
83.685944
  0
LINE
  8
0
 10
-25.850510
 20
89.602020
 11
-25.850510
 21
83.685944
  0
LINE
  8
0
 10
-43.850525
 20
59.143982
 11
-43.850525
 21
30.143982
  0
LINE
  8
0
  6
CENTER
 62
     2
 10
-42.872768
 20
82.143921
 11
-35.088577
 21
82.143921
  0
LINE
  8
0
  6
CENTER
 62
     2
 10
-38.850525
 20
86.539246
 11
-38.850525
 21
77.925980
  0
LINE
  8
0
  6
CENTER
 62
     2
 10
-38.850525
 20
46.757626
 11
-38.850525
 21
37.551952
  0
LINE
  8
0
  6
CENTER
 62
     2
 10
-43.177933
 20
42.143921
 11
-34.689949
 21
42.143921
  0
LINE
  8
0
 10
-43.850479
 20
65.143921
 11
-35.350479
 21
65.143921
  0
LINE
  8
0
 10
-35.350517
 20
65.143982
 11
-35.350517
 21
59.143982
  0
LINE
  8
0
 10
-43.850479
 20
59.143921
 11
-35.350479
 21
59.143921
  0
LINE
  8
0
 10
-11.600510
 20
37.872284
 11
-11.600510
 21
36.415680
  0
LINE
  8
0
 10
-12.850598
 20
35.694126
 11
-11.600582
 21
36.415836
  0
LINE
  8
0
 10
-14.100592
 20
36.415501
 11
-12.850595
 21
35.693810
  0
LINE
  8
0
 10
-14.100510
 20
37.872299
 11
-14.100510
 21
36.415680
  0
LINE
  8
0
 10
-14.100472
 20
37.872223
 11
-12.850504
 21
38.593903
  0
LINE
  8
0
 10
-12.850544
 20
38.593891
 11
-11.600531
 21
37.872196
  0
LINE
  8
0
 10
-30.350422
 20
89.507202
 11
-25.350426
 21
92.393959
  0
LINE
  8
0
 10
-25.350477
 20
92.393990
 11
-20.350468
 21
89.507225
  0
LINE
  8
0
 10
-20.350510
 20
89.507217
 11
-20.350510
 21
83.780731
  0
LINE
  8
0
 10
-25.350473
 20
80.893967
 11
-20.350481
 21
83.780716
  0
LINE
  8
0
 10
-30.350538
 20
83.780716
 11
-25.350519
 21
80.893944
  0
LINE
  8
0
 10
-30.350510
 20
89.507233
 11
-30.350510
 21
83.780731
  0
LINE
  8
0
 10
-32.850517
 20
103.643982
 11
-32.850517
 21
20.643982
  0
LINE
  8
0
 10
-16.350510
 20
98.173248
 11
-16.350510
 21
94.114716
  0
LINE
  8
0
 10
-19.850443
 20
92.093918
 11
-16.350435
 21
94.114647
  0
LINE
  8
0
 10
-23.350435
 20
98.173225
 11
-19.850443
 21
100.193947
  0
LINE
  8
0
 10
-23.350452
 20
94.114769
 11
-19.850456
 21
92.094048
  0
LINE
  8
0
 10
-19.850479
 20
100.193970
 11
-16.350479
 21
98.173241
  0
LINE
  8
0
 10
-23.350510
 20
98.173264
 11
-23.350510
 21
94.114716
  0
LINE
  8
0
 10
-21.450470
 20
34.143738
 11
-29.250443
 21
34.143738
  0
LINE
  8
0
 10
-27.350479
 20
6.543716
 11
-23.350479
 21
6.543716
  0
LINE
  8
0
 10
-22.850510
 20
7.043793
 11
-22.850510
 21
10.043793
  0
LINE
  8
0
 10
-27.850510
 20
7.043793
 11
-27.850510
 21
10.043793
  0
LINE
  8
0
 10
-22.850445
 20
7.043735
 11
-23.350443
 21
6.543737
  0
LINE
  8
0
 10
-27.350338
 20
6.543897
 11
-27.850346
 21
7.043912
  0
LINE
  8
0
 10
-27.350479
 20
10.543716
 11
-23.350479
 21
10.543716
  0
LINE
  8
0
 10
-27.850687
 20
10.043966
 11
-27.350662
 21
10.543998
  0
LINE
  8
0
 10
-23.350357
 20
10.543839
 11
-22.850346
 21
10.043827
  0
LINE
  8
0
 10
-27.850479
 20
7.043716
 11
-22.850479
 21
7.043716
  0
LINE
  8
0
 10
-27.850479
 20
10.043716
 11
-22.850479
 21
10.043716
  0
LINE
  8
0
 10
-29.250443
 20
33.543732
 11
-21.450470
 21
33.543732
  0
LINE
  8
0
 10
-29.350479
 20
19.043716
 11
-21.350479
 21
19.043716
  0
LINE
  8
0
 10
-28.850479
 20
18.243729
 11
-21.850479
 21
18.243729
  0
LINE
  8
0
 10
-28.850479
 20
15.743729
 11
-21.850479
 21
15.743729
  0
LINE
  8
0
 10
-21.350510
 20
16.243805
 11
-21.350510
 21
17.743805
  0
LINE
  8
0
 10
-29.350510
 20
16.243805
 11
-29.350510
 21
17.743805
  0
LINE
  8
0
 10
-21.350569
 20
16.243925
 11
-21.850571
 21
15.743925
  0
LINE
  8
0
 10
-28.850313
 20
15.743922
 11
-29.350328
 21
16.243931
  0
LINE
  8
0
 10
-29.350521
 20
17.743864
 11
-28.850517
 21
18.243883
  0
LINE
  8
0
 10
-21.850380
 20
18.243992
 11
-21.350405
 21
17.744009
  0
LINE
  8
0
 10
-29.350479
 20
16.243729
 11
-21.350479
 21
16.243729
  0
LINE
  8
0
 10
-29.350479
 20
17.743729
 11
-21.350479
 21
17.743729
  0
LINE
  8
0
 10
-22.850510
 20
18.243805
 11
-22.850510
 21
19.043793
  0
LINE
  8
0
 10
-27.850510
 20
18.243805
 11
-27.850510
 21
19.043793
  0
LINE
  8
0
 10
-26.850510
 20
10.543793
 11
-26.850510
 21
15.743805
  0
LINE
  8
0
 10
-23.850510
 20
10.543793
 11
-23.850510
 21
15.743805
  0
LINE
  8
0
 62
     2
 10
-24.121017
 20
10.543793
 11
-24.121017
 21
15.743805
  0
LINE
  8
0
 62
     2
 10
-26.580002
 20
10.543793
 11
-26.580002
 21
15.743805
  0
LINE
  8
0
 10
-22.100510
 20
32.043823
 11
-22.100510
 21
33.543823
  0
LINE
  8
0
 10
-28.600510
 20
32.043823
 11
-28.600510
 21
33.543823
  0
LINE
  8
0
 10
-21.450516
 20
33.543823
 11
-21.450516
 21
34.143829
  0
LINE
  8
0
 10
-29.250504
 20
33.543823
 11
-29.250504
 21
34.143829
  0
LINE
  8
0
 10
-29.250473
 20
34.143738
 11
-21.450500
 21
34.143738
  0
LINE
  8
0
 10
-30.250443
 20
32.043716
 11
-20.450500
 21
32.043716
  0
LINE
  8
0
 10
-21.350510
 20
19.043762
 11
-21.350510
 21
23.043823
  0
LINE
  8
0
 10
-29.350510
 20
19.043793
 11
-29.350510
 21
23.043823
  0
LINE
  8
0
 10
-25.350510
 20
19.401062
 11
-25.350510
 21
23.043823
  0
LINE
  8
0
 10
-20.450516
 20
23.043823
 11
-20.450516
 21
25.893768
  0
LINE
  8
0
 10
-20.450516
 20
27.293762
 11
-20.450516
 21
32.043823
  0
LINE
  8
0
 10
-30.250504
 20
23.043823
 11
-30.250504
 21
32.043823
  0
LINE
  8
0
 10
-23.850510
 20
12.143936
 11
-20.550491
 21
12.143936
  0
LINE
  8
0
 10
-10.850510
 20
21.143723
 11
-12.350510
 21
21.143723
  0
LINE
  8
0
 10
-17.850510
 20
21.143768
 11
-17.850510
 21
32.043762
  0
LINE
  8
0
 10
-19.350510
 20
23.043777
 11
-30.250504
 21
23.043777
  0
LINE
  8
0
 10
-19.350510
 20
22.643768
 11
-19.350510
 21
30.543762
  0
LINE
  8
0
 10
-13.350510
 20
21.143768
 11
-13.350510
 21
32.043762
  0
LINE
  8
0
 10
-12.350510
 20
21.143768
 11
-12.350510
 21
32.043762
  0
LINE
  8
0
 10
-10.850510
 20
21.143768
 11
-10.850510
 21
32.043762
  0
LINE
  8
0
 10
-13.350510
 20
21.143723
 11
-17.850510
 21
21.143723
  0
LINE
  8
0
 10
-12.350494
 20
32.043716
 11
-10.850494
 21
32.043716
  0
LINE
  8
0
 10
-12.350494
 20
29.893723
 11
-13.350494
 21
29.893723
  0
LINE
  8
0
 10
-12.350510
 20
23.293716
 11
-13.350510
 21
23.293716
  0
LINE
  8
0
 10
-17.850485
 20
32.043709
 11
-19.350487
 21
30.543709
  0
LINE
  8
0
 10
-17.850498
 20
21.143784
 11
-19.350492
 21
22.643770
  0
LINE
  8
0
 10
-17.850494
 20
32.043716
 11
-13.350494
 21
32.043716
  0
LINE
  8
0
 10
-13.350494
 20
25.893723
 11
-25.350479
 21
25.893723
  0
LINE
  8
0
 10
-13.350494
 20
27.293716
 11
-25.350479
 21
27.293716
  0
LINE
  8
0
 10
-16.688463
 20
42.416916
 11
-18.102692
 21
43.831135
  0
LINE
  8
0
 10
-18.102608
 20
43.831120
 11
-21.324585
 21
40.609135
  0
LINE
  8
0
 10
-19.163296
 20
44.891773
 11
-22.385283
 21
41.669773
  0
LINE
  8
0
 10
-16.688454
 20
41.002731
 11
-18.519302
 21
39.171890
  0
LINE
  8
0
 10
-21.991789
 20
46.306095
 11
-23.822630
 21
44.475258
  0
LINE
  8
0
 10
-19.163353
 20
44.891788
 11
-20.577566
 21
46.306004
  0
LINE
  8
0
 10
-23.850487
 20
102.693985
 11
-22.600468
 21
103.415680
  0
LINE
  8
0
 10
-25.100525
 20
103.415588
 11
-23.850510
 21
102.693901
  0
LINE
  8
0
 10
-22.600510
 20
104.872299
 11
-22.600510
 21
103.415665
  0
LINE
  8
0
 10
-23.850473
 20
105.593994
 11
-22.600462
 21
104.872299
  0
LINE
  8
0
 10
-25.100431
 20
104.872215
 11
-23.850447
 21
105.593903
  0
LINE
  8
0
 10
-25.100510
 20
104.872299
 11
-25.100510
 21
103.415665
  0
LINE
  8
0
 10
-12.850474
 20
85.694031
 11
-11.600457
 21
86.415733
  0
LINE
  8
0
 10
-14.100551
 20
86.415604
 11
-12.850517
 21
85.693916
  0
LINE
  8
0
 10
-11.600510
 20
87.872299
 11
-11.600510
 21
86.415665
  0
LINE
  8
0
 10
-12.850504
 20
88.593956
 11
-11.600460
 21
87.872253
  0
LINE
  8
0
 10
-14.100427
 20
87.872231
 11
-12.850441
 21
88.593910
  0
LINE
  8
0
 10
-14.100510
 20
87.872299
 11
-14.100510
 21
86.415665
  0
LINE
  8
0
 10
-8.850510
 20
43.943924
 11
-8.850510
 21
12.143982
  0
LINE
  8
0
 10
-8.850510
 20
112.143997
 11
-8.850510
 21
80.344009
  0
LINE
  8
0
 10
73.649490
 20
-119.556091
 11
73.649490
 21
-116.495117
  0
LINE
  8
0
 10
217.149521
 20
-111.356049
 11
218.149521
 21
-112.356049
  0
LINE
  8
0
 10
218.149460
 20
-116.356041
 11
217.149460
 21
-117.356041
  0
LINE
  8
0
 10
217.149490
 20
-117.356079
 11
201.649490
 21
-117.356079
  0
LINE
  8
0
 10
217.149490
 20
-111.356079
 11
201.649490
 21
-111.356079
  0
LINE
  8
0
 10
218.149490
 20
-112.356049
 11
218.149490
 21
-116.356049
  0
LINE
  8
0
 10
217.149490
 20
-111.356049
 11
217.149490
 21
-117.356049
  0
LINE
  8
0
 62
     2
 10
218.149490
 20
-112.356079
 11
201.649490
 21
-112.356079
  0
LINE
  8
0
 62
     2
 10
218.149490
 20
-116.356079
 11
201.649490
 21
-116.356079
  0
LINE
  8
0
 10
90.649490
 20
-97.856079
 11
190.649521
 21
-97.856079
  0
LINE
  8
0
 10
84.649490
 20
-98.356079
 11
84.649490
 21
-122.056091
  0
LINE
  8
0
 10
90.649490
 20
-97.856079
 11
90.649490
 21
-132.856079
  0
LINE
  8
0
 10
190.649490
 20
-97.856079
 11
190.649490
 21
-132.856079
  0
LINE
  8
0
 10
196.649490
 20
-98.356110
 11
196.649490
 21
-122.056091
  0
LINE
  8
0
 10
84.649490
 20
-98.356079
 11
90.649490
 21
-98.356079
  0
LINE
  8
0
 10
190.649521
 20
-98.356079
 11
196.649521
 21
-98.356079
  0
LINE
  8
0
 10
90.649490
 20
-100.556061
 11
190.649490
 21
-100.556061
  0
LINE
  8
0
 10
90.649490
 20
-101.556061
 11
190.649490
 21
-101.556061
  0
LINE
  8
0
 10
84.649490
 20
-122.056061
 11
90.649490
 21
-122.056061
  0
LINE
  8
0
 10
190.649490
 20
-121.856079
 11
196.649490
 21
-121.856079
  0
LINE
  8
0
 10
90.649490
 20
-109.556061
 11
190.649490
 21
-109.556061
  0
LINE
  8
0
 10
90.649490
 20
-106.156097
 11
190.649490
 21
-106.156097
  0
LINE
  8
0
 10
90.649490
 20
-119.156097
 11
190.649490
 21
-119.156097
  0
LINE
  8
0
 10
90.649490
 20
-122.556061
 11
190.649490
 21
-122.556061
  0
LINE
  8
0
 10
84.649490
 20
-105.206085
 11
90.649490
 21
-105.206085
  0
LINE
  8
0
 10
84.649490
 20
-110.906097
 11
90.649490
 21
-110.906097
  0
LINE
  8
0
 10
190.649490
 20
-105.006073
 11
196.649490
 21
-105.006073
  0
LINE
  8
0
 10
190.649490
 20
-110.706085
 11
196.649490
 21
-110.706085
  0
LINE
  8
0
 10
84.649490
 20
-118.206085
 11
90.649490
 21
-118.206085
  0
LINE
  8
0
 10
190.649490
 20
-118.006073
 11
196.649490
 21
-118.006073
  0
LINE
  8
0
 10
83.149521
 20
-109.556061
 11
84.649490
 21
-109.556061
  0
LINE
  8
0
 10
216.349503
 20
-110.556091
 11
216.349503
 21
-107.556061
  0
LINE
  8
0
 10
215.849503
 20
-111.056091
 11
215.849503
 21
-107.056091
  0
LINE
  8
0
 10
215.849487
 20
-111.056038
 11
216.349487
 21
-110.556038
  0
LINE
  8
0
 10
215.849548
 20
-107.056046
 11
216.349548
 21
-107.556061
  0
LINE
  8
0
 10
199.849503
 20
-111.056061
 11
215.849503
 21
-111.056061
  0
LINE
  8
0
 62
     2
 10
199.849503
 20
-110.556061
 11
216.349503
 21
-110.556061
  0
LINE
  8
0
 62
     2
 10
199.849503
 20
-107.556061
 11
216.349503
 21
-107.556061
  0
LINE
  8
0
 10
199.849503
 20
-107.056061
 11
215.849503
 21
-107.056061
  0
LINE
  8
0
 10
199.849503
 20
-105.556091
 11
199.849503
 21
-112.556091
  0
LINE
  8
0
 10
201.649490
 20
-111.056091
 11
201.649490
 21
-119.356079
  0
LINE
  8
0
 10
196.649490
 20
-112.556061
 11
199.849503
 21
-112.556061
  0
LINE
  8
0
 10
196.649490
 20
-105.556061
 11
199.849503
 21
-105.556061
  0
LINE
  8
0
 10
196.649490
 20
-119.356079
 11
201.649490
 21
-119.356079
  0
LINE
  8
0
 10
205.649490
 20
-117.356079
 11
205.649490
 21
-117.856079
  0
LINE
  8
0
 10
201.649490
 20
-117.856079
 11
205.649490
 21
-117.856079
  0
LINE
  8
0
 10
196.649490
 20
-109.056061
 11
199.849503
 21
-109.056061
  0
LINE
  8
0
 10
196.649490
 20
-114.356079
 11
201.649490
 21
-114.356079
  0
LINE
  8
0
 10
64.149567
 20
-111.356064
 11
63.149567
 21
-112.356056
  0
LINE
  8
0
 10
63.149509
 20
-116.355942
 11
64.149582
 21
-117.356018
  0
LINE
  8
0
 10
64.149490
 20
-111.356079
 11
73.149521
 21
-111.356079
  0
LINE
  8
0
 10
63.149490
 20
-112.356049
 11
63.149490
 21
-116.356049
  0
LINE
  8
0
 10
64.149490
 20
-111.356049
 11
64.149490
 21
-117.356049
  0
LINE
  8
0
 62
     2
 10
63.149490
 20
-112.356079
 11
73.149521
 21
-112.356079
  0
LINE
  8
0
 62
     2
 10
63.149490
 20
-116.356079
 11
73.649490
 21
-116.356079
  0
LINE
  8
0
 10
64.949509
 20
-110.556091
 11
64.949509
 21
-107.556061
  0
LINE
  8
0
 10
65.449509
 20
-111.056091
 11
65.449509
 21
-107.056091
  0
LINE
  8
0
 10
65.449600
 20
-111.056145
 11
64.949570
 21
-110.556145
  0
LINE
  8
0
 10
65.449524
 20
-107.056046
 11
64.949524
 21
-107.556046
  0
LINE
  8
0
 10
73.149521
 20
-111.056061
 11
65.449509
 21
-111.056061
  0
LINE
  8
0
 62
     2
 10
73.149521
 20
-110.556061
 11
64.949509
 21
-110.556061
  0
LINE
  8
0
 62
     2
 10
73.149521
 20
-107.556061
 11
64.949509
 21
-107.556061
  0
LINE
  8
0
 10
73.149521
 20
-107.056061
 11
65.449509
 21
-107.056061
  0
LINE
  8
0
 10
84.649490
 20
-105.556061
 11
83.149521
 21
-105.556061
  0
LINE
  8
0
 10
64.149490
 20
-117.356079
 11
73.649490
 21
-117.356079
  0
LINE
  8
0
  6
CENTER
 62
     2
 10
140.649490
 20
-94.900299
 11
140.649490
 21
-137.202972
  0
LINE
  8
0
 10
82.149521
 20
-117.146698
 11
82.149521
 21
-111.965485
  0
LINE
  8
0
 10
74.149521
 20
-117.146698
 11
74.149521
 21
-111.965485
  0
LINE
  8
0
 10
74.149498
 20
-117.146667
 11
78.149498
 21
-119.456085
  0
LINE
  8
0
 10
78.149490
 20
-109.656113
 11
82.149452
 21
-111.965523
  0
LINE
  8
0
 10
74.149483
 20
-111.965485
 11
78.149475
 21
-109.656097
  0
LINE
  8
0
 10
78.149498
 20
-119.456062
 11
82.149536
 21
-117.146645
  0
LINE
  8
0
 10
73.649490
 20
-119.556061
 11
84.649490
 21
-119.556061
  0
LINE
  8
0
 10
83.149521
 20
-99.556061
 11
73.149521
 21
-99.556061
  0
LINE
  8
0
 10
73.149521
 20
-114.556091
 11
73.149521
 21
-102.056091
  0
LINE
  8
0
 10
83.149521
 20
-114.556091
 11
83.149521
 21
-102.056091
  0
LINE
  8
0
 10
83.149521
 20
-101.056061
 11
73.149521
 21
-101.056061
  0
LINE
  8
0
 10
83.149521
 20
-102.056061
 11
73.149521
 21
-102.056061
  0
LINE
  8
0
 10
83.149521
 20
-106.556061
 11
73.149521
 21
-106.556061
  0
LINE
  8
0
 10
74.849503
 20
-102.056091
 11
74.849503
 21
-101.056091
  0
LINE
  8
0
 10
81.449539
 20
-102.056091
 11
81.449539
 21
-101.056091
  0
LINE
  8
0
 10
73.149521
 20
-101.056091
 11
73.149521
 21
-99.556091
  0
LINE
  8
0
 10
83.149521
 20
-101.056091
 11
83.149521
 21
-99.556091
  0
LINE
  8
0
 10
198.149490
 20
-99.556061
 11
208.149490
 21
-99.556061
  0
LINE
  8
0
 10
208.149490
 20
-101.056091
 11
208.149490
 21
-99.556091
  0
LINE
  8
0
 10
198.149490
 20
-101.056091
 11
198.149490
 21
-99.556091
  0
LINE
  8
0
 10
198.149490
 20
-101.056061
 11
208.149490
 21
-101.056061
  0
LINE
  8
0
 10
206.449478
 20
-102.056091
 11
206.449478
 21
-101.056091
  0
LINE
  8
0
 10
199.849503
 20
-102.056091
 11
199.849503
 21
-101.056091
  0
LINE
  8
0
 10
198.149490
 20
-102.056061
 11
208.149490
 21
-102.056061
  0
LINE
  8
0
 10
208.149490
 20
-107.056091
 11
208.149490
 21
-102.056091
  0
LINE
  8
0
 10
198.149490
 20
-105.556091
 11
198.149490
 21
-102.056091
  0
LINE
  8
0
 10
115.649490
 20
-111.470490
 11
165.649521
 21
-111.470490
  0
LINE
  8
0
 10
115.649490
 20
-116.470490
 11
165.649521
 21
-116.470490
  0
LINE
  8
0
 10
115.649490
 20
-111.470490
 11
115.649490
 21
-116.470490
  0
LINE
  8
0
 10
165.649490
 20
-111.470490
 11
165.649490
 21
-116.470490
  0
LINE
  8
0
 10
135.649490
 20
-111.470490
 11
135.649490
 21
-116.470490
  0
LINE
  8
0
 10
90.649490
 20
-132.856079
 11
190.649490
 21
-132.856079
  0
LINE
  8
0
 10
-229.350494
 20
103.343918
 11
-225.471283
 21
103.343918
  0
LINE
  8
0
 10
-229.350510
 20
20.943924
 11
-225.633362
 21
20.943924
  0
LINE
  8
0
  6
CENTER
 62
     2
 10
-236.896576
 20
62.143921
 11
-121.160599
 21
62.143921
  0
LINE
  8
0
 10
-235.350510
 20
12.143906
 11
-123.350510
 21
12.143906
  0
LINE
  8
0
 10
-235.350494
 20
112.143921
 11
-123.350510
 21
112.143921
  0
LINE
  8
0
  6
CENTER
 62
     2
 10
-195.759659
 20
86.643921
 11
-162.876572
 21
86.643921
  0
LINE
  8
0
 10
-164.350510
 20
94.143921
 11
-133.850510
 21
94.143921
  0
LINE
  8
0
 10
-194.350510
 20
71.143921
 11
-164.350510
 21
71.143921
  0
LINE
  8
0
 10
-194.350510
 20
53.143906
 11
-164.350510
 21
53.143906
  0
LINE
  8
0
 10
-133.850510
 20
53.143906
 11
-129.350510
 21
53.143906
  0
LINE
  8
0
 10
-133.850510
 20
71.143921
 11
-129.350510
 21
71.143921
  0
LINE
  8
0
 10
-229.350494
 20
95.143921
 11
-129.350510
 21
95.143921
  0
LINE
  8
0
 10
-229.350510
 20
29.143906
 11
-129.350494
 21
29.143906
  0
LINE
  8
0
 10
-194.350494
 20
95.143906
 11
-194.350494
 21
29.143906
  0
LINE
  8
0
 10
-164.350510
 20
95.143906
 11
-164.350510
 21
29.143906
  0
LINE
  8
0
 10
-164.350510
 20
30.143906
 11
-133.850494
 21
30.143906
  0
LINE
  8
0
 10
-123.350510
 20
112.143906
 11
-123.350510
 21
12.143906
  0
LINE
  8
0
 10
-235.350510
 20
112.143913
 11
-235.350510
 21
12.143906
  0
LINE
  8
0
 10
-229.350494
 20
71.143921
 11
-224.850494
 21
71.143921
  0
LINE
  8
0
 10
-229.350510
 20
53.143906
 11
-224.850510
 21
53.143906
  0
LINE
  8
0
 10
-133.850510
 20
47.143906
 11
-129.350510
 21
47.143906
  0
LINE
  8
0
 10
-224.850494
 20
77.143921
 11
-229.350494
 21
77.143921
  0
LINE
  8
0
 10
-194.350494
 20
94.143921
 11
-224.850494
 21
94.143921
  0
LINE
  8
0
 10
-215.850510
 20
94.143906
 11
-215.850510
 21
30.143906
  0
LINE
  8
0
 10
-194.350510
 20
30.143906
 11
-224.850510
 21
30.143906
  0
LINE
  8
0
  6
CENTER
 62
     2
 10
-221.850510
 20
110.450859
 11
-221.850510
 21
99.270073
  0
LINE
  8
0
  6
CENTER
 62
     2
 10
-136.850510
 20
110.450867
 11
-136.850510
 21
98.524704
  0
LINE
  8
0
  6
CENTER
 62
     2
 10
-227.143494
 20
19.643906
 11
-216.620270
 21
19.643906
  0
LINE
  8
0
  6
CENTER
 62
     2
 10
-221.850510
 20
25.228409
 11
-221.850510
 21
14.544540
  0
LINE
  8
0
  6
CENTER
 62
     2
 10
-136.850510
 20
25.402756
 11
-136.850510
 21
13.944138
  0
LINE
  8
0
  6
CENTER
 62
     2
 10
-227.540314
 20
104.643921
 11
-215.684860
 21
104.643921
  0
LINE
  8
0
  6
CENTER
 62
     2
 10
-142.256104
 20
19.643906
 11
-131.499023
 21
19.643906
  0
LINE
  8
0
 10
-255.850494
 20
34.643906
 11
-240.350525
 21
34.643906
  0
LINE
  8
0
 10
-255.850494
 20
40.643906
 11
-240.350525
 21
40.643906
  0
LINE
  8
0
 10
-225.350494
 20
29.143906
 11
-225.350494
 21
29.643906
  0
LINE
  8
0
 10
-133.850510
 20
95.143906
 11
-133.850510
 21
94.643906
  0
LINE
  8
0
 10
-133.850510
 20
95.143906
 11
-133.850510
 21
29.143906
  0
LINE
  8
0
 10
-224.850510
 20
30.893936
 11
-224.850510
 21
29.143906
  0
LINE
  8
0
 10
-238.550507
 20
26.143936
 11
-254.550507
 21
26.143936
  0
LINE
  8
0
 62
     2
 10
-238.550491
 20
26.643936
 11
-255.050507
 21
26.643936
  0
LINE
  8
0
 62
     2
 10
-238.550491
 20
29.643936
 11
-255.050507
 21
29.643936
  0
LINE
  8
0
 10
-238.550491
 20
30.143936
 11
-254.550507
 21
30.143936
  0
LINE
  8
0
 10
-235.350510
 20
24.093948
 11
-238.259888
 21
24.093948
  0
LINE
  8
0
 10
-235.350510
 20
32.193924
 11
-238.259888
 21
32.193924
  0
LINE
  8
0
 10
-238.550491
 20
25.106400
 11
-238.550491
 21
31.181412
  0
LINE
  8
0
 10
-235.350510
 20
26.118942
 11
-238.259872
 21
26.118942
  0
LINE
  8
0
 10
-235.350510
 20
30.168930
 11
-238.259872
 21
30.168930
  0
LINE
  8
0
 10
-255.050507
 20
26.643906
 11
-255.050507
 21
29.643921
  0
LINE
  8
0
 10
-254.550659
 20
26.143833
 11
-255.050674
 21
26.643843
  0
LINE
  8
0
 10
-254.550552
 20
30.143944
 11
-255.050537
 21
29.643955
  0
LINE
  8
0
 10
-254.550507
 20
26.143906
 11
-254.550507
 21
30.143906
  0
LINE
  8
0
 10
-103.650513
 20
97.643898
 11
-103.650513
 21
94.643898
  0
LINE
  8
0
 10
-120.150513
 20
99.181412
 11
-120.150513
 21
93.106400
  0
LINE
  8
0
 10
-104.150513
 20
98.143898
 11
-104.150513
 21
94.143898
  0
LINE
  8
0
 10
-104.150543
 20
98.143913
 11
-103.650536
 21
97.643898
  0
LINE
  8
0
 10
-123.350510
 20
94.118927
 11
-120.441147
 21
94.118927
  0
LINE
  8
0
 10
-123.350510
 20
98.168915
 11
-120.441147
 21
98.168915
  0
LINE
  8
0
 10
-104.150520
 20
94.143906
 11
-103.650536
 21
94.643898
  0
LINE
  8
0
 10
-120.150513
 20
98.143921
 11
-104.150513
 21
98.143921
  0
LINE
  8
0
 62
     2
 10
-120.150513
 20
97.643921
 11
-103.650513
 21
97.643921
  0
LINE
  8
0
 62
     2
 10
-120.150513
 20
94.643921
 11
-103.650513
 21
94.643921
  0
LINE
  8
0
 10
-120.150513
 20
94.143921
 11
-104.150513
 21
94.143921
  0
LINE
  8
0
 10
-123.350510
 20
100.193924
 11
-120.441132
 21
100.193924
  0
LINE
  8
0
 10
-119.360870
 20
80.893936
 11
-123.350510
 21
80.893936
  0
LINE
  8
0
 10
-119.360870
 20
92.393936
 11
-123.350510
 21
92.393936
  0
LINE
  8
0
 10
-256.850494
 20
39.643936
 11
-256.850494
 21
35.643936
  0
LINE
  8
0
 10
-255.850494
 20
40.643936
 11
-255.850494
 21
34.643936
  0
LINE
  8
0
 62
     2
 10
-256.850494
 20
39.643906
 11
-240.350525
 21
39.643906
  0
LINE
  8
0
 62
     2
 10
-256.850494
 20
35.643906
 11
-240.350525
 21
35.643906
  0
LINE
  8
0
 10
-255.850494
 20
40.643879
 11
-256.850494
 21
39.643879
  0
LINE
  8
0
 10
-256.850372
 20
35.643970
 11
-255.850388
 21
34.643970
  0
LINE
  8
0
 10
-118.350471
 20
82.643875
 11
-119.360832
 21
80.893883
  0
LINE
  8
0
 10
-118.350517
 20
90.643898
 11
-119.360870
 21
92.393898
  0
LINE
  8
0
 10
-118.350510
 20
82.643906
 11
-118.350510
 21
90.643906
  0
LINE
  8
0
 10
-102.850510
 20
83.643921
 11
-101.850510
 21
84.643921
  0
LINE
  8
0
 10
-101.850464
 20
88.643883
 11
-102.850464
 21
89.643883
  0
LINE
  8
0
 10
-102.850510
 20
89.643936
 11
-118.350525
 21
89.643936
  0
LINE
  8
0
 10
-102.850510
 20
83.643936
 11
-118.350525
 21
83.643936
  0
LINE
  8
0
 10
-101.850510
 20
84.643898
 11
-101.850510
 21
88.643898
  0
LINE
  8
0
 10
-102.850510
 20
83.643898
 11
-102.850510
 21
89.643898
  0
LINE
  8
0
 62
     2
 10
-101.850502
 20
84.643936
 11
-118.350525
 21
84.643936
  0
LINE
  8
0
 62
     2
 10
-101.850502
 20
88.643936
 11
-118.350525
 21
88.643936
  0
LINE
  8
0
 10
-206.600510
 20
73.372223
 11
-206.600510
 21
71.915604
  0
LINE
  8
0
 10
-207.850464
 20
74.093910
 11
-209.100494
 21
73.372208
  0
LINE
  8
0
 10
-206.600555
 20
73.372131
 11
-207.850540
 21
74.093811
  0
LINE
  8
0
 10
-209.100510
 20
73.372208
 11
-209.100510
 21
71.915604
  0
LINE
  8
0
 10
-207.850357
 20
71.194069
 11
-209.100342
 21
71.915749
  0
LINE
  8
0
 10
-206.600510
 20
71.915611
 11
-207.850525
 21
71.193916
  0
LINE
  8
0
 10
-150.850540
 20
74.093796
 11
-149.600555
 21
73.372108
  0
LINE
  8
0
 10
-149.600494
 20
73.372223
 11
-149.600494
 21
71.915604
  0
LINE
  8
0
 10
-150.850555
 20
71.193932
 11
-149.600555
 21
71.915619
  0
LINE
  8
0
 10
-218.600510
 20
50.915588
 11
-218.600510
 21
52.372208
  0
LINE
  8
0
 10
-218.600662
 20
52.371956
 11
-219.850677
 21
53.093643
  0
LINE
  8
0
 10
-219.850555
 20
50.193768
 11
-221.100571
 21
50.915459
  0
LINE
  8
0
 10
-219.850510
 20
53.093887
 11
-221.100494
 21
52.372208
  0
LINE
  8
0
 10
-221.100510
 20
50.915604
 11
-221.100510
 21
52.372208
  0
LINE
  8
0
 10
-218.600525
 20
50.915600
 11
-219.850510
 21
50.193920
  0
LINE
  8
0
 10
-207.850571
 20
50.193806
 11
-209.100586
 21
50.915501
  0
LINE
  8
0
 10
-209.100510
 20
50.915604
 11
-209.100510
 21
52.372208
  0
LINE
  8
0
 10
-207.850510
 20
53.093922
 11
-209.100510
 21
52.372231
  0
LINE
  8
0
 10
-206.600510
 20
50.915588
 11
-206.600510
 21
52.372208
  0
LINE
  8
0
 10
-206.600418
 20
52.372261
 11
-207.850418
 21
53.093956
  0
LINE
  8
0
 10
-206.600540
 20
50.915619
 11
-207.850525
 21
50.193939
  0
LINE
  8
0
 10
-152.100494
 20
50.915604
 11
-152.100494
 21
52.372223
  0
LINE
  8
0
 10
-152.100525
 20
52.372208
 11
-150.850510
 21
53.093899
  0
LINE
  8
0
 10
-150.850403
 20
53.094044
 11
-149.600388
 21
52.372349
  0
LINE
  8
0
 10
-150.850555
 20
50.193996
 11
-149.600555
 21
50.915691
  0
LINE
  8
0
 10
-149.600494
 20
50.915604
 11
-149.600494
 21
52.372223
  0
LINE
  8
0
 10
-152.100555
 20
50.915516
 11
-150.850571
 21
50.193836
  0
LINE
  8
0
 10
-140.100494
 20
50.915604
 11
-140.100494
 21
52.372223
  0
LINE
  8
0
 10
-140.100540
 20
50.915497
 11
-138.850555
 21
50.193817
  0
LINE
  8
0
 10
-137.600510
 20
50.915604
 11
-137.600510
 21
52.372223
  0
LINE
  8
0
 10
-138.850510
 20
50.193901
 11
-137.600494
 21
50.915592
  0
LINE
  8
0
 10
-140.100540
 20
52.372253
 11
-138.850525
 21
53.093948
  0
LINE
  8
0
 10
-138.850433
 20
53.094002
 11
-137.600433
 21
52.372314
  0
LINE
  8
0
 10
-239.340149
 20
43.393906
 11
-235.350510
 21
43.393906
  0
LINE
  8
0
 10
-240.350555
 20
41.643940
 11
-239.340195
 21
43.393936
  0
LINE
  8
0
 10
-240.350571
 20
33.643887
 11
-239.340195
 21
31.893875
  0
LINE
  8
0
 10
-239.340149
 20
31.893906
 11
-238.412567
 21
31.893906
  0
LINE
  8
0
 10
-240.350494
 20
41.643906
 11
-240.350494
 21
33.643906
  0
LINE
  8
0
 10
-219.850540
 20
74.093925
 11
-221.100555
 21
73.372231
  0
LINE
  8
0
 10
-221.100510
 20
73.372215
 11
-221.100510
 21
71.915611
  0
LINE
  8
0
 10
-219.850357
 20
71.194092
 11
-221.100342
 21
71.915771
  0
LINE
  8
0
 10
-218.600494
 20
71.915642
 11
-219.850494
 21
71.193947
  0
LINE
  8
0
 10
-218.600510
 20
73.372231
 11
-218.600510
 21
71.915611
  0
LINE
  8
0
 10
-218.600540
 20
73.372154
 11
-219.850525
 21
74.093834
  0
LINE
  8
0
 10
-152.100510
 20
73.372208
 11
-150.850510
 21
74.093887
  0
LINE
  8
0
 10
-152.100494
 20
73.372238
 11
-152.100494
 21
71.915604
  0
LINE
  8
0
 10
-152.100555
 20
71.915512
 11
-150.850540
 21
71.193817
  0
LINE
  8
0
 10
-138.850555
 20
74.093796
 11
-137.600540
 21
73.372101
  0
LINE
  8
0
 10
-137.600510
 20
73.372223
 11
-137.600510
 21
71.915604
  0
LINE
  8
0
 10
-138.850494
 20
71.193916
 11
-137.600494
 21
71.915604
  0
LINE
  8
0
 10
-140.100479
 20
73.372200
 11
-138.850494
 21
74.093880
  0
LINE
  8
0
 10
-140.100494
 20
73.372238
 11
-140.100494
 21
71.915604
  0
LINE
  8
0
 10
-140.100555
 20
71.915504
 11
-138.850540
 21
71.193810
  0
LINE
  8
0
 10
-224.850510
 20
63.305248
 11
-225.600540
 21
62.872219
  0
LINE
  8
0
 10
-224.850388
 20
60.982792
 11
-225.600357
 21
61.415791
  0
LINE
  8
0
 10
-225.600510
 20
62.872208
 11
-225.600510
 21
61.415604
  0
LINE
  8
0
 10
-193.100494
 20
62.872223
 11
-193.100494
 21
61.415604
  0
LINE
  8
0
 10
-193.100494
 20
61.415619
 11
-194.350510
 21
60.693924
  0
LINE
  8
0
 10
-193.100540
 20
62.872154
 11
-194.350525
 21
63.593834
  0
LINE
  8
0
 10
-165.600510
 20
62.872227
 11
-164.350525
 21
63.593906
  0
LINE
  8
0
 10
-165.600510
 20
62.872223
 11
-165.600510
 21
61.415604
  0
LINE
  8
0
 10
-165.600555
 20
61.415508
 11
-164.350540
 21
60.693813
  0
LINE
  8
0
 10
-133.850555
 20
63.305126
 11
-133.100540
 21
62.872105
  0
LINE
  8
0
 10
-133.100510
 20
62.872223
 11
-133.100510
 21
61.415604
  0
LINE
  8
0
 10
-133.850510
 20
60.982578
 11
-133.100510
 21
61.415592
  0
LINE
  8
0
 10
-176.350510
 20
20.943909
 11
-176.350510
 21
12.143906
  0
LINE
  8
0
 10
-182.350510
 20
20.943909
 11
-182.350510
 21
12.143906
  0
LINE
  8
0
 10
-176.350510
 20
20.943924
 11
-140.471283
 21
20.943924
  0
LINE
  8
0
 10
-176.646790
 20
103.343918
 11
-140.633362
 21
103.343918
  0
LINE
  8
0
 10
-118.842545
 20
89.493942
 11
-123.350510
 21
89.493942
  0
LINE
  8
0
 10
-118.842545
 20
83.793945
 11
-123.350510
 21
83.793945
  0
LINE
  8
0
 10
-239.858475
 20
34.793900
 11
-235.350510
 21
34.793900
  0
LINE
  8
0
 10
-239.858475
 20
40.493912
 11
-235.350510
 21
40.493912
  0
LINE
  8
0
 10
-218.067657
 20
103.343918
 11
-182.054199
 21
103.343918
  0
LINE
  8
0
 10
-133.067657
 20
103.343918
 11
-129.350510
 21
103.343918
  0
LINE
  8
0
 10
-218.067657
 20
20.943924
 11
-182.350510
 21
20.943924
  0
LINE
  8
0
 10
-229.350510
 20
24.343918
 11
-129.350494
 21
24.343918
  0
LINE
  8
0
 10
-133.067657
 20
20.943924
 11
-129.350494
 21
20.943924
  0
LINE
  8
0
 10
-229.350494
 20
99.943924
 11
-129.350510
 21
99.943924
  0
LINE
  8
0
 10
-235.350510
 20
20.643906
 11
-229.350510
 21
20.643906
  0
LINE
  8
0
 10
-129.350494
 20
20.643906
 11
-123.350494
 21
20.643906
  0
LINE
  8
0
 10
-129.350510
 20
103.643921
 11
-123.350510
 21
103.643921
  0
LINE
  8
0
 10
-235.350494
 20
103.643921
 11
-229.350494
 21
103.643921
  0
LINE
  8
0
 10
-229.350510
 20
31.143906
 11
-224.850510
 21
31.143906
  0
LINE
  8
0
  6
CENTER
 62
     2
 10
-163.533447
 20
42.143936
 11
-195.507004
 21
42.143936
  0
LINE
  8
0
  6
CENTER
 62
     2
 10
-163.048981
 20
33.143936
 11
-195.674698
 21
33.143936
  0
LINE
  8
0
 10
-180.850494
 20
34.343903
 11
-180.850494
 21
40.943909
  0
LINE
  8
0
 10
-164.350510
 20
33.843918
 11
-165.850510
 21
33.843918
  0
LINE
  8
0
 10
-164.350510
 20
41.443924
 11
-165.850510
 21
41.443924
  0
LINE
  8
0
 10
-181.350494
 20
33.843903
 11
-181.350494
 21
41.443909
  0
LINE
  8
0
 10
-180.850525
 20
34.343895
 11
-181.350525
 21
33.843895
  0
LINE
  8
0
 10
-180.850601
 20
40.943840
 11
-181.350586
 21
41.443829
  0
LINE
  8
0
 10
-165.850494
 20
33.843903
 11
-165.850494
 21
41.443909
  0
LINE
  8
0
 10
-181.350510
 20
33.843918
 11
-194.350510
 21
33.843918
  0
LINE
  8
0
 10
-181.350510
 20
41.443924
 11
-194.350510
 21
41.443924
  0
LINE
  8
0
 10
-194.350494
 20
90.443924
 11
-192.850494
 21
90.443924
  0
LINE
  8
0
 10
-192.850494
 20
90.443909
 11
-192.850494
 21
82.843903
  0
LINE
  8
0
 10
-194.350494
 20
82.843918
 11
-192.850494
 21
82.843918
  0
LINE
  8
0
  6
CENTER
 62
     2
 10
-195.167572
 20
82.143921
 11
-163.194016
 21
82.143921
  0
LINE
  8
0
  6
CENTER
 62
     2
 10
-195.652039
 20
91.143921
 11
-163.026321
 21
91.143921
  0
LINE
  8
0
 10
-177.850510
 20
89.943909
 11
-177.850510
 21
83.343903
  0
LINE
  8
0
 10
-177.850540
 20
89.943909
 11
-177.350555
 21
90.443901
  0
LINE
  8
0
 10
-177.350510
 20
90.443909
 11
-177.350510
 21
82.843903
  0
LINE
  8
0
 10
-177.850586
 20
83.343864
 11
-177.350601
 21
82.843872
  0
LINE
  8
0
 10
-177.350510
 20
82.843918
 11
-164.350510
 21
82.843918
  0
LINE
  8
0
 10
-177.350494
 20
90.443924
 11
-164.350510
 21
90.443924
  0
LINE
  8
0
  6
CENTER
 62
     2
 10
-179.350510
 20
114.339752
 11
-179.350510
 21
8.829910
  0
LINE
  8
0
 10
-229.350510
 20
112.143913
 11
-229.350510
 21
12.143906
  0
LINE
  8
0
 10
-129.350510
 20
112.143906
 11
-129.350510
 21
12.143906
  0
LINE
  8
0
 10
-236.550491
 20
78.143913
 11
-236.550491
 21
95.143913
  0
LINE
  8
0
 10
-236.550507
 20
81.643890
 11
-245.850494
 21
81.643890
  0
LINE
  8
0
 10
-235.350494
 20
78.143890
 11
-236.550507
 21
78.143890
  0
LINE
  8
0
 10
-235.350494
 20
95.143890
 11
-236.550507
 21
95.143890
  0
LINE
  8
0
 10
-246.350494
 20
90.144066
 11
-246.350494
 21
82.144096
  0
LINE
  8
0
 10
-237.950470
 20
90.144073
 11
-245.750458
 21
90.144073
  0
LINE
  8
0
 10
-245.850494
 20
81.644096
 11
-245.850494
 21
90.144096
  0
LINE
  8
0
 62
     2
 10
-234.187286
 20
86.643890
 11
-241.850494
 21
86.643890
  0
LINE
  8
0
 10
-245.850433
 20
81.643776
 11
-246.350601
 21
82.143951
  0
LINE
  8
0
 10
-122.150513
 20
46.143906
 11
-122.150513
 21
29.143906
  0
LINE
  8
0
 10
-122.150513
 20
42.643906
 11
-112.850510
 21
42.643906
  0
LINE
  8
0
 10
-123.350510
 20
46.143906
 11
-122.150513
 21
46.143906
  0
LINE
  8
0
 10
-123.350494
 20
29.143906
 11
-122.150513
 21
29.143906
  0
LINE
  8
0
 10
-112.350510
 20
34.143753
 11
-112.350510
 21
42.143723
  0
LINE
  8
0
 10
-122.150513
 20
32.643723
 11
-121.350525
 21
32.643723
  0
LINE
  8
0
 10
-121.350525
 20
32.643753
 11
-121.350525
 21
34.143753
  0
LINE
  8
0
 10
-120.750534
 20
34.143723
 11
-112.950546
 21
34.143723
  0
LINE
  8
0
 10
-114.850540
 20
6.543716
 11
-118.850540
 21
6.543716
  0
LINE
  8
0
 10
-119.350510
 20
7.043747
 11
-119.350510
 21
10.043747
  0
LINE
  8
0
 10
-114.350510
 20
7.043747
 11
-114.350510
 21
10.043747
  0
LINE
  8
0
 10
-119.350586
 20
7.043613
 11
-118.850578
 21
6.543602
  0
LINE
  8
0
 10
-114.850655
 20
6.543847
 11
-114.350647
 21
7.043859
  0
LINE
  8
0
 10
-114.850540
 20
10.543716
 11
-118.850540
 21
10.543716
  0
LINE
  8
0
 10
-114.350319
 20
10.043926
 11
-114.850334
 21
10.543938
  0
LINE
  8
0
 10
-118.850616
 20
10.543776
 11
-119.350616
 21
10.043775
  0
LINE
  8
0
 10
-114.350540
 20
7.043716
 11
-119.350540
 21
7.043716
  0
LINE
  8
0
 10
-114.350540
 20
10.043716
 11
-119.350540
 21
10.043716
  0
LINE
  8
0
 10
-112.950546
 20
33.543716
 11
-120.750534
 21
33.543716
  0
LINE
  8
0
 10
-112.850540
 20
19.043716
 11
-120.850540
 21
19.043716
  0
LINE
  8
0
 10
-113.350540
 20
18.243729
 11
-120.350540
 21
18.243729
  0
LINE
  8
0
 10
-113.350540
 20
15.743729
 11
-120.350540
 21
15.743729
  0
LINE
  8
0
 10
-120.850510
 20
16.243759
 11
-120.850510
 21
17.743759
  0
LINE
  8
0
 10
-112.850510
 20
16.243759
 11
-112.850510
 21
17.743759
  0
LINE
  8
0
 10
-120.850349
 20
16.243914
 11
-120.350365
 21
15.743924
  0
LINE
  8
0
 10
-113.350670
 20
15.743848
 11
-112.850647
 21
16.243870
  0
LINE
  8
0
 10
-112.850464
 20
17.743845
 11
-113.350471
 21
18.243856
  0
LINE
  8
0
 10
-120.350578
 20
18.243849
 11
-120.850548
 21
17.743881
  0
LINE
  8
0
 10
-112.850540
 20
16.243729
 11
-120.850540
 21
16.243729
  0
LINE
  8
0
 10
-112.850540
 20
17.743729
 11
-120.850540
 21
17.743729
  0
LINE
  8
0
 10
-119.350510
 20
18.243759
 11
-119.350510
 21
19.043747
  0
LINE
  8
0
 10
-114.350510
 20
18.243759
 11
-114.350510
 21
19.043747
  0
LINE
  8
0
 10
-115.350510
 20
10.543747
 11
-115.350510
 21
15.743759
  0
LINE
  8
0
 10
-118.350510
 20
10.543747
 11
-118.350510
 21
15.743759
  0
LINE
  8
0
 62
     2
 10
-118.080002
 20
10.543747
 11
-118.080002
 21
15.743759
  0
LINE
  8
0
 62
     2
 10
-115.621017
 20
10.543747
 11
-115.621017
 21
15.743759
  0
LINE
  8
0
 10
-120.100510
 20
32.043777
 11
-120.100510
 21
33.543777
  0
LINE
  8
0
 10
-113.600510
 20
32.043777
 11
-113.600510
 21
33.543777
  0
LINE
  8
0
 10
-120.750504
 20
33.543777
 11
-120.750504
 21
34.143753
  0
LINE
  8
0
 10
-112.950516
 20
33.543777
 11
-112.950516
 21
34.143753
  0
LINE
  8
0
 10
-112.350510
 20
34.143723
 11
-121.350525
 21
34.143723
  0
LINE
  8
0
 10
-111.950539
 20
23.043716
 11
-121.750488
 21
23.043716
  0
LINE
  8
0
 10
-111.950539
 20
32.043716
 11
-121.750519
 21
32.043716
  0
LINE
  8
0
 10
-120.850510
 20
19.043747
 11
-120.850510
 21
23.043777
  0
LINE
  8
0
 10
-112.850510
 20
19.043747
 11
-112.850510
 21
23.043777
  0
LINE
  8
0
 10
-116.850510
 20
19.401016
 11
-116.850510
 21
23.043716
  0
LINE
  8
0
 10
-112.850510
 20
42.643723
 11
-112.850510
 21
34.143723
  0
LINE
  8
0
 10
-121.750504
 20
23.043716
 11
-121.750504
 21
32.043777
  0
LINE
  8
0
 10
-111.950516
 20
23.043716
 11
-111.950516
 21
32.043777
  0
LINE
  8
0
 10
-112.850761
 20
42.643871
 11
-112.350578
 21
42.143684
  0
LINE
  8
0
 10
-236.550507
 20
91.644089
 11
-237.350494
 21
91.644089
  0
LINE
  8
0
 10
-237.350479
 20
91.644081
 11
-237.350479
 21
90.144066
  0
LINE
  8
0
 10
-243.850464
 20
117.744095
 11
-239.850464
 21
117.744095
  0
LINE
  8
0
 10
-239.350494
 20
117.244087
 11
-239.350494
 21
114.244087
  0
LINE
  8
0
 10
-244.350494
 20
117.244087
 11
-244.350494
 21
114.244087
  0
LINE
  8
0
 10
-239.350510
 20
117.244064
 11
-239.850525
 21
117.744080
  0
LINE
  8
0
 10
-243.850372
 20
117.743996
 11
-244.350388
 21
117.243980
  0
LINE
  8
0
 10
-243.850464
 20
113.744095
 11
-239.850464
 21
113.744095
  0
LINE
  8
0
 10
-244.350433
 20
114.244064
 11
-243.850418
 21
113.744057
  0
LINE
  8
0
 10
-239.850342
 20
113.744064
 11
-239.350327
 21
114.244080
  0
LINE
  8
0
 10
-244.350464
 20
117.244095
 11
-239.350464
 21
117.244095
  0
LINE
  8
0
 10
-244.350464
 20
114.244095
 11
-239.350464
 21
114.244095
  0
LINE
  8
0
 10
-245.750458
 20
90.744080
 11
-237.950470
 21
90.744080
  0
LINE
  8
0
 10
-245.850464
 20
105.244095
 11
-237.850464
 21
105.244095
  0
LINE
  8
0
 10
-245.350464
 20
106.044083
 11
-238.350464
 21
106.044083
  0
LINE
  8
0
 10
-245.350464
 20
108.544083
 11
-238.350464
 21
108.544083
  0
LINE
  8
0
 10
-237.850494
 20
108.044075
 11
-237.850494
 21
106.544075
  0
LINE
  8
0
 10
-245.850494
 20
108.044075
 11
-245.850494
 21
106.544075
  0
LINE
  8
0
 10
-237.850418
 20
108.044098
 11
-238.350418
 21
108.544098
  0
LINE
  8
0
 10
-245.350327
 20
108.544029
 11
-245.850342
 21
108.044006
  0
LINE
  8
0
 10
-245.850433
 20
106.544075
 11
-245.350433
 21
106.044075
  0
LINE
  8
0
 10
-238.350418
 20
106.043968
 11
-237.850418
 21
106.543961
  0
LINE
  8
0
 10
-245.850464
 20
108.044083
 11
-237.850464
 21
108.044083
  0
LINE
  8
0
 10
-245.850464
 20
106.544083
 11
-237.850464
 21
106.544083
  0
LINE
  8
0
 10
-239.350494
 20
106.044075
 11
-239.350494
 21
105.244087
  0
LINE
  8
0
 10
-244.350494
 20
106.044075
 11
-244.350494
 21
105.244087
  0
LINE
  8
0
 10
-243.350494
 20
113.744087
 11
-243.350494
 21
108.544075
  0
LINE
  8
0
 10
-240.350494
 20
113.744087
 11
-240.350494
 21
108.544075
  0
LINE
  8
0
 62
     2
 10
-240.621002
 20
113.744087
 11
-240.621002
 21
108.544075
  0
LINE
  8
0
 62
     2
 10
-243.079987
 20
113.744087
 11
-243.079987
 21
108.544075
  0
LINE
  8
0
 10
-238.600494
 20
92.244057
 11
-238.600494
 21
90.744057
  0
LINE
  8
0
 10
-245.100494
 20
92.244057
 11
-245.100494
 21
90.744057
  0
LINE
  8
0
 10
-237.950500
 20
90.744057
 11
-237.950500
 21
90.144066
  0
LINE
  8
0
 10
-245.750488
 20
90.744057
 11
-245.750488
 21
90.144066
  0
LINE
  8
0
 10
-246.750458
 20
92.244095
 11
-236.950470
 21
92.244095
  0
LINE
  8
0
 10
-237.850494
 20
105.244087
 11
-237.850494
 21
101.244057
  0
LINE
  8
0
 10
-245.850494
 20
105.244087
 11
-245.850494
 21
101.244057
  0
LINE
  8
0
 10
-241.850494
 20
104.886818
 11
-241.850494
 21
101.244102
  0
LINE
  8
0
 10
-246.750488
 20
101.244095
 11
-236.950470
 21
101.244095
  0
LINE
  8
0
 10
-236.950500
 20
101.244087
 11
-236.950500
 21
92.244057
  0
LINE
  8
0
 10
-246.750488
 20
101.244087
 11
-246.750488
 21
92.244057
  0
LINE
  8
0
 10
-246.350494
 20
90.144073
 11
-237.350494
 21
90.144073
  0
LINE
  8
0
  6
CENTER
 62
     2
 10
-183.811005
 20
104.643921
 11
-174.866379
 21
104.643921
  0
LINE
  8
0
  6
CENTER
 62
     2
 10
-142.957657
 20
104.643921
 11
-131.265182
 21
104.643921
  0
LINE
  8
0
 10
-224.850510
 20
95.143913
 11
-224.850510
 21
29.143906
  0
LINE
  8
0
 10
-134.850510
 20
94.143906
 11
-134.850510
 21
30.143906
  0
LINE
  8
0
 10
-142.850494
 20
94.143906
 11
-142.850494
 21
30.143906
  0
LINE
  8
0
 10
-223.850510
 20
94.143913
 11
-223.850510
 21
30.143906
  0
LINE
  8
0
 10
-223.850510
 20
65.143921
 11
-215.850510
 21
65.143921
  0
LINE
  8
0
 10
-223.850510
 20
59.143921
 11
-215.850510
 21
59.143921
  0
LINE
  8
0
 10
-142.850510
 20
65.143921
 11
-134.850510
 21
65.143921
  0
LINE
  8
0
 10
-142.850510
 20
59.143921
 11
-134.850510
 21
59.143921
  0
LINE
  8
0
 10
-227.850510
 20
92.643929
 11
-227.850510
 21
80.643929
  0
LINE
  8
0
 10
-229.350525
 20
92.643921
 11
-227.850525
 21
92.643921
  0
LINE
  8
0
 10
-229.350525
 20
80.643921
 11
-227.850525
 21
80.643921
  0
LINE
  8
0
 10
-227.850525
 20
91.643921
 11
-224.850525
 21
91.643921
  0
LINE
  8
0
 10
-227.850525
 20
81.643921
 11
-224.850525
 21
81.643921
  0
LINE
  8
0
 10
-130.850510
 20
43.643906
 11
-130.850510
 21
31.643906
  0
LINE
  8
0
 10
-130.850525
 20
31.643906
 11
-129.350525
 21
31.643906
  0
LINE
  8
0
 10
-130.850525
 20
43.643906
 11
-129.350525
 21
43.643906
  0
LINE
  8
0
 10
-133.850525
 20
42.643906
 11
-130.850525
 21
42.643906
  0
LINE
  8
0
 10
-133.850525
 20
32.643906
 11
-130.850525
 21
32.643906
  0
LINE
  8
0
 10
-133.850510
 20
78.643921
 11
-129.350510
 21
78.643921
  0
LINE
  8
0
 10
-133.850510
 20
94.643921
 11
-129.350510
 21
94.643921
  0
LINE
  8
0
 10
-133.350510
 20
94.643921
 11
-133.350510
 21
95.143921
  0
LINE
  8
0
 10
-229.350525
 20
29.643906
 11
-224.850525
 21
29.643906
  0
LINE
  8
0
 10
-229.350525
 20
45.643906
 11
-224.850525
 21
45.643906
  0
LINE
  8
0
  6
CENTER
 62
     2
 10
-195.759659
 20
37.643921
 11
-162.876572
 21
37.643921
  0
CIRCLE
  8
0
 62
     2
 10
98.149521
 20
104.643906
 40
2.500000
  0
CIRCLE
  8
0
 62
     2
 10
183.149521
 20
104.643906
 40
2.500000
  0
CIRCLE
  8
0
 62
     2
 10
98.149521
 20
19.643906
 40
2.500000
  0
CIRCLE
  8
0
 62
     2
 10
183.149521
 20
19.643906
 40
2.500000
  0
CIRCLE
  8
0
 10
98.149521
 20
19.643906
 40
2.000000
  0
CIRCLE
  8
0
 10
183.149521
 20
19.643906
 40
2.000000
  0
CIRCLE
  8
0
 10
183.149521
 20
104.643906
 40
2.000000
  0
CIRCLE
  8
0
 10
98.149521
 20
104.643906
 40
2.000000
  0
CIRCLE
  8
0
 10
95.649521
 20
62.143906
 40
1.000000
  0
CIRCLE
  8
0
 10
125.649521
 20
62.143906
 40
1.000000
  0
CIRCLE
  8
0
 10
155.649521
 20
62.143906
 40
1.000000
  0
CIRCLE
  8
0
 10
185.649521
 20
62.143906
 40
1.000000
  0
CIRCLE
  8
0
 62
     2
 10
185.649521
 20
62.143906
 40
1.500000
  0
CIRCLE
  8
0
 62
     2
 10
155.649521
 20
62.143906
 40
1.500000
  0
CIRCLE
  8
0
 62
     2
 10
125.649521
 20
62.143906
 40
1.500000
  0
CIRCLE
  8
0
 62
     2
 10
95.649521
 20
62.143906
 40
1.500000
  0
ARC
  8
0
 10
140.649521
 20
103.543900
 40
3.000000
 50
180.000000
 51
0.000000
  0
CIRCLE
  8
0
 10
140.649521
 20
19.643906
 40
3.000000
  0
ARC
  8
0
 10
81.240723
 20
90.644455
 40
1.591202
 50
180.000000
 51
226.308228
  0
ARC
  8
0
 10
88.149521
 20
86.643906
 40
8.500002
 50
160.409531
 51
199.590302
  0
ARC
  8
0
 10
81.238388
 20
82.644363
 40
1.588865
 50
133.655792
 51
180.016235
  0
ARC
  8
0
 10
88.649521
 20
96.143906
 40
7.199995
 50
163.665146
 51
196.334717
  0
ARC
  8
0
 10
83.358536
 20
99.181412
 40
1.909011
 50
147.969009
 51
212.031494
  0
ARC
  8
0
 10
83.358536
 20
93.106400
 40
1.909012
 50
147.968506
 51
201.914261
  0
ARC
  8
0
 10
193.149521
 20
37.643906
 40
8.500002
 50
340.409546
 51
19.590342
  0
ARC
  8
0
 10
197.940506
 20
25.106400
 40
1.909017
 50
327.969116
 51
32.031502
  0
ARC
  8
0
 10
200.058304
 20
33.643387
 40
1.591202
 50
0.000000
 51
46.308228
  0
ARC
  8
0
 10
200.060654
 20
41.643448
 40
1.588868
 50
313.655701
 51
0.016095
  0
ARC
  8
0
 10
197.940506
 20
31.181412
 40
1.909013
 50
327.968445
 51
21.914049
  0
ARC
  8
0
 10
192.649521
 20
28.143906
 40
7.199995
 50
343.665161
 51
16.334745
  0
ARC
  8
0
 10
76.149551
 20
24.820480
 40
5.776711
 50
249.743851
 51
290.256165
  0
ARC
  8
0
 10
80.149551
 20
24.820480
 40
5.776709
 50
249.743835
 51
290.256134
  0
CIRCLE
  8
0
 10
78.149521
 20
27.043716
 40
5.000000
  0
CIRCLE
  8
0
 10
78.149521
 20
27.043716
 40
2.000000
  0
ARC
  8
0
 10
201.149490
 20
99.467361
 40
5.776707
 50
69.743835
 51
110.256142
  0
ARC
  8
0
 10
205.149490
 20
99.467361
 40
5.776707
 50
69.743835
 51
110.256165
  0
CIRCLE
  8
0
 10
203.149521
 20
97.244125
 40
2.000000
  0
CIRCLE
  8
0
 10
203.149521
 20
97.244125
 40
5.000000
  0
ARC
  8
0
 10
-41.850479
 20
110.143967
 40
2.000000
 50
90.000107
 51
180.000000
  0
ARC
  8
0
 10
-41.850479
 20
14.143951
 40
2.000000
 50
180.000031
 51
270.000122
  0
CIRCLE
  8
0
 10
-23.850449
 20
104.143967
 40
1.750000
  0
CIRCLE
  8
0
 10
-23.850449
 20
104.143967
 40
3.000000
  0
CIRCLE
  8
0
 10
-12.850479
 20
87.143967
 40
3.000000
  0
CIRCLE
  8
0
 10
-12.850479
 20
87.143967
 40
1.750000
  0
ARC
  8
0
 10
-23.850510
 20
20.143951
 40
3.000000
 50
320.698883
 51
33.557251
  0
CIRCLE
  8
0
 10
-12.850479
 20
37.143967
 40
3.000000
  0
CIRCLE
  8
0
 10
-12.850479
 20
37.143967
 40
1.750000
  0
ARC
  8
0
 62
     2
 10
-25.350464
 20
86.643967
 40
2.000000
 50
0.000000
 51
75.522606
  0
CIRCLE
  8
0
 62
     2
 10
-25.350464
 20
86.643967
 40
2.000000
  0
CIRCLE
  8
0
 10
-25.350464
 20
86.643967
 40
3.000000
  0
CIRCLE
  8
0
 62
     2
 10
-38.850464
 20
82.143967
 40
2.500000
  0
CIRCLE
  8
0
 10
-38.850464
 20
82.143967
 40
2.000000
  0
CIRCLE
  8
0
 10
-38.850479
 20
42.143967
 40
2.000000
  0
CIRCLE
  8
0
 62
     2
 10
-38.850479
 20
42.143967
 40
2.500000
  0
CIRCLE
  8
0
 10
-19.850449
 20
96.143967
 40
2.000000
  0
CIRCLE
  8
0
 62
     2
 10
-19.850449
 20
96.143967
 40
1.500000
  0
ARC
  8
0
 10
-25.350479
 20
37.643967
 40
5.000001
 50
315.570129
 51
224.430008
  0
ARC
  8
0
 10
-27.350479
 20
24.820526
 40
5.776711
 50
249.743912
 51
290.256226
  0
ARC
  8
0
 10
-23.350479
 20
24.820526
 40
5.776710
 50
249.743866
 51
290.256165
  0
ARC
  8
0
 10
-25.350479
 20
37.643967
 40
4.500000
 50
308.938812
 51
231.061325
  0
ARC
  8
0
 10
-25.350479
 20
37.643967
 40
6.999999
 50
306.867187
 51
12.607626
  0
ARC
  8
0
 10
-25.350479
 20
37.643967
 40
7.000000
 50
77.392387
 51
233.132950
  0
ARC
  8
0
 10
-17.395523
 20
41.709824
 40
1.000000
 50
314.999908
 51
45.000076
  0
ARC
  8
0
 10
-21.284622
 20
45.598907
 40
1.000000
 50
45.000076
 51
135.000000
  0
CIRCLE
  8
0
 10
-18.456192
 20
41.356262
 40
1.000000
  0
CIRCLE
  8
0
 10
-21.638168
 20
44.538254
 40
1.000000
  0
CIRCLE
  8
0
 10
78.149521
 20
-114.556091
 40
2.500000
  0
CIRCLE
  8
0
 10
78.149521
 20
-114.556091
 40
4.000000
  0
CIRCLE
  8
0
 10
78.149521
 20
-114.556091
 40
4.900000
  0
ARC
  8
0
 10
-224.350510
 20
62.143906
 40
3.250003
 50
98.849876
 51
261.150116
  0
ARC
  8
0
 10
-194.350510
 20
62.143906
 40
3.250000
 50
270.000000
 51
90.000000
  0
ARC
  8
0
 10
-164.350510
 20
62.143906
 40
3.250000
 50
90.000000
 51
270.000000
  0
ARC
  8
0
 10
-134.350510
 20
62.143906
 40
3.249999
 50
278.849884
 51
81.150124
  0
CIRCLE
  8
0
 10
-221.850494
 20
104.643913
 40
2.250000
  0
CIRCLE
  8
0
 10
-136.850510
 20
104.643906
 40
2.250000
  0
CIRCLE
  8
0
 10
-136.850510
 20
19.643906
 40
2.250000
  0
CIRCLE
  8
0
 10
-221.850510
 20
19.643906
 40
2.250000
  0
ARC
  8
0
 10
-231.350510
 20
28.143906
 40
7.199993
 50
163.665207
 51
196.334808
  0
ARC
  8
0
 10
-236.641495
 20
25.106400
 40
1.909012
 50
147.968506
 51
212.030823
  0
ARC
  8
0
 10
-236.641495
 20
31.181412
 40
1.909017
 50
147.969131
 51
212.031555
  0
ARC
  8
0
 10
-122.059525
 20
93.106400
 40
1.909012
 50
338.086243
 51
32.031502
  0
ARC
  8
0
 10
-127.350510
 20
96.143906
 40
7.200000
 50
343.665222
 51
16.334772
  0
ARC
  8
0
 10
-122.059525
 20
99.181412
 40
1.909012
 50
327.968506
 51
32.030869
  0
CIRCLE
  8
0
 10
-219.850494
 20
72.643913
 40
3.250000
  0
CIRCLE
  8
0
 10
-207.850494
 20
72.643906
 40
3.250000
  0
CIRCLE
  8
0
 10
-150.850510
 20
72.643906
 40
3.250000
  0
CIRCLE
  8
0
 10
-138.850510
 20
72.643906
 40
3.250000
  0
CIRCLE
  8
0
 10
-219.850510
 20
51.643906
 40
3.250000
  0
CIRCLE
  8
0
 10
-207.850510
 20
51.643906
 40
3.250000
  0
CIRCLE
  8
0
 10
-150.850510
 20
51.643906
 40
3.250000
  0
CIRCLE
  8
0
 10
-138.850510
 20
51.643906
 40
3.250000
  0
ARC
  8
0
 10
-126.850510
 20
86.643906
 40
8.499997
 50
340.409637
 51
19.590414
  0
ARC
  8
0
 10
-119.941711
 20
90.644455
 40
1.591200
 50
313.691772
 51
0.000000
  0
ARC
  8
0
 10
-119.939377
 20
82.644363
 40
1.588867
 50
359.983765
 51
46.344204
  0
ARC
  8
0
 10
-238.761642
 20
41.643448
 40
1.588867
 50
179.983765
 51
226.344208
  0
ARC
  8
0
 10
-238.759308
 20
33.643356
 40
1.591203
 50
133.691681
 51
180.000000
  0
ARC
  8
0
 10
-231.850510
 20
37.643906
 40
8.499998
 50
160.409607
 51
199.590393
  0
CIRCLE
  8
0
 10
-221.850510
 20
19.643906
 40
4.000000
  0
CIRCLE
  8
0
 10
-136.850510
 20
19.643906
 40
4.000000
  0
CIRCLE
  8
0
 10
-221.850494
 20
104.643913
 40
4.000000
  0
ARC
  8
0
 10
-136.850510
 20
104.643906
 40
3.999997
 50
341.034363
 51
334.849365
  0
ARC
  8
0
 10
-164.350510
 20
33.143906
 40
0.500000
 50
90.000000
 51
270.000000
  0
CIRCLE
  8
0
 10
-169.350510
 20
33.143906
 40
0.500000
  0
CIRCLE
  8
0
 10
-174.350510
 20
33.143906
 40
0.500000
  0
CIRCLE
  8
0
 10
-179.350510
 20
33.143906
 40
0.500000
  0
CIRCLE
  8
0
 10
-184.350510
 20
33.143906
 40
0.500000
  0
CIRCLE
  8
0
 10
-189.350510
 20
33.143906
 40
0.500000
  0
ARC
  8
0
 10
-194.350510
 20
33.143906
 40
0.500000
 50
270.000000
 51
90.000000
  0
ARC
  8
0
 10
-164.350510
 20
42.143906
 40
0.500000
 50
90.000000
 51
270.000000
  0
CIRCLE
  8
0
 10
-169.350510
 20
42.143906
 40
0.500000
  0
CIRCLE
  8
0
 10
-174.350510
 20
42.143906
 40
0.500000
  0
CIRCLE
  8
0
 10
-179.350510
 20
42.143906
 40
0.500000
  0
CIRCLE
  8
0
 10
-184.350510
 20
42.143906
 40
0.500000
  0
CIRCLE
  8
0
 10
-189.350510
 20
42.143906
 40
0.500000
  0
ARC
  8
0
 10
-194.350510
 20
42.143906
 40
0.500000
 50
270.000000
 51
90.000000
  0
ARC
  8
0
 10
-194.350510
 20
82.143906
 40
0.500000
 50
270.000000
 51
90.000000
  0
CIRCLE
  8
0
 10
-189.350510
 20
82.143906
 40
0.500000
  0
CIRCLE
  8
0
 10
-184.350510
 20
82.143906
 40
0.500000
  0
CIRCLE
  8
0
 10
-179.350510
 20
82.143906
 40
0.500000
  0
CIRCLE
  8
0
 10
-174.350510
 20
82.143906
 40
0.500000
  0
CIRCLE
  8
0
 10
-169.350510
 20
82.143906
 40
0.500000
  0
ARC
  8
0
 10
-164.350510
 20
82.143906
 40
0.500000
 50
90.000000
 51
270.000000
  0
ARC
  8
0
 10
-164.350510
 20
91.143906
 40
0.500000
 50
90.000000
 51
270.000000
  0
CIRCLE
  8
0
 10
-169.350510
 20
91.143906
 40
0.500000
  0
CIRCLE
  8
0
 10
-174.350494
 20
91.143906
 40
0.500000
  0
CIRCLE
  8
0
 10
-179.350494
 20
91.143906
 40
0.500000
  0
CIRCLE
  8
0
 10
-184.350494
 20
91.143906
 40
0.500000
  0
CIRCLE
  8
0
 10
-189.350494
 20
91.143906
 40
0.500000
  0
ARC
  8
0
 10
-194.350494
 20
91.143906
 40
0.500000
 50
270.000000
 51
90.000000
  0
ARC
  8
0
 10
-114.850540
 20
24.820480
 40
5.776709
 50
249.743835
 51
290.256134
  0
ARC
  8
0
 10
-118.850540
 20
24.820480
 40
5.776711
 50
249.743851
 51
290.256165
  0
ARC
  8
0
 10
-243.850464
 20
99.467339
 40
5.776707
 50
69.743835
 51
110.256142
  0
ARC
  8
0
 10
-239.850464
 20
99.467339
 40
5.776707
 50
69.743835
 51
110.256142
  0
CIRCLE
  8
0
 10
-179.350510
 20
104.643906
 40
3.000000
  0
TEXT
  8
0
 10
174.200241
 20
180.830002
 40
6.300000
  1
DATE: AUG ,1994
 50
0.000000
 41
1.052632
 51
0.000000
  7
STANDARD
  0
TEXT
  8
0
 10
167.564667
 20
-192.100006
 40
9.000000
  1
KOGANEI CORP.
 50
0.000000
 41
1.052632
 51
0.000000
  7
STANDARD
  0
TEXT
  8
0
 10
-269.149719
 20
180.830002
 40
6.300000
  1
HANDLING MODULE
 50
0.000000
 41
1.052632
 51
0.000000
  7
STANDARD
  0
TEXT
  8
0
 10
-270.049713
 20
155.830002
 40
6.300000
  1
MODEL:SHM71L
 50
0.000000
 41
1.052632
 51
0.000000
  7
STANDARD
  0
ENDSEC
  0
EOF
