  0
SECTION
  2
HEADER
  0
ENDSEC
  0
SECTION
  2
TABLES
  0
TABLE
  2
LTYPE
 70
     4
  0
LTYPE
  2
CONTINUOUS
 70
    64
  3
Solid line
 72
    65
 73
     0
 40
0.000000
  0
LTYPE
  2
DASHED
 70
    64
  3
__ __ __ __ __ __ __ __ __ __ __ __ __ __ __
 72
    65
 73
     2
 40
3.500000
 49
2.000000
 49
-1.500000
  0
LTYPE
  2
CENTER
 70
    64
  3
____ _ ____ _ ____ _ ____ _ ____ _ ____ _ ____
 72
    65
 73
     4
 40
17.500000
 49
13.000000
 49
-1.500000
 49
1.500000
 49
-1.500000
  0
LTYPE
  2
PHANTOM
 70
    64
  3
_____ _ _ _____ _ _ _____ _ _ _____ _ _ ____  
 72
    65
 73
     6
 40
15.500000
 49
8.000000
 49
-1.500000
 49
1.500000
 49
-1.500000
 49
1.500000
 49
-1.500000
  0
LTYPE
  2
DASHED1
 70
    64
  3
__ __ __ __ __ __ __ __ __ __ __ __ __ __ __
 72
    65
 73
     2
 40
1.500000
 49
1.000000
 49
-0.500000
  0
LTYPE
  2
DASHED2
 70
    64
  3
__ __ __ __ __ __ __ __ __ __ __ __ __ __ __
 72
    65
 73
     2
 40
3.500000
 49
2.500000
 49
-1.000000
  0
LTYPE
  2
DASHED3
 70
    64
  3
__ __ __ __ __ __ __ __ __ __ __ __ __ __ __
 72
    65
 73
     2
 40
6.000000
 49
4.000000
 49
-2.000000
  0
LTYPE
  2
DASHED4
 70
    64
  3
__ __ __ __ __ __ __ __ __ __ __ __ __ __ __
 72
    65
 73
     2
 40
12.000000
 49
10.000000
 49
-2.000000
  0
LTYPE
  2
DASHED5
 70
    64
  3
__ __ __ __ __ __ __ __ __ __ __ __ __ __ __
 72
    65
 73
     2
 40
17.000000
 49
15.000000
 49
-2.000000
  0
LTYPE
  2
DASHED6
 70
    64
  3
__ __ __ __ __ __ __ __ __ __ __ __ __ __ __
 72
    65
 73
     2
 40
29.000000
 49
27.000000
 49
-2.000000
  0
LTYPE
  2
PHANTOM1
 70
    64
  3
_____ _ _ _____ _ _ _____ _ _ _____ _ _ ____  
 72
    65
 73
     6
 40
31.000000
 49
25.000000
 49
-1.500000
 49
1.000000
 49
-1.000000
 49
1.000000
 49
-1.500000
  0
LTYPE
  2
PHANTOM2
 70
    64
  3
_____ _ _ _____ _ _ _____ _ _ _____ _ _ ____  
 72
    65
 73
     6
 40
36.000000
 49
27.000000
 49
-1.500000
 49
2.500000
 49
-1.000000
 49
2.500000
 49
-1.500000
  0
LTYPE
  2
PHANTOM3
 70
    64
  3
_____ _ _ _____ _ _ _____ _ _ _____ _ _ ____  
 72
    65
 73
     6
 40
78.000000
 49
64.000000
 49
-2.000000
 49
4.000000
 49
-2.000000
 49
4.000000
 49
-2.000000
  0
LTYPE
  2
CENTER1
 70
    64
  3
____ _ ____ _ ____ _ ____ _ ____ _ ____ _ ____
 72
    65
 73
     4
 40
19.000000
 49
14.000000
 49
-1.000000
 49
3.000000
 49
-1.000000
  0
LTYPE
  2
CENTER2
 70
    64
  3
____ _ ____ _ ____ _ ____ _ ____ _ ____ _ ____
 72
    65
 73
     4
 40
28.500000
 49
25.000000
 49
-1.000000
 49
1.500000
 49
-1.000000
  0
LTYPE
  2
CENTER3
 70
    64
  3
____ _ ____ _ ____ _ ____ _ ____ _ ____ _ ____
 72
    65
 73
     4
 40
31.500000
 49
27.000000
 49
-1.000000
 49
2.500000
 49
-1.000000
  0
LTYPE
  2
CENTER4
 70
    64
  3
____ _ ____ _ ____ _ ____ _ ____ _ ____ _ ____
 72
    65
 73
     4
 40
50.000000
 49
45.000000
 49
-1.000000
 49
3.000000
 49
-1.000000
  0
LTYPE
  2
CENTER5
 70
    64
  3
____ _ ____ _ ____ _ ____ _ ____ _ ____ _ ____
 72
    65
 73
     4
 40
100.000000
 49
92.000000
 49
-2.000000
 49
4.000000
 49
-2.000000
  0
LTYPE
  2
SBK1
 70
    64
  3
______ _ _ _ ______ _ _ _ ______ _ _ _ _____  
 72
    65
 73
     8
 40
60.500000
 49
45.000000
 49
-2.000000
 49
2.500000
 49
-2.000000
 49
2.500000
 49
-2.000000
 49
2.500000
 49
-2.000000
  0
LTYPE
  2
SBK2
 70
    64
  3
______ _ _ _ ______ _ _ _ ______ _ _ _ _____  
 72
    65
 73
     8
 40
84.000000
 49
64.000000
 49
-2.000000
 49
4.000000
 49
-2.000000
 49
4.000000
 49
-2.000000
 49
4.000000
 49
-2.000000
  0
LTYPE
  2
STCH
 70
    64
  3
__ __ __ __ __ __ __ __ __ __ __ __ __ __ __
 72
    65
 73
     2
 40
3.000000
 49
1.000000
 49
-2.000000
  0
LTYPE
  2
MTCH
 70
    64
  3
_____ _ _ _____ _ _ _____ _ _ _____ _ _ ____  
 72
    65
 73
     6
 40
80.000000
 49
66.000000
 49
-2.000000
 49
4.000000
 49
-2.000000
 49
4.000000
 49
-2.000000
  0
ENDTAB
  0
TABLE
  2
LAYER
 70
     1
  0
LAYER
  2
0
 70
     0
 62
     7
  6
CONTINUOUS
  0
ENDTAB
  0
TABLE
  2
STYLE
 70
     1
  0
STYLE
  2
STANDARD
 70
     0
 40
0.000000
 41
1.000000
 50
0.000000
 71
     0
 42
0.200000
  3
txt
  4
BIGFONT
  0
ENDTAB
  0
TABLE
  2
VIEW
 70
     0
  0
ENDTAB
  0
ENDSEC
  0
SECTION
  2
BLOCKS
  0
ENDSEC
  0
SECTION
  2
ENTITIES
  0
LINE
  8
0
 10
-194.250000
 20
132.600006
 11
194.800003
 21
132.600006
  0
LINE
  8
0
 10
194.800003
 20
132.600006
 11
194.800003
 21
-133.500000
  0
LINE
  8
0
 10
-194.250000
 20
132.600006
 11
-194.250000
 21
-133.500000
  0
LINE
  8
0
 10
-194.250000
 20
-133.500000
 11
194.800003
 21
-133.500000
  0
LINE
  8
0
 10
109.800003
 20
-118.500000
 11
109.800003
 21
-133.500000
  0
LINE
  8
0
 10
109.800003
 20
-118.500000
 11
194.800003
 21
-118.500000
  0
LINE
  8
0
 10
109.800003
 20
132.600006
 11
109.800003
 21
117.600006
  0
LINE
  8
0
 10
109.800003
 20
117.600006
 11
194.800003
 21
117.600006
  0
LINE
  8
0
 10
-194.250000
 20
117.600006
 11
-109.250000
 21
117.600006
  0
LINE
  8
0
 10
-109.250000
 20
132.600006
 11
-109.250000
 21
117.600006
  0
LINE
  8
0
  6
CENTER
 62
     2
 10
-99.331100
 20
54.870056
 11
-99.331100
 21
-16.949944
  0
LINE
  8
0
 10
-129.331100
 20
42.319916
 11
-129.331100
 21
-7.519798
  0
LINE
  8
0
 10
-124.250977
 20
-12.599945
 11
-74.411224
 21
-12.599945
  0
LINE
  8
0
 10
-69.331100
 20
-7.519798
 11
-69.331100
 21
42.319916
  0
LINE
  8
0
 10
-74.411201
 20
47.400055
 11
-124.250961
 21
47.400055
  0
LINE
  8
0
  6
CENTER
 62
     2
 10
-137.131104
 20
17.400055
 11
-48.511101
 21
17.400055
  0
LINE
  8
0
 10
-102.331100
 20
47.400055
 11
-102.331100
 21
41.400055
  0
LINE
  8
0
 10
-96.331100
 20
47.400055
 11
-96.331100
 21
41.400055
  0
LINE
  8
0
 10
-67.131088
 20
20.150063
 11
-67.131088
 21
14.650063
  0
LINE
  8
0
 10
-62.031082
 20
21.400063
 11
-62.031082
 21
13.400063
  0
LINE
  8
0
 10
-62.388451
 20
12.781288
 11
-62.031181
 21
13.400097
  0
LINE
  8
0
 10
-65.523819
 20
12.781219
 11
-62.388351
 21
12.781219
  0
LINE
  8
0
 10
-65.523819
 20
15.090637
 11
-62.488358
 21
15.090637
  0
LINE
  8
0
 10
-65.523819
 20
19.709442
 11
-62.488358
 21
19.709442
  0
LINE
  8
0
 10
-62.388260
 20
22.018936
 11
-62.031002
 21
21.400141
  0
LINE
  8
0
 10
-65.523819
 20
22.018829
 11
-62.388351
 21
22.018829
  0
LINE
  8
0
 10
-69.331100
 20
14.650055
 11
-67.131088
 21
14.650055
  0
LINE
  8
0
 10
-69.331100
 20
20.150055
 11
-67.131088
 21
20.150055
  0
LINE
  8
0
 10
-69.331100
 20
20.150063
 11
-69.331100
 21
14.650063
  0
LINE
  8
0
 10
-67.131004
 20
14.650126
 11
-65.778915
 21
13.298037
  0
LINE
  8
0
 10
-67.131172
 20
20.150183
 11
-65.779099
 21
21.502260
  0
LINE
  8
0
 10
-62.031082
 20
21.400055
 11
-57.431084
 21
21.400055
  0
LINE
  8
0
 10
-62.031082
 20
13.400055
 11
-61.031082
 21
13.400055
  0
LINE
  8
0
 10
-60.453751
 20
20.400055
 11
-57.431091
 21
20.400055
  0
LINE
  8
0
 10
-54.431091
 20
17.400063
 11
-54.431091
 21
12.277412
  0
LINE
  8
0
 10
-61.031082
 20
21.400063
 11
-61.031082
 21
12.277412
  0
LINE
  8
0
 10
-61.030991
 20
21.400146
 11
-60.453636
 21
20.400139
  0
LINE
  8
0
 10
-61.031052
 20
13.400018
 11
-60.453705
 21
14.400011
  0
LINE
  8
0
 10
-60.453751
 20
20.400063
 11
-60.453751
 21
14.400063
  0
LINE
  8
0
 10
-52.831100
 20
3.500065
 11
-52.831100
 21
2.300053
  0
LINE
  8
0
 10
-52.831097
 20
2.300049
 11
-62.631088
 21
2.300049
  0
LINE
  8
0
 10
-52.831097
 20
3.500031
 11
-62.631088
 21
3.500031
  0
LINE
  8
0
 10
-62.631088
 20
3.500069
 11
-62.631088
 21
2.300056
  0
LINE
  8
0
 10
-60.231094
 20
4.200050
 11
-60.231094
 21
3.500069
  0
LINE
  8
0
 10
-55.231094
 20
4.200050
 11
-55.231094
 21
3.500069
  0
LINE
  8
0
 10
-53.731091
 20
4.200043
 11
-61.731094
 21
4.200043
  0
LINE
  8
0
 10
-53.731094
 20
5.000065
 11
-53.731094
 21
4.200047
  0
LINE
  8
0
 10
-61.731094
 20
5.000069
 11
-61.731094
 21
4.200050
  0
LINE
  8
0
 10
-53.731094
 20
5.000031
 11
-61.731094
 21
5.000031
  0
LINE
  8
0
 10
-62.031086
 20
7.000054
 11
-61.731087
 21
5.000060
  0
LINE
  8
0
 10
-53.431061
 20
7.000035
 11
-53.731060
 21
5.000040
  0
LINE
  8
0
 10
-53.431091
 20
7.000031
 11
-62.031082
 21
7.000031
  0
LINE
  8
0
 10
-53.431091
 20
17.400059
 11
-53.431091
 21
7.000065
  0
LINE
  8
0
 10
-53.431068
 20
11.700019
 11
-54.431065
 21
12.277366
  0
LINE
  8
0
 10
-53.431091
 20
11.700043
 11
-62.031082
 21
11.700043
  0
LINE
  8
0
 10
-54.431091
 20
12.277374
 11
-61.031082
 21
12.277374
  0
LINE
  8
0
 10
-62.031208
 20
11.700195
 11
-61.031185
 21
12.277558
  0
LINE
  8
0
 10
-62.031082
 20
11.700050
 11
-62.031082
 21
7.000069
  0
LINE
  8
0
  6
CENTER
 62
     2
 10
-71.331078
 20
42.400055
 11
-77.331078
 21
42.400055
  0
LINE
  8
0
  6
CENTER
 62
     2
 10
-71.331070
 20
-7.599945
 11
-77.331070
 21
-7.599945
  0
LINE
  8
0
  6
CENTER
 62
     2
 10
-94.831093
 20
-7.599945
 11
-103.831093
 21
-7.599945
  0
LINE
  8
0
  6
CENTER
 62
     2
 10
-121.331100
 20
-7.599945
 11
-127.331100
 21
-7.599945
  0
LINE
  8
0
  6
CENTER
 62
     2
 10
-121.331116
 20
42.400055
 11
-127.331116
 21
42.400055
  0
LINE
  8
0
  6
CENTER
 62
     2
 10
-124.331116
 20
45.400055
 11
-124.331116
 21
39.400055
  0
LINE
  8
0
  6
CENTER
 62
     2
 10
-124.331116
 20
-4.599945
 11
-124.331116
 21
-10.599945
  0
LINE
  8
0
  6
CENTER
 62
     2
 10
-74.331078
 20
-4.599945
 11
-74.331078
 21
-10.599945
  0
LINE
  8
0
  6
CENTER
 62
     2
 10
-74.331078
 20
45.400055
 11
-74.331078
 21
39.400055
  0
LINE
  8
0
 10
-2.830116
 20
19.709450
 11
-2.830116
 21
15.090652
  0
LINE
  8
0
 10
18.169884
 20
47.400055
 11
18.169884
 21
-12.599953
  0
LINE
  8
0
 10
14.169872
 20
-12.599945
 11
18.169872
 21
-12.599945
  0
LINE
  8
0
 10
14.169849
 20
47.400059
 11
18.169849
 21
47.400059
  0
LINE
  8
0
 10
4.669849
 20
47.400059
 11
-1.830151
 21
47.400059
  0
LINE
  8
0
 10
4.669872
 20
-12.599945
 11
-1.830128
 21
-12.599945
  0
LINE
  8
0
 10
-1.580151
 20
47.400059
 11
3.919849
 21
47.400059
  0
LINE
  8
0
 10
14.169872
 20
-11.722168
 11
18.169872
 21
-11.722168
  0
LINE
  8
0
 10
14.169872
 20
-8.926239
 11
18.169872
 21
-8.926239
  0
LINE
  8
0
 10
14.169868
 20
-7.519836
 11
18.169868
 21
-7.519836
  0
LINE
  8
0
 10
14.169849
 20
46.522282
 11
18.169849
 21
46.522282
  0
LINE
  8
0
 10
14.169849
 20
43.726322
 11
18.169849
 21
43.726322
  0
LINE
  8
0
 10
14.169853
 20
42.319920
 11
18.169853
 21
42.319920
  0
LINE
  8
0
  6
CENTER
 62
     2
 10
23.169884
 20
-7.519836
 11
-5.041496
 21
-7.519836
  0
LINE
  8
0
  6
CENTER
 62
     2
 10
23.169884
 20
42.319920
 11
-6.296204
 21
42.319920
  0
LINE
  8
0
 10
1.169811
 20
22.018919
 11
-2.830199
 21
19.709517
  0
LINE
  8
0
 10
14.169884
 20
47.400055
 11
14.169884
 21
-12.599953
  0
LINE
  8
0
 10
-1.830116
 20
47.400055
 11
-1.830116
 21
20.286850
  0
LINE
  8
0
 10
6.069870
 20
2.300053
 11
-3.730133
 21
2.300053
  0
LINE
  8
0
 10
6.069878
 20
3.500046
 11
6.069878
 21
2.300049
  0
LINE
  8
0
 10
-3.730110
 20
3.500046
 11
-3.730110
 21
2.300049
  0
LINE
  8
0
 10
5.169876
 20
4.200062
 11
-2.830124
 21
4.200062
  0
LINE
  8
0
 10
6.069870
 20
3.500050
 11
-3.730133
 21
3.500050
  0
LINE
  8
0
 10
-2.830116
 20
5.000061
 11
-2.830116
 21
4.200050
  0
LINE
  8
0
 10
5.169884
 20
5.000046
 11
5.169884
 21
4.200050
  0
LINE
  8
0
 10
-1.330116
 20
4.200050
 11
-1.330116
 21
3.500046
  0
LINE
  8
0
 10
3.669884
 20
4.200050
 11
3.669884
 21
3.500046
  0
LINE
  8
0
 10
5.469887
 20
11.700050
 11
5.469887
 21
7.000046
  0
LINE
  8
0
 10
-3.130119
 20
11.700050
 11
-3.130119
 21
7.000046
  0
LINE
  8
0
 10
5.169876
 20
5.000050
 11
-2.830124
 21
5.000050
  0
LINE
  8
0
 10
5.469872
 20
11.700062
 11
1.669868
 21
11.700062
  0
LINE
  8
0
 10
5.469879
 20
7.000050
 11
-3.130127
 21
7.000050
  0
LINE
  8
0
 10
5.469818
 20
7.000042
 11
5.169815
 21
5.000032
  0
LINE
  8
0
 10
-3.130154
 20
6.999987
 11
-2.830158
 21
4.999999
  0
LINE
  8
0
 10
-3.130153
 20
11.700047
 11
-2.130147
 21
12.277402
  0
LINE
  8
0
 10
5.469888
 20
11.700093
 11
4.469886
 21
12.277442
  0
LINE
  8
0
 10
4.469872
 20
12.277409
 11
1.669868
 21
12.277409
  0
LINE
  8
0
  6
CENTER
 62
     2
 10
-6.990120
 20
17.400059
 11
22.409874
 21
17.400059
  0
LINE
  8
0
 10
-2.830085
 20
15.090686
 11
-1.993621
 21
14.607752
  0
LINE
  8
0
 10
4.333372
 20
14.607740
 11
5.169844
 21
15.090674
  0
LINE
  8
0
 10
5.169914
 20
15.090645
 11
5.169914
 21
19.709442
  0
LINE
  8
0
 10
5.169905
 20
19.709482
 11
1.169903
 21
22.018885
  0
LINE
  8
0
 10
4.469815
 20
12.277393
 11
4.169812
 21
17.400040
  0
LINE
  8
0
 10
-2.130102
 20
12.277406
 11
-1.830094
 21
17.400051
  0
LINE
  8
0
 10
1.669884
 20
21.368675
 11
1.669884
 21
11.700050
  0
LINE
  8
0
 10
0.669884
 20
21.368675
 11
0.669884
 21
11.700050
  0
LINE
  8
0
 10
-2.130135
 20
12.277409
 11
0.669868
 21
12.277409
  0
LINE
  8
0
 10
-3.130135
 20
11.700062
 11
0.669868
 21
11.700062
  0
LINE
  8
0
 10
3.669861
 20
25.700062
 11
4.669861
 21
25.700062
  0
LINE
  8
0
 10
3.669884
 20
2.300049
 11
3.669884
 21
-12.599960
  0
LINE
  8
0
 10
3.669884
 20
47.400055
 11
3.669884
 21
25.700050
  0
LINE
  8
0
 10
4.669872
 20
-11.599945
 11
13.169872
 21
-11.599945
  0
LINE
  8
0
 10
4.669849
 20
46.400059
 11
13.169849
 21
46.400059
  0
LINE
  8
0
 10
4.669884
 20
47.400055
 11
4.669884
 21
19.998169
  0
LINE
  8
0
 10
4.669884
 20
4.200050
 11
4.669884
 21
3.500046
  0
LINE
  8
0
 10
13.169884
 20
46.400055
 11
13.169884
 21
-11.599953
  0
LINE
  8
0
 10
-1.830116
 20
4.200050
 11
-1.830116
 21
3.500046
  0
LINE
  8
0
 10
4.669884
 20
2.300049
 11
4.669884
 21
-12.599960
  0
LINE
  8
0
 10
-1.830116
 20
2.300049
 11
-1.830116
 21
-12.599960
  0
LINE
  8
0
 10
-56.731102
 20
-76.281372
 11
-58.731102
 21
-76.281372
  0
LINE
  8
0
 10
-56.731102
 20
-68.481369
 11
-58.731102
 21
-68.481369
  0
LINE
  8
0
 10
-61.031113
 20
-68.381386
 11
-60.674057
 21
-68.999825
  0
LINE
  8
0
 10
-62.031097
 20
-68.381378
 11
-62.031097
 21
-70.302917
  0
LINE
  8
0
 10
-65.881111
 20
-76.381378
 11
-61.031105
 21
-76.381378
  0
LINE
  8
0
 10
-65.881096
 20
-68.381378
 11
-61.031105
 21
-68.381378
  0
LINE
  8
0
 10
-62.631111
 20
-72.381378
 11
-65.523842
 21
-72.381378
  0
LINE
  8
0
 10
-61.031208
 20
-76.381363
 11
-60.674152
 21
-75.762924
  0
LINE
  8
0
 10
-61.031097
 20
-68.381378
 11
-61.031097
 21
-69.231781
  0
LINE
  8
0
 10
-61.031097
 20
-76.381378
 11
-61.031097
 21
-75.530983
  0
LINE
  8
0
 10
-62.031097
 20
-74.459839
 11
-62.031097
 21
-76.381378
  0
LINE
  8
0
  6
CENTER
 62
     2
 10
-99.331100
 20
-64.881378
 11
-99.331100
 21
-92.297729
  0
LINE
  8
0
 10
-69.331108
 20
-85.381378
 11
-129.331116
 21
-85.381378
  0
LINE
  8
0
 10
-69.331108
 20
-89.381378
 11
-129.331116
 21
-89.381378
  0
LINE
  8
0
 10
-129.331085
 20
-85.381378
 11
-129.331085
 21
-89.381378
  0
LINE
  8
0
 10
-69.331100
 20
-85.381378
 11
-69.331100
 21
-89.381378
  0
LINE
  8
0
 10
-69.331100
 20
-75.881378
 11
-69.331100
 21
-69.381378
  0
LINE
  8
0
 10
-129.331085
 20
-75.881378
 11
-129.331085
 21
-69.381378
  0
LINE
  8
0
 10
-67.131104
 20
-69.631378
 11
-67.131104
 21
-75.131378
  0
LINE
  8
0
 10
-69.331108
 20
-75.131378
 11
-67.131111
 21
-75.131378
  0
LINE
  8
0
 10
-69.331108
 20
-69.631378
 11
-67.131111
 21
-69.631378
  0
LINE
  8
0
 10
-67.131111
 20
-75.131386
 11
-65.881104
 21
-76.381393
  0
LINE
  8
0
 10
-67.131134
 20
-69.631340
 11
-65.881142
 21
-68.381348
  0
LINE
  8
0
 10
-128.453308
 20
-85.381378
 11
-128.453308
 21
-89.381378
  0
LINE
  8
0
 10
-125.657379
 20
-85.381378
 11
-125.657379
 21
-89.381378
  0
LINE
  8
0
 10
-124.250977
 20
-85.381378
 11
-124.250977
 21
-89.381378
  0
LINE
  8
0
 10
-70.208878
 20
-85.381378
 11
-70.208878
 21
-89.381378
  0
LINE
  8
0
 10
-73.004807
 20
-85.381378
 11
-73.004807
 21
-89.381378
  0
LINE
  8
0
 10
-74.411209
 20
-85.381378
 11
-74.411209
 21
-89.381378
  0
LINE
  8
0
 10
-107.131104
 20
-74.881378
 11
-107.131104
 21
-75.881378
  0
LINE
  8
0
 10
-91.531097
 20
-74.881378
 11
-91.531097
 21
-75.881378
  0
LINE
  8
0
 10
-107.131111
 20
-74.881378
 11
-129.331116
 21
-74.881378
  0
LINE
  8
0
 10
-91.531105
 20
-74.881378
 11
-69.331108
 21
-74.881378
  0
LINE
  8
0
 10
-69.331108
 20
-69.381378
 11
-129.331116
 21
-69.381378
  0
LINE
  8
0
 10
-69.331108
 20
-75.881378
 11
-129.331116
 21
-75.881378
  0
LINE
  8
0
 10
-128.331085
 20
-75.881378
 11
-128.331085
 21
-84.381378
  0
LINE
  8
0
 10
-70.331100
 20
-75.881378
 11
-70.331100
 21
-84.381378
  0
LINE
  8
0
 10
-70.331108
 20
-84.381378
 11
-128.331116
 21
-84.381378
  0
LINE
  8
0
  6
CENTER
 62
     2
 10
-74.331100
 20
-64.381378
 11
-74.331100
 21
-95.800415
  0
LINE
  8
0
  6
CENTER
 62
     2
 10
-124.331085
 20
-64.381378
 11
-124.331085
 21
-95.969330
  0
LINE
  8
0
 10
140.668869
 20
43.857529
 11
140.668869
 21
-9.057510
  0
LINE
  8
0
 10
136.609131
 20
46.522255
 11
134.077896
 21
43.991013
  0
LINE
  8
0
 10
139.791107
 20
43.340275
 11
137.259872
 21
40.809036
  0
LINE
  8
0
 10
139.791077
 20
-8.540245
 11
137.259857
 21
-6.009028
  0
LINE
  8
0
 10
136.609039
 20
-11.722252
 11
134.077820
 21
-9.191035
  0
LINE
  8
0
 10
137.126389
 20
-12.599937
 11
84.211334
 21
-12.599937
  0
LINE
  8
0
 10
84.728653
 20
-11.722191
 11
87.259880
 21
-9.190959
  0
LINE
  8
0
 10
81.546684
 20
-8.540149
 11
84.077919
 21
-6.008920
  0
LINE
  8
0
 10
80.668869
 20
-9.057465
 11
80.668869
 21
43.857559
  0
LINE
  8
0
 10
81.546593
 20
43.340210
 11
84.077827
 21
40.808971
  0
LINE
  8
0
 10
84.728539
 20
46.522175
 11
87.259766
 21
43.990955
  0
LINE
  8
0
  6
CENTER
 62
     2
 10
148.048874
 20
17.400059
 11
57.748871
 21
17.400059
  0
LINE
  8
0
 10
78.468857
 20
20.150047
 11
78.468857
 21
14.650047
  0
LINE
  8
0
 10
73.368851
 20
21.400047
 11
73.368851
 21
13.400047
  0
LINE
  8
0
 10
73.726219
 20
12.781300
 11
73.368950
 21
13.400108
  0
LINE
  8
0
 10
76.861588
 20
12.781254
 11
73.726120
 21
12.781254
  0
LINE
  8
0
 10
76.861595
 20
15.090656
 11
73.826134
 21
15.090656
  0
LINE
  8
0
 10
76.861610
 20
19.709461
 11
73.826149
 21
19.709461
  0
LINE
  8
0
 10
73.726166
 20
22.018877
 11
73.368904
 21
21.400082
  0
LINE
  8
0
 10
76.861618
 20
22.018864
 11
73.726151
 21
22.018864
  0
LINE
  8
0
 10
80.668877
 20
14.650059
 11
78.468864
 21
14.650059
  0
LINE
  8
0
 10
80.668892
 20
20.150059
 11
78.468880
 21
20.150059
  0
LINE
  8
0
 10
80.668869
 20
20.150047
 11
80.668869
 21
14.650047
  0
LINE
  8
0
 10
78.468864
 20
14.650122
 11
77.116776
 21
13.298033
  0
LINE
  8
0
 10
78.468948
 20
20.150150
 11
77.116875
 21
21.502226
  0
LINE
  8
0
 10
73.368881
 20
21.400059
 11
68.768890
 21
21.400059
  0
LINE
  8
0
 10
73.368851
 20
13.400059
 11
72.368851
 21
13.400059
  0
LINE
  8
0
 10
71.791542
 20
20.400059
 11
68.768883
 21
20.400059
  0
LINE
  8
0
 10
65.768860
 20
17.400055
 11
65.768860
 21
12.277405
  0
LINE
  8
0
 10
72.368851
 20
21.400047
 11
72.368851
 21
12.277397
  0
LINE
  8
0
 10
72.368881
 20
21.400099
 11
71.791527
 21
20.400091
  0
LINE
  8
0
 10
72.368904
 20
13.400072
 11
71.791550
 21
14.400080
  0
LINE
  8
0
 10
71.791519
 20
20.400047
 11
71.791519
 21
14.400047
  0
LINE
  8
0
 10
64.168869
 20
3.500053
 11
64.168869
 21
2.300056
  0
LINE
  8
0
 10
64.168869
 20
2.300053
 11
73.968857
 21
2.300053
  0
LINE
  8
0
 10
64.168869
 20
3.500050
 11
73.968857
 21
3.500050
  0
LINE
  8
0
 10
73.968857
 20
3.500046
 11
73.968857
 21
2.300049
  0
LINE
  8
0
 10
71.568863
 20
4.200050
 11
71.568863
 21
3.500046
  0
LINE
  8
0
 10
66.568863
 20
4.200058
 11
66.568863
 21
3.500053
  0
LINE
  8
0
 10
65.068863
 20
4.200062
 11
73.068863
 21
4.200062
  0
LINE
  8
0
 10
65.068863
 20
5.000053
 11
65.068863
 21
4.200058
  0
LINE
  8
0
 10
73.068863
 20
5.000061
 11
73.068863
 21
4.200050
  0
LINE
  8
0
 10
65.068863
 20
5.000050
 11
73.068863
 21
5.000050
  0
LINE
  8
0
 10
73.368896
 20
7.000022
 11
73.068901
 21
5.000012
  0
LINE
  8
0
 10
64.768845
 20
7.000096
 11
65.068848
 21
5.000086
  0
LINE
  8
0
 10
64.768860
 20
7.000050
 11
73.368851
 21
7.000050
  0
LINE
  8
0
 10
64.768860
 20
17.400055
 11
64.768860
 21
7.000053
  0
LINE
  8
0
 10
64.768806
 20
11.700153
 11
65.768814
 21
12.277508
  0
LINE
  8
0
 10
64.768860
 20
11.700062
 11
73.368851
 21
11.700062
  0
LINE
  8
0
 10
65.768860
 20
12.277409
 11
72.368851
 21
12.277409
  0
LINE
  8
0
 10
73.368874
 20
11.700057
 11
72.368866
 21
12.277412
  0
LINE
  8
0
 10
73.368851
 20
11.700050
 11
73.368851
 21
7.000046
  0
LINE
  8
0
 10
137.126404
 20
47.400059
 11
84.211411
 21
47.400059
  0
LINE
  8
0
  6
CENTER
 62
     2
 10
110.668877
 20
-16.529953
 11
110.668877
 21
53.610039
  0
LINE
  8
0
  6
CENTER
 62
     2
 10
85.668877
 20
14.400047
 11
85.668877
 21
20.400047
  0
LINE
  8
0
  6
CENTER
 62
     2
 10
135.668884
 20
14.400017
 11
135.668884
 21
20.400017
  0
LINE
  8
0
  6
CENTER
 62
     2
 10
107.668861
 20
-7.599953
 11
113.668861
 21
-7.599953
  0
LINE
  8
0
  6
CENTER
 62
     2
 10
107.668900
 20
42.400043
 11
113.668900
 21
42.400043
  0
LINE
  8
0
  6
CENTER
 62
     2
 10
81.668877
 20
42.400043
 11
89.668877
 21
42.400043
  0
LINE
  8
0
  6
CENTER
 62
     2
 10
85.668877
 20
46.400043
 11
85.668877
 21
38.400043
  0
LINE
  8
0
  6
CENTER
 62
     2
 10
135.668884
 20
46.400043
 11
135.668884
 21
38.400043
  0
LINE
  8
0
  6
CENTER
 62
     2
 10
139.668884
 20
42.400043
 11
131.668884
 21
42.400043
  0
LINE
  8
0
  6
CENTER
 62
     2
 10
85.668877
 20
-11.599926
 11
85.668877
 21
-3.599926
  0
LINE
  8
0
  6
CENTER
 62
     2
 10
81.668877
 20
-7.599926
 11
89.668877
 21
-7.599926
  0
LINE
  8
0
  6
CENTER
 62
     2
 10
135.668884
 20
-11.599926
 11
135.668884
 21
-3.599926
  0
LINE
  8
0
  6
CENTER
 62
     2
 10
139.668884
 20
-7.599926
 11
131.668884
 21
-7.599926
  0
ARC
  8
0
 10
-57.431084
 20
17.400051
 40
3.000000
 50
359.999969
 51
89.999924
  0
ARC
  8
0
 10
-58.238350
 20
17.400051
 40
7.642737
 50
162.411987
 51
197.587891
  0
ARC
  8
0
 10
-57.431084
 20
17.400051
 40
4.000000
 50
359.999969
 51
89.999947
  0
ARC
  8
0
 10
-99.331093
 20
17.400055
 40
39.000004
 50
219.715088
 51
221.692596
  0
ARC
  8
0
 10
-99.331093
 20
17.400055
 40
39.000000
 50
39.715088
 51
50.284840
  0
ARC
  8
0
 10
-99.331093
 20
17.400055
 40
39.000004
 50
309.715057
 51
320.284882
  0
ARC
  8
0
 10
-99.331093
 20
17.400055
 40
39.000000
 50
129.715073
 51
140.284851
  0
ARC
  8
0
 10
-99.331093
 20
17.400055
 40
38.999996
 50
219.715149
 51
230.284882
  0
CIRCLE
  8
0
 10
-99.331093
 20
-7.599945
 40
3.000000
  0
ARC
  8
0
 10
-99.331085
 20
41.400055
 40
3.000000
 50
179.999924
 51
0.000000
  0
CIRCLE
  8
0
 62
     2
 10
-124.331116
 20
-7.599945
 40
2.000000
  0
CIRCLE
  8
0
 62
     2
 10
-74.331078
 20
-7.599945
 40
2.000000
  0
CIRCLE
  8
0
 62
     2
 10
-124.331100
 20
42.400055
 40
2.000000
  0
CIRCLE
  8
0
 62
     2
 10
-74.331070
 20
42.400055
 40
2.000000
  0
ARC
  8
0
 10
-69.673820
 20
17.400055
 40
7.642735
 50
342.412018
 51
17.587923
  0
ARC
  8
0
 10
-64.075752
 20
13.935944
 40
2.044659
 50
359.999969
 51
34.384209
  0
ARC
  8
0
 10
-63.836433
 20
13.935944
 40
2.044660
 50
145.615723
 51
214.384186
  0
ARC
  8
0
 10
-64.075752
 20
20.864166
 40
2.044660
 50
325.615692
 51
359.999878
  0
ARC
  8
0
 10
-63.836433
 20
20.864166
 40
2.044659
 50
145.615753
 51
214.384171
  0
CIRCLE
  8
0
 10
-124.331116
 20
-7.599945
 40
1.600000
  0
CIRCLE
  8
0
 10
-74.331078
 20
-7.599945
 40
1.600000
  0
CIRCLE
  8
0
 10
-74.331070
 20
42.400055
 40
1.600000
  0
CIRCLE
  8
0
 10
-124.331100
 20
42.400055
 40
1.600000
  0
ARC
  8
0
 10
1.169868
 20
17.400047
 40
4.000000
 50
321.831024
 51
218.169022
  0
ARC
  8
0
 10
1.169868
 20
17.400047
 40
3.000000
 50
359.999878
 51
80.406006
  0
ARC
  8
0
 10
1.169868
 20
17.400047
 40
3.000000
 50
99.593994
 51
180.000153
  0
ARC
  8
0
 10
-56.731102
 20
-72.381378
 40
3.900002
 50
270.000000
 51
89.999947
  0
ARC
  8
0
 10
-58.731102
 20
-72.381378
 40
3.900002
 50
90.000000
 51
269.999939
  0
CIRCLE
  8
0
 10
-57.731102
 20
-72.381378
 40
2.000000
  0
ARC
  8
0
 10
-60.104393
 20
-70.381378
 40
5.776717
 50
159.743790
 51
200.256042
  0
ARC
  8
0
 10
-67.807823
 20
-70.381378
 40
5.776717
 50
0.770055
 51
20.256042
  0
ARC
  8
0
 10
-67.807823
 20
-74.381378
 40
5.776718
 50
339.743866
 51
359.230011
  0
ARC
  8
0
 10
-60.104393
 20
-74.381378
 40
5.776717
 50
159.743790
 51
200.256042
  0
ARC
  8
0
 10
110.668877
 20
17.400040
 40
39.000000
 50
228.307419
 51
230.284866
  0
ARC
  8
0
 10
110.668877
 20
17.400040
 40
39.000000
 50
219.715149
 51
221.692642
  0
ARC
  8
0
 10
110.668877
 20
17.400040
 40
39.999996
 50
41.409634
 51
48.590408
  0
ARC
  8
0
 10
110.668877
 20
17.400040
 40
40.000000
 50
131.409592
 51
138.590378
  0
ARC
  8
0
 10
110.668877
 20
17.400040
 40
39.000000
 50
138.307480
 51
140.284973
  0
ARC
  8
0
 10
110.668877
 20
17.400040
 40
40.000000
 50
221.409637
 51
228.590393
  0
ARC
  8
0
 10
110.668877
 20
17.400040
 40
39.000000
 50
129.715103
 51
131.692795
  0
ARC
  8
0
 10
135.668900
 20
42.400024
 40
2.249997
 50
135.000000
 51
315.000000
  0
ARC
  8
0
 10
135.668854
 20
-7.599976
 40
2.249999
 50
45.000042
 51
225.000046
  0
ARC
  8
0
 10
85.668869
 20
-7.599945
 40
2.249998
 50
314.999969
 51
134.999969
  0
ARC
  8
0
 10
85.668900
 20
42.400055
 40
2.250000
 50
225.000076
 51
45.000069
  0
CIRCLE
  8
0
 10
110.668861
 20
-7.599960
 40
2.000000
  0
CIRCLE
  8
0
 10
135.668884
 20
17.400024
 40
2.000000
  0
CIRCLE
  8
0
 10
110.668900
 20
42.400040
 40
2.000000
  0
CIRCLE
  8
0
 10
85.668884
 20
17.400055
 40
2.000000
  0
ARC
  8
0
 10
68.768875
 20
17.400066
 40
4.000000
 50
90.000000
 51
179.999939
  0
ARC
  8
0
 10
81.011612
 20
17.400059
 40
7.642736
 50
162.412003
 51
197.587891
  0
ARC
  8
0
 10
75.413544
 20
13.935955
 40
2.044660
 50
145.615723
 51
179.999939
  0
ARC
  8
0
 10
75.174225
 20
13.935955
 40
2.044658
 50
325.615753
 51
34.384209
  0
ARC
  8
0
 10
75.413544
 20
20.864162
 40
2.044662
 50
180.000061
 51
214.384247
  0
ARC
  8
0
 10
75.174225
 20
20.864162
 40
2.044659
 50
325.615753
 51
34.384167
  0
ARC
  8
0
 10
69.576141
 20
17.400066
 40
7.642735
 50
342.412018
 51
17.587950
  0
ARC
  8
0
 10
68.768875
 20
17.400066
 40
3.000000
 50
90.000000
 51
179.999969
  0
ARC
  8
0
 10
110.668877
 20
17.400040
 40
40.000004
 50
311.409637
 51
318.590363
  0
ARC
  8
0
 10
110.668877
 20
17.400040
 40
39.000000
 50
309.715149
 51
311.692505
  0
ARC
  8
0
 10
110.668877
 20
17.400040
 40
39.000000
 50
318.307312
 51
320.284882
  0
ARC
  8
0
 10
110.668877
 20
17.400040
 40
39.000000
 50
39.715050
 51
41.692547
  0
ARC
  8
0
 10
110.668877
 20
17.400040
 40
38.999996
 50
48.307335
 51
50.284782
  0
TEXT
  8
0
 10
115.907150
 20
122.050003
 40
4.500000
  1
DATE : MAY ,1993
 50
0.000000
 41
1.052631
 51
0.000000
  7
STANDARD
  0
TEXT
  8
0
 10
113.700279
 20
-130.669998
 40
6.300000
  1
KOGANEI CORP.
 50
0.000000
 41
1.052632
 51
0.000000
  7
STANDARD
  0
TEXT
  8
0
 10
-185.892654
 20
122.050003
 40
4.500000
  1
HANDLING MODULE
 50
0.000000
 41
1.052632
 51
0.000000
  7
STANDARD
  0
TEXT
  8
0
 10
-186.892654
 20
104.550003
 40
4.500000
  1
MODEL:SHM61S
 50
0.000000
 41
1.052632
 51
0.000000
  7
STANDARD
  0
ENDSEC
  0
EOF
