  0
SECTION
  2
HEADER
  0
ENDSEC
  0
SECTION
  2
TABLES
  0
TABLE
  2
LTYPE
 70
     4
  0
LTYPE
  2
CONTINUOUS
 70
    64
  3
Solid line
 72
    65
 73
     0
 40
0.000000
  0
LTYPE
  2
DASHED
 70
    64
  3
__ __ __ __ __ __ __ __ __ __ __ __ __ __ __
 72
    65
 73
     2
 40
3.500000
 49
2.000000
 49
-1.500000
  0
LTYPE
  2
CENTER
 70
    64
  3
____ _ ____ _ ____ _ ____ _ ____ _ ____ _ ____
 72
    65
 73
     4
 40
17.500000
 49
13.000000
 49
-1.500000
 49
1.500000
 49
-1.500000
  0
LTYPE
  2
PHANTOM
 70
    64
  3
_____ _ _ _____ _ _ _____ _ _ _____ _ _ ____  
 72
    65
 73
     6
 40
15.500000
 49
8.000000
 49
-1.500000
 49
1.500000
 49
-1.500000
 49
1.500000
 49
-1.500000
  0
LTYPE
  2
DASHED1
 70
    64
  3
__ __ __ __ __ __ __ __ __ __ __ __ __ __ __
 72
    65
 73
     2
 40
1.500000
 49
1.000000
 49
-0.500000
  0
LTYPE
  2
DASHED2
 70
    64
  3
__ __ __ __ __ __ __ __ __ __ __ __ __ __ __
 72
    65
 73
     2
 40
3.500000
 49
2.500000
 49
-1.000000
  0
LTYPE
  2
DASHED3
 70
    64
  3
__ __ __ __ __ __ __ __ __ __ __ __ __ __ __
 72
    65
 73
     2
 40
6.000000
 49
4.000000
 49
-2.000000
  0
LTYPE
  2
DASHED4
 70
    64
  3
__ __ __ __ __ __ __ __ __ __ __ __ __ __ __
 72
    65
 73
     2
 40
12.000000
 49
10.000000
 49
-2.000000
  0
LTYPE
  2
DASHED5
 70
    64
  3
__ __ __ __ __ __ __ __ __ __ __ __ __ __ __
 72
    65
 73
     2
 40
17.000000
 49
15.000000
 49
-2.000000
  0
LTYPE
  2
DASHED6
 70
    64
  3
__ __ __ __ __ __ __ __ __ __ __ __ __ __ __
 72
    65
 73
     2
 40
29.000000
 49
27.000000
 49
-2.000000
  0
LTYPE
  2
PHANTOM1
 70
    64
  3
_____ _ _ _____ _ _ _____ _ _ _____ _ _ ____  
 72
    65
 73
     6
 40
31.000000
 49
25.000000
 49
-1.500000
 49
1.000000
 49
-1.000000
 49
1.000000
 49
-1.500000
  0
LTYPE
  2
PHANTOM2
 70
    64
  3
_____ _ _ _____ _ _ _____ _ _ _____ _ _ ____  
 72
    65
 73
     6
 40
36.000000
 49
27.000000
 49
-1.500000
 49
2.500000
 49
-1.000000
 49
2.500000
 49
-1.500000
  0
LTYPE
  2
PHANTOM3
 70
    64
  3
_____ _ _ _____ _ _ _____ _ _ _____ _ _ ____  
 72
    65
 73
     6
 40
78.000000
 49
64.000000
 49
-2.000000
 49
4.000000
 49
-2.000000
 49
4.000000
 49
-2.000000
  0
LTYPE
  2
CENTER1
 70
    64
  3
____ _ ____ _ ____ _ ____ _ ____ _ ____ _ ____
 72
    65
 73
     4
 40
19.000000
 49
14.000000
 49
-1.000000
 49
3.000000
 49
-1.000000
  0
LTYPE
  2
CENTER2
 70
    64
  3
____ _ ____ _ ____ _ ____ _ ____ _ ____ _ ____
 72
    65
 73
     4
 40
28.500000
 49
25.000000
 49
-1.000000
 49
1.500000
 49
-1.000000
  0
LTYPE
  2
CENTER3
 70
    64
  3
____ _ ____ _ ____ _ ____ _ ____ _ ____ _ ____
 72
    65
 73
     4
 40
31.500000
 49
27.000000
 49
-1.000000
 49
2.500000
 49
-1.000000
  0
LTYPE
  2
CENTER4
 70
    64
  3
____ _ ____ _ ____ _ ____ _ ____ _ ____ _ ____
 72
    65
 73
     4
 40
50.000000
 49
45.000000
 49
-1.000000
 49
3.000000
 49
-1.000000
  0
LTYPE
  2
CENTER5
 70
    64
  3
____ _ ____ _ ____ _ ____ _ ____ _ ____ _ ____
 72
    65
 73
     4
 40
100.000000
 49
92.000000
 49
-2.000000
 49
4.000000
 49
-2.000000
  0
LTYPE
  2
SBK1
 70
    64
  3
______ _ _ _ ______ _ _ _ ______ _ _ _ _____  
 72
    65
 73
     8
 40
60.500000
 49
45.000000
 49
-2.000000
 49
2.500000
 49
-2.000000
 49
2.500000
 49
-2.000000
 49
2.500000
 49
-2.000000
  0
LTYPE
  2
SBK2
 70
    64
  3
______ _ _ _ ______ _ _ _ ______ _ _ _ _____  
 72
    65
 73
     8
 40
84.000000
 49
64.000000
 49
-2.000000
 49
4.000000
 49
-2.000000
 49
4.000000
 49
-2.000000
 49
4.000000
 49
-2.000000
  0
LTYPE
  2
STCH
 70
    64
  3
__ __ __ __ __ __ __ __ __ __ __ __ __ __ __
 72
    65
 73
     2
 40
3.000000
 49
1.000000
 49
-2.000000
  0
LTYPE
  2
MTCH
 70
    64
  3
_____ _ _ _____ _ _ _____ _ _ _____ _ _ ____  
 72
    65
 73
     6
 40
80.000000
 49
66.000000
 49
-2.000000
 49
4.000000
 49
-2.000000
 49
4.000000
 49
-2.000000
  0
ENDTAB
  0
TABLE
  2
LAYER
 70
     1
  0
LAYER
  2
0
 70
     0
 62
     7
  6
CONTINUOUS
  0
ENDTAB
  0
TABLE
  2
STYLE
 70
     1
  0
STYLE
  2
STANDARD
 70
     0
 40
0.000000
 41
1.000000
 50
0.000000
 71
     0
 42
0.200000
  3
txt
  4
BIGFONT
  0
ENDTAB
  0
TABLE
  2
VIEW
 70
     0
  0
ENDTAB
  0
ENDSEC
  0
SECTION
  2
BLOCKS
  0
ENDSEC
  0
SECTION
  2
ENTITIES
  0
LINE
  8
0
 10
-194.250000
 20
132.600006
 11
194.800003
 21
132.600006
  0
LINE
  8
0
 10
194.800003
 20
132.600006
 11
194.800003
 21
-133.500000
  0
LINE
  8
0
 10
-194.250000
 20
132.600006
 11
-194.250000
 21
-133.500000
  0
LINE
  8
0
 10
-194.250000
 20
-133.500000
 11
194.800003
 21
-133.500000
  0
LINE
  8
0
 10
109.800003
 20
-118.500000
 11
109.800003
 21
-133.500000
  0
LINE
  8
0
 10
109.800003
 20
-118.500000
 11
194.800003
 21
-118.500000
  0
LINE
  8
0
 10
109.800003
 20
132.600006
 11
109.800003
 21
117.600006
  0
LINE
  8
0
 10
109.800003
 20
117.600006
 11
194.800003
 21
117.600006
  0
LINE
  8
0
 10
-194.250000
 20
117.600006
 11
-109.250000
 21
117.600006
  0
LINE
  8
0
 10
-109.250000
 20
132.600006
 11
-109.250000
 21
117.600006
  0
LINE
  8
0
  6
CENTER
 62
     2
 10
-60.000000
 20
-35.971558
 11
-60.000000
 21
34.449963
  0
LINE
  8
0
 10
-29.999992
 20
30.000000
 11
-89.999992
 21
30.000000
  0
LINE
  8
0
 10
-29.999985
 20
-30.000000
 11
-89.999985
 21
-30.000000
  0
LINE
  8
0
 10
-30.000000
 20
-30.000000
 11
-30.000000
 21
-13.000004
  0
LINE
  8
0
 10
-89.999992
 20
-30.000000
 11
-89.999992
 21
-3.000019
  0
LINE
  8
0
 10
-63.000000
 20
23.999996
 11
-63.000000
 21
29.999996
  0
LINE
  8
0
 10
-57.000000
 20
23.999996
 11
-57.000000
 21
29.999996
  0
LINE
  8
0
 10
-89.999992
 20
12.999985
 11
-75.999992
 21
12.999985
  0
LINE
  8
0
 10
-89.999992
 20
-3.000015
 11
-75.999992
 21
-3.000015
  0
LINE
  8
0
 10
-76.000008
 20
12.999996
 11
-76.000008
 21
-3.000004
  0
LINE
  8
0
 10
-30.000000
 20
2.999996
 11
-30.000000
 21
29.999996
  0
LINE
  8
0
 10
-89.999992
 20
12.999981
 11
-89.999992
 21
29.999996
  0
LINE
  8
0
 10
-29.999992
 20
-13.000000
 11
-43.999992
 21
-13.000000
  0
LINE
  8
0
 10
-44.000000
 20
-13.000004
 11
-44.000000
 21
2.999996
  0
LINE
  8
0
 62
     4
 10
-86.999992
 20
4.999992
 11
-81.000008
 21
4.999992
  0
LINE
  8
0
 62
     4
 10
-86.999992
 20
-2.000008
 11
-75.999992
 21
-2.000008
  0
LINE
  8
0
 10
-81.000008
 20
12.999996
 11
-81.000008
 21
10.999989
  0
LINE
  8
0
 62
     4
 10
-87.000008
 20
4.999996
 11
-87.000008
 21
-2.000004
  0
LINE
  8
0
 62
     4
 10
-88.999992
 20
3.999992
 11
-86.999992
 21
3.999992
  0
LINE
  8
0
 62
     4
 10
-88.999992
 20
-1.000008
 11
-86.999992
 21
-1.000008
  0
LINE
  8
0
 62
     4
 10
-89.000008
 20
3.999996
 11
-89.000008
 21
-1.000004
  0
LINE
  8
0
 62
     4
 10
-95.800003
 20
2.999992
 11
-88.999992
 21
2.999992
  0
LINE
  8
0
 10
-77.100014
 20
11.899990
 11
-77.100014
 21
6.099995
  0
LINE
  8
0
 10
-79.899986
 20
11.899986
 11
-77.099983
 21
11.899986
  0
LINE
  8
0
 10
-79.899986
 20
6.099991
 11
-77.099983
 21
6.099991
  0
LINE
  8
0
 10
-79.900017
 20
11.899990
 11
-79.900017
 21
10.999989
  0
LINE
  8
0
 62
     4
 10
-77.800011
 20
11.799999
 11
-77.800011
 21
6.199993
  0
LINE
  8
0
 62
     4
 10
-89.700005
 20
11.799995
 11
-85.999992
 21
11.799995
  0
LINE
  8
0
 62
     4
 10
-86.700005
 20
11.799999
 11
-86.700005
 21
6.199993
  0
LINE
  8
0
 62
     4
 10
-89.700005
 20
6.199989
 11
-85.999992
 21
6.199989
  0
LINE
  8
0
 10
-80.999992
 20
6.999992
 11
-79.900002
 21
6.999992
  0
LINE
  8
0
 10
-80.999992
 20
10.999992
 11
-79.900002
 21
10.999992
  0
LINE
  8
0
 62
     4
 10
-86.000008
 20
12.999996
 11
-86.000008
 21
4.999996
  0
LINE
  8
0
 10
-29.999992
 20
3.000000
 11
-43.999992
 21
3.000000
  0
LINE
  8
0
 62
     4
 10
-32.999992
 20
2.000000
 11
-43.999992
 21
2.000000
  0
LINE
  8
0
 62
     4
 10
-32.999992
 20
-5.000000
 11
-38.999992
 21
-5.000000
  0
LINE
  8
0
 10
-39.000000
 20
-13.000004
 11
-39.000000
 21
-11.000004
  0
LINE
  8
0
 62
     4
 10
-33.000000
 20
-5.000004
 11
-33.000000
 21
1.999996
  0
LINE
  8
0
 62
     4
 10
-30.999992
 20
-4.000000
 11
-32.999992
 21
-4.000000
  0
LINE
  8
0
 62
     4
 10
-30.999992
 20
1.000000
 11
-32.999992
 21
1.000000
  0
LINE
  8
0
 62
     4
 10
-31.000000
 20
-4.000004
 11
-31.000000
 21
0.999996
  0
LINE
  8
0
 62
     4
 10
-24.200005
 20
-3.000000
 11
-30.999992
 21
-3.000000
  0
LINE
  8
0
 10
-42.900002
 20
-11.899998
 11
-42.900002
 21
-6.100002
  0
LINE
  8
0
 10
-40.099983
 20
-11.899994
 11
-42.899986
 21
-11.899994
  0
LINE
  8
0
 10
-40.099983
 20
-6.099998
 11
-42.899986
 21
-6.099998
  0
LINE
  8
0
 10
-40.099998
 20
-11.899998
 11
-40.099998
 21
-11.000004
  0
LINE
  8
0
 62
     4
 10
-42.200005
 20
-11.800007
 11
-42.200005
 21
-6.200001
  0
LINE
  8
0
 62
     4
 10
-30.299995
 20
-11.800003
 11
-33.999992
 21
-11.800003
  0
LINE
  8
0
 62
     4
 10
-33.300003
 20
-11.800007
 11
-33.300003
 21
-6.200001
  0
LINE
  8
0
 62
     4
 10
-30.299995
 20
-6.199997
 11
-33.999992
 21
-6.199997
  0
LINE
  8
0
 10
-38.999992
 20
-7.000000
 11
-40.099983
 21
-7.000000
  0
LINE
  8
0
 10
-38.999992
 20
-11.000000
 11
-40.099983
 21
-11.000000
  0
LINE
  8
0
 62
     4
 10
-34.000000
 20
-13.000004
 11
-34.000000
 21
-5.000004
  0
LINE
  8
0
 62
     4
 10
-89.700005
 20
11.799999
 11
-89.700005
 21
6.199993
  0
LINE
  8
0
 62
     4
 10
-30.300003
 20
-11.800007
 11
-30.300003
 21
-6.200001
  0
LINE
  8
0
  6
CENTER
 62
     2
 10
-16.946297
 20
0.000000
 11
-103.664177
 21
0.000000
  0
LINE
  8
0
 10
-39.000000
 20
-7.000004
 11
-39.000000
 21
-5.000004
  0
LINE
  8
0
 10
-81.000008
 20
6.999989
 11
-81.000008
 21
4.999996
  0
LINE
  8
0
 10
-40.099998
 20
-6.953648
 11
-40.099998
 21
-6.100002
  0
LINE
  8
0
 10
-79.900017
 20
6.999989
 11
-79.900017
 21
6.099987
  0
LINE
  8
0
  6
CENTER
 62
     2
 10
-34.999992
 20
27.999996
 11
-34.999992
 21
21.999996
  0
LINE
  8
0
  6
CENTER
 62
     2
 10
-34.999992
 20
-22.000004
 11
-34.999992
 21
-28.000000
  0
LINE
  8
0
  6
CENTER
 62
     2
 10
-84.999992
 20
-22.000004
 11
-84.999992
 21
-28.000000
  0
LINE
  8
0
  6
CENTER
 62
     2
 10
-84.999992
 20
27.999996
 11
-84.999992
 21
21.999996
  0
LINE
  8
0
  6
CENTER
 62
     2
 10
-81.999992
 20
25.000000
 11
-87.999992
 21
25.000000
  0
LINE
  8
0
  6
CENTER
 62
     2
 10
-81.999985
 20
-25.000000
 11
-87.999985
 21
-25.000000
  0
LINE
  8
0
  6
CENTER
 62
     2
 10
-55.499985
 20
-25.000000
 11
-64.499985
 21
-25.000000
  0
LINE
  8
0
  6
CENTER
 62
     2
 10
-31.999985
 20
-25.000000
 11
-37.999985
 21
-25.000000
  0
LINE
  8
0
  6
CENTER
 62
     2
 10
-31.999992
 20
25.000000
 11
-37.999992
 21
25.000000
  0
LINE
  8
0
 62
     1
 10
-26.675777
 20
1.288181
 11
-23.663113
 21
-3.929907
  0
LINE
  8
0
 62
     1
 10
-96.260727
 20
3.797955
 11
-93.481567
 21
-1.015694
  0
LINE
  8
0
 10
-38.999992
 20
-5.000000
 11
-43.999992
 21
-5.000000
  0
LINE
  8
0
 10
-81.000008
 20
4.999992
 11
-75.999992
 21
4.999992
  0
LINE
  8
0
 62
     4
 10
-25.932060
 20
0.000000
 11
-30.999992
 21
0.000000
  0
LINE
  8
0
 62
     4
 10
-94.067955
 20
-0.000008
 11
-88.999992
 21
-0.000008
  0
LINE
  8
0
 10
-127.925049
 20
30.199986
 11
-127.925049
 21
-29.800018
  0
LINE
  8
0
  6
CENTER
 62
     2
 10
-124.999992
 20
-0.000008
 11
-176.073730
 21
-0.000008
  0
LINE
  8
0
 10
-154.925049
 20
30.199863
 11
-154.925049
 21
-29.800140
  0
LINE
  8
0
 10
-166.925049
 20
30.199818
 11
-166.925049
 21
-29.800186
  0
LINE
  8
0
 10
-172.925049
 20
30.199787
 11
-172.925049
 21
-29.800217
  0
LINE
  8
0
 10
-127.925209
 20
30.199989
 11
-154.925201
 21
30.199989
  0
LINE
  8
0
 10
-127.924927
 20
-29.800011
 11
-154.924927
 21
-29.800011
  0
LINE
  8
0
 10
-166.925201
 20
30.199989
 11
-172.925201
 21
30.199989
  0
LINE
  8
0
 10
-148.925049
 20
30.199879
 11
-148.925049
 21
12.999889
  0
LINE
  8
0
 10
-127.925049
 20
-3.000008
 11
-154.925049
 21
-3.000008
  0
LINE
  8
0
 10
-133.925049
 20
30.199955
 11
-133.925049
 21
12.999958
  0
LINE
  8
0
 10
-133.925049
 20
-3.000042
 11
-133.925049
 21
-30.000046
  0
LINE
  8
0
 10
-166.924927
 20
-29.800011
 11
-172.924927
 21
-29.800011
  0
LINE
  8
0
 10
-164.425079
 20
28.199818
 11
-164.425079
 21
25.199818
  0
LINE
  8
0
 10
-154.925018
 20
-12.800011
 11
-164.425018
 21
-12.800011
  0
LINE
  8
0
 10
-154.924957
 20
-20.800011
 11
-164.424957
 21
-20.800011
  0
LINE
  8
0
 10
-164.514755
 20
26.740076
 11
-164.803421
 21
27.240059
  0
LINE
  8
0
 10
-164.514893
 20
19.639866
 11
-164.514893
 21
26.739872
  0
LINE
  8
0
 10
-164.803680
 20
25.240044
 11
-166.626343
 21
25.240044
  0
LINE
  8
0
 10
-164.803680
 20
21.140038
 11
-166.626312
 21
21.140038
  0
LINE
  8
0
 10
-164.803925
 20
19.139984
 11
-164.515259
 21
19.639969
  0
LINE
  8
0
 10
-164.803680
 20
19.140038
 11
-166.626312
 21
19.140038
  0
LINE
  8
0
 10
-166.626068
 20
19.139994
 11
-166.914734
 21
19.639977
  0
LINE
  8
0
 10
-166.915283
 20
26.739981
 11
-166.626602
 21
27.239990
  0
LINE
  8
0
 10
-164.803711
 20
27.240044
 11
-166.626343
 21
27.240044
  0
LINE
  8
0
 10
-154.925171
 20
25.199989
 11
-164.515015
 21
25.199989
  0
LINE
  8
0
 62
     2
 10
-154.925171
 20
24.699989
 11
-164.515015
 21
24.699989
  0
LINE
  8
0
 62
     2
 10
-154.925171
 20
21.699989
 11
-164.514984
 21
21.699989
  0
LINE
  8
0
 10
-154.925171
 20
21.199989
 11
-164.514984
 21
21.199989
  0
LINE
  8
0
 10
-154.925140
 20
14.199989
 11
-164.425140
 21
14.199989
  0
LINE
  8
0
 10
-164.425079
 20
21.199818
 11
-164.425079
 21
8.199818
  0
LINE
  8
0
 10
-164.424927
 20
-26.800011
 11
-166.924927
 21
-26.800011
  0
LINE
  8
0
 10
-164.425049
 20
-6.800011
 11
-166.925049
 21
-6.800011
  0
LINE
  8
0
 10
-164.425079
 20
-6.800182
 11
-164.425079
 21
-26.800186
  0
LINE
  8
0
 10
-164.425110
 20
8.199989
 11
-166.925110
 21
8.199989
  0
LINE
  8
0
 10
-164.425201
 20
28.199989
 11
-166.925201
 21
28.199989
  0
LINE
  8
0
 10
-146.925156
 20
19.199989
 11
-148.925171
 21
19.199989
  0
LINE
  8
0
 10
-146.925201
 20
27.199989
 11
-148.925201
 21
27.199989
  0
LINE
  8
0
 10
-143.724243
 20
26.708612
 11
-144.012909
 21
27.208597
  0
LINE
  8
0
 10
-143.724380
 20
19.608471
 11
-143.724380
 21
26.708485
  0
LINE
  8
0
 10
-144.013184
 20
25.208549
 11
-146.925171
 21
25.208549
  0
LINE
  8
0
 10
-144.013153
 20
21.108543
 11
-146.925171
 21
21.108543
  0
LINE
  8
0
 10
-144.013351
 20
19.108564
 11
-143.724670
 21
19.608574
  0
LINE
  8
0
 10
-144.013153
 20
19.108543
 11
-146.925156
 21
19.108543
  0
LINE
  8
0
 10
-144.013184
 20
27.208549
 11
-146.925201
 21
27.208549
  0
LINE
  8
0
 10
-137.925049
 20
21.199940
 11
-137.925049
 21
25.199940
  0
LINE
  8
0
 62
     2
 10
-137.925171
 20
21.699989
 11
-141.324493
 21
21.699989
  0
LINE
  8
0
 62
     2
 10
-137.925171
 20
24.699989
 11
-141.324509
 21
24.699989
  0
LINE
  8
0
 10
-137.925171
 20
21.199989
 11
-141.324493
 21
21.199989
  0
LINE
  8
0
 10
-137.925171
 20
25.199989
 11
-141.324509
 21
25.199989
  0
LINE
  8
0
 10
-141.324234
 20
26.708569
 11
-141.612900
 21
27.208553
  0
LINE
  8
0
 10
-141.324387
 20
19.608479
 11
-141.324387
 21
26.708485
  0
LINE
  8
0
 10
-141.613190
 20
25.208549
 11
-143.435837
 21
25.208549
  0
LINE
  8
0
 10
-141.613159
 20
21.108543
 11
-143.435822
 21
21.108543
  0
LINE
  8
0
 10
-141.613342
 20
19.108576
 11
-141.324661
 21
19.608587
  0
LINE
  8
0
 10
-141.613159
 20
19.108543
 11
-143.435806
 21
19.108543
  0
LINE
  8
0
 10
-143.435532
 20
19.108524
 11
-143.724197
 21
19.608522
  0
LINE
  8
0
 10
-143.724731
 20
26.708588
 11
-143.436050
 21
27.208597
  0
LINE
  8
0
 10
-141.613190
 20
27.208549
 11
-143.435852
 21
27.208549
  0
LINE
  8
0
 10
-146.925049
 20
27.208454
 11
-146.925049
 21
19.108456
  0
LINE
  8
0
 62
     4
 10
-140.153580
 20
10.249957
 11
-140.875259
 21
8.999970
  0
LINE
  8
0
 62
     4
 10
-128.425018
 20
-2.000008
 11
-150.425018
 21
-2.000008
  0
LINE
  8
0
 62
     4
 10
-128.425018
 20
4.999966
 11
-128.425018
 21
-2.000034
  0
LINE
  8
0
 62
     4
 10
-134.925018
 20
13.499935
 11
-134.925018
 21
4.999935
  0
LINE
  8
0
 62
     4
 10
-143.925018
 20
13.499897
 11
-143.925018
 21
4.999897
  0
LINE
  8
0
 62
     4
 10
-134.925095
 20
13.499992
 11
-143.925095
 21
13.499992
  0
LINE
  8
0
 10
-127.925095
 20
7.299995
 11
-129.000244
 21
7.299995
  0
LINE
  8
0
 10
-127.925110
 20
10.699989
 11
-129.000244
 21
10.699989
  0
LINE
  8
0
 10
-143.925018
 20
10.699989
 11
-149.400269
 21
10.699989
  0
LINE
  8
0
 10
-143.925018
 20
7.299995
 11
-149.400238
 21
7.299995
  0
LINE
  8
0
 10
-133.487305
 20
10.649986
 11
-134.925018
 21
10.649986
  0
LINE
  8
0
 10
-133.487289
 20
7.349998
 11
-134.925018
 21
7.349998
  0
LINE
  8
0
 10
-127.925056
 20
4.999992
 11
-128.425018
 21
4.999992
  0
LINE
  8
0
 62
     4
 10
-137.975189
 20
8.999950
 11
-138.696884
 21
7.749938
  0
LINE
  8
0
 62
     4
 10
-140.874954
 20
8.999978
 11
-140.153259
 21
7.749979
  0
LINE
  8
0
 10
-127.925125
 20
12.999992
 11
-134.925018
 21
12.999992
  0
LINE
  8
0
 10
-143.925018
 20
12.999992
 11
-154.925140
 21
12.999992
  0
LINE
  8
0
 62
     4
 10
-138.696762
 20
10.249992
 11
-140.153397
 21
10.249992
  0
LINE
  8
0
 62
     4
 10
-138.696762
 20
7.749992
 11
-140.153381
 21
7.749992
  0
LINE
  8
0
 62
     4
 10
-138.696625
 20
10.249971
 11
-137.974930
 21
8.999973
  0
LINE
  8
0
 10
-133.924942
 20
-25.800011
 11
-154.924957
 21
-25.800011
  0
LINE
  8
0
 62
     4
 10
-128.425049
 20
4.999992
 11
-150.425049
 21
4.999992
  0
LINE
  8
0
 10
-132.497864
 20
10.272846
 11
-129.952286
 21
7.727258
  0
LINE
  8
0
 10
-129.952316
 20
10.272744
 11
-132.497910
 21
7.727154
  0
LINE
  8
0
 10
-152.897827
 20
10.272730
 11
-150.352249
 21
7.727153
  0
LINE
  8
0
 10
-150.352371
 20
10.272724
 11
-152.897949
 21
7.727145
  0
LINE
  8
0
  6
CENTER
 62
     2
 10
-125.000099
 20
24.999992
 11
-137.221222
 21
24.999992
  0
LINE
  8
0
  6
CENTER
 62
     2
 10
-124.999870
 20
-25.000008
 11
-138.309891
 21
-25.000008
  0
LINE
  8
0
  6
CENTER
 62
     2
 10
-162.871033
 20
24.999992
 11
-176.073853
 21
24.999992
  0
LINE
  8
0
  6
CENTER
 62
     2
 10
-163.112793
 20
-25.000008
 11
-176.073608
 21
-25.000008
  0
LINE
  8
0
  6
CENTER
 62
     2
 10
-156.925049
 20
-6.600006
 11
-164.925049
 21
-6.600006
  0
LINE
  8
0
  6
CENTER
 62
     2
 10
-157.925079
 20
6.599991
 11
-165.925079
 21
6.599991
  0
LINE
  8
0
 10
-157.426849
 20
6.140807
 11
-157.128403
 21
2.499973
  0
LINE
  8
0
 10
-158.423492
 20
6.059095
 11
-158.131744
 21
2.499957
  0
LINE
  8
0
  6
CENTER
 62
     2
 10
-157.925079
 20
5.599991
 11
-165.925079
 21
5.599991
  0
LINE
  8
0
  6
CENTER
 62
     2
 10
-156.925049
 20
-5.600006
 11
-164.925049
 21
-5.600006
  0
LINE
  8
0
  6
CENTER
 62
     2
 10
-153.621826
 20
-6.100006
 11
-168.925049
 21
-6.100006
  0
LINE
  8
0
  6
CENTER
 62
     2
 10
-153.647278
 20
6.099991
 11
-168.925049
 21
6.099991
  0
LINE
  8
0
 10
-154.925049
 20
-2.500008
 11
-166.925049
 21
-2.500008
  0
LINE
  8
0
 10
-154.925049
 20
2.499992
 11
-166.925049
 21
2.499992
  0
LINE
  8
0
 10
-166.718506
 20
-2.500005
 11
-166.426758
 21
-6.059158
  0
LINE
  8
0
 10
-157.721878
 20
-2.500042
 11
-157.423431
 21
-6.140876
  0
LINE
  8
0
 10
-156.718552
 20
-2.500026
 11
-156.426788
 21
-6.059165
  0
LINE
  8
0
 10
-155.426819
 20
6.140833
 11
-155.128372
 21
2.499997
  0
LINE
  8
0
 10
-156.423477
 20
6.059109
 11
-156.131729
 21
2.499969
  0
LINE
  8
0
 10
-155.721863
 20
-2.500030
 11
-155.423416
 21
-6.140864
  0
LINE
  8
0
 10
-165.426849
 20
6.140838
 11
-165.128403
 21
2.499989
  0
LINE
  8
0
 10
-166.423508
 20
6.059114
 11
-166.131744
 21
2.499959
  0
LINE
  8
0
 10
-164.718536
 20
-2.500010
 11
-164.426788
 21
-6.059156
  0
LINE
  8
0
 10
-165.721893
 20
-2.500041
 11
-165.423447
 21
-6.140882
  0
LINE
  8
0
 10
-150.425049
 20
4.999992
 11
-154.925049
 21
4.999992
  0
LINE
  8
0
 62
     4
 10
-150.425049
 20
4.999989
 11
-150.425049
 21
-2.000011
  0
LINE
  8
0
 10
12.925072
 20
-30.199997
 11
12.925072
 21
29.800007
  0
LINE
  8
0
  6
CENTER
 62
     2
 10
10.000008
 20
0.000008
 11
61.073738
 21
0.000008
  0
LINE
  8
0
 10
39.925072
 20
-30.199875
 11
39.925072
 21
29.800129
  0
LINE
  8
0
 10
51.925087
 20
-30.199829
 11
51.925087
 21
29.800182
  0
LINE
  8
0
 10
57.925087
 20
-30.199799
 11
57.925087
 21
29.800213
  0
LINE
  8
0
 10
12.925224
 20
-30.199982
 11
39.925209
 21
-30.199982
  0
LINE
  8
0
 10
12.924934
 20
29.800011
 11
39.924934
 21
29.800011
  0
LINE
  8
0
 10
51.925224
 20
-30.199982
 11
57.925224
 21
-30.199982
  0
LINE
  8
0
 10
33.925072
 20
-30.199890
 11
33.925072
 21
-12.999897
  0
LINE
  8
0
 10
12.925056
 20
3.000008
 11
39.925056
 21
3.000008
  0
LINE
  8
0
 10
18.925072
 20
-30.199966
 11
18.925072
 21
-12.999966
  0
LINE
  8
0
 10
18.925072
 20
3.000034
 11
18.925072
 21
30.000034
  0
LINE
  8
0
 10
51.924934
 20
29.800011
 11
57.924934
 21
29.800011
  0
LINE
  8
0
 10
49.425087
 20
-28.199829
 11
49.425087
 21
-25.199829
  0
LINE
  8
0
 10
39.925026
 20
12.800011
 11
49.425026
 21
12.800011
  0
LINE
  8
0
 10
39.924980
 20
20.800011
 11
49.424980
 21
20.800011
  0
LINE
  8
0
 10
49.514820
 20
-26.740084
 11
49.803486
 21
-27.240067
  0
LINE
  8
0
 10
49.514900
 20
-19.639874
 11
49.514900
 21
-26.739883
  0
LINE
  8
0
 10
49.803703
 20
-25.240044
 11
51.626350
 21
-25.240044
  0
LINE
  8
0
 10
49.803688
 20
-21.140038
 11
51.626335
 21
-21.140038
  0
LINE
  8
0
 10
49.803940
 20
-19.140001
 11
49.515274
 21
-19.639986
  0
LINE
  8
0
 10
49.803688
 20
-19.140038
 11
51.626320
 21
-19.140038
  0
LINE
  8
0
 10
51.626110
 20
-19.139992
 11
51.914776
 21
-19.639975
  0
LINE
  8
0
 10
51.915295
 20
-26.740000
 11
51.626614
 21
-27.240011
  0
LINE
  8
0
 10
49.803719
 20
-27.240044
 11
51.626366
 21
-27.240044
  0
LINE
  8
0
 10
39.925179
 20
-25.199989
 11
49.515022
 21
-25.199989
  0
LINE
  8
0
 62
     2
 10
39.925179
 20
-24.699989
 11
49.515022
 21
-24.699989
  0
LINE
  8
0
 62
     2
 10
39.925179
 20
-21.699989
 11
49.515007
 21
-21.699989
  0
LINE
  8
0
 10
39.925179
 20
-21.199989
 11
49.515007
 21
-21.199989
  0
LINE
  8
0
 10
39.925148
 20
-14.199989
 11
49.425148
 21
-14.199989
  0
LINE
  8
0
 10
49.425087
 20
-21.199825
 11
49.425087
 21
-8.199825
  0
LINE
  8
0
 10
49.424950
 20
26.800011
 11
51.924950
 21
26.800011
  0
LINE
  8
0
 10
49.425056
 20
6.800011
 11
51.925056
 21
6.800011
  0
LINE
  8
0
 10
49.425087
 20
6.800175
 11
49.425087
 21
26.800175
  0
LINE
  8
0
 10
49.425117
 20
-8.199989
 11
51.925117
 21
-8.199989
  0
LINE
  8
0
 10
49.425209
 20
-28.199989
 11
51.925209
 21
-28.199989
  0
LINE
  8
0
 10
31.925179
 20
-19.199989
 11
33.925179
 21
-19.199989
  0
LINE
  8
0
 10
31.925209
 20
-27.199989
 11
33.925209
 21
-27.199989
  0
LINE
  8
0
 10
28.724304
 20
-26.708599
 11
29.012970
 21
-27.208584
  0
LINE
  8
0
 10
28.724403
 20
-19.608479
 11
28.724403
 21
-26.708481
  0
LINE
  8
0
 10
29.013191
 20
-25.208549
 11
31.925194
 21
-25.208549
  0
LINE
  8
0
 10
29.013176
 20
-21.108543
 11
31.925179
 21
-21.108543
  0
LINE
  8
0
 10
29.013363
 20
-19.108572
 11
28.724682
 21
-19.608582
  0
LINE
  8
0
 10
29.013176
 20
-19.108543
 11
31.925179
 21
-19.108543
  0
LINE
  8
0
 10
29.013206
 20
-27.208549
 11
31.925209
 21
-27.208549
  0
LINE
  8
0
 10
22.925072
 20
-21.199947
 11
22.925072
 21
-25.199951
  0
LINE
  8
0
 62
     2
 10
22.925179
 20
-21.699989
 11
26.324501
 21
-21.699989
  0
LINE
  8
0
 62
     2
 10
22.925194
 20
-24.699989
 11
26.324532
 21
-24.699989
  0
LINE
  8
0
 10
22.925179
 20
-21.199989
 11
26.324501
 21
-21.199989
  0
LINE
  8
0
 10
22.925194
 20
-25.199989
 11
26.324532
 21
-25.199989
  0
LINE
  8
0
 10
26.324284
 20
-26.708597
 11
26.612949
 21
-27.208582
  0
LINE
  8
0
 10
26.324409
 20
-19.608486
 11
26.324409
 21
-26.708496
  0
LINE
  8
0
 10
26.613197
 20
-25.208549
 11
28.435860
 21
-25.208549
  0
LINE
  8
0
 10
26.613167
 20
-21.108543
 11
28.435829
 21
-21.108543
  0
LINE
  8
0
 10
26.613375
 20
-19.108589
 11
26.324694
 21
-19.608601
  0
LINE
  8
0
 10
26.613167
 20
-19.108543
 11
28.435829
 21
-19.108543
  0
LINE
  8
0
 10
28.435581
 20
-19.108538
 11
28.724255
 21
-19.608534
  0
LINE
  8
0
 10
28.724745
 20
-26.708582
 11
28.436064
 21
-27.208591
  0
LINE
  8
0
 10
26.613197
 20
-27.208549
 11
28.435860
 21
-27.208549
  0
LINE
  8
0
 10
31.925072
 20
-27.208466
 11
31.925072
 21
-19.108463
  0
LINE
  8
0
 62
     4
 10
29.653641
 20
-10.249988
 11
30.375320
 21
-9.000002
  0
LINE
  8
0
 62
     4
 10
17.925072
 20
2.000008
 11
39.925072
 21
2.000008
  0
LINE
  8
0
 62
     4
 10
17.925072
 20
-4.999973
 11
17.925072
 21
2.000027
  0
LINE
  8
0
 62
     4
 10
24.425072
 20
-13.499943
 11
24.425072
 21
-4.999943
  0
LINE
  8
0
 62
     4
 10
33.425072
 20
-13.499905
 11
33.425072
 21
-4.999905
  0
LINE
  8
0
 62
     4
 10
24.425148
 20
-13.499992
 11
33.425148
 21
-13.499992
  0
LINE
  8
0
 10
12.925117
 20
-7.299995
 11
14.000252
 21
-7.299995
  0
LINE
  8
0
 10
12.925117
 20
-10.699989
 11
14.000267
 21
-10.699989
  0
LINE
  8
0
 10
33.425117
 20
-10.699989
 11
34.400276
 21
-10.699989
  0
LINE
  8
0
 10
33.425117
 20
-7.299995
 11
34.400246
 21
-7.299995
  0
LINE
  8
0
 10
18.487312
 20
-10.649986
 11
24.425133
 21
-10.649986
  0
LINE
  8
0
 10
18.487312
 20
-7.349998
 11
24.425117
 21
-7.349998
  0
LINE
  8
0
 10
12.925102
 20
-4.999992
 11
17.925102
 21
-4.999992
  0
LINE
  8
0
 62
     4
 10
27.475264
 20
-8.999988
 11
28.196955
 21
-7.749981
  0
LINE
  8
0
 62
     4
 10
30.375023
 20
-8.999984
 11
29.653336
 21
-7.749984
  0
LINE
  8
0
 10
12.925148
 20
-12.999992
 11
24.425148
 21
-12.999992
  0
LINE
  8
0
 10
33.425148
 20
-12.999992
 11
39.925148
 21
-12.999992
  0
LINE
  8
0
 62
     4
 10
28.196815
 20
-10.249992
 11
29.653450
 21
-10.249992
  0
LINE
  8
0
 62
     4
 10
28.196815
 20
-7.749992
 11
29.653419
 21
-7.749992
  0
LINE
  8
0
 62
     4
 10
28.196724
 20
-10.249975
 11
27.475035
 21
-8.999976
  0
LINE
  8
0
 10
18.924965
 20
25.800011
 11
39.924965
 21
25.800011
  0
LINE
  8
0
 62
     4
 10
17.925102
 20
-4.999992
 11
39.925102
 21
-4.999992
  0
LINE
  8
0
 10
17.497864
 20
-10.272831
 11
14.952285
 21
-7.727253
  0
LINE
  8
0
 10
14.952380
 20
-10.272800
 11
17.497969
 21
-7.727211
  0
LINE
  8
0
 10
37.897842
 20
-10.272755
 11
35.352253
 21
-7.727165
  0
LINE
  8
0
 10
35.352432
 20
-10.272764
 11
37.898010
 21
-7.727185
  0
LINE
  8
0
  6
CENTER
 62
     2
 10
10.000114
 20
-24.999992
 11
22.221230
 21
-24.999992
  0
LINE
  8
0
  6
CENTER
 62
     2
 10
9.999886
 20
25.000008
 11
23.309914
 21
25.000008
  0
LINE
  8
0
  6
CENTER
 62
     2
 10
47.871056
 20
-24.999992
 11
61.073860
 21
-24.999992
  0
LINE
  8
0
  6
CENTER
 62
     2
 10
48.112816
 20
25.000008
 11
61.073616
 21
25.000008
  0
LINE
  8
0
 10
39.925072
 20
2.500008
 11
51.925072
 21
2.500008
  0
LINE
  8
0
 10
39.925072
 20
-2.499992
 11
51.925072
 21
-2.499992
  0
LINE
  8
0
 10
42.721889
 20
2.500018
 11
42.423443
 21
6.140852
  0
LINE
  8
0
 10
41.718544
 20
2.500032
 11
41.426792
 21
6.059170
  0
LINE
  8
0
 10
40.721897
 20
2.500022
 11
40.423454
 21
6.140863
  0
LINE
  8
0
 10
49.718513
 20
2.500025
 11
49.426765
 21
6.059170
  0
LINE
  8
0
 10
50.721893
 20
2.500012
 11
50.423447
 21
6.140854
  0
LINE
  8
0
  6
CENTER
 62
     2
 10
42.925102
 20
-6.599991
 11
50.925102
 21
-6.599991
  0
LINE
  8
0
 10
42.426846
 20
-6.140801
 11
42.128403
 21
-2.499967
  0
LINE
  8
0
 10
43.423496
 20
-6.059120
 11
43.131748
 21
-2.499982
  0
LINE
  8
0
  6
CENTER
 62
     2
 10
42.925102
 20
-5.599991
 11
50.925102
 21
-5.599991
  0
LINE
  8
0
  6
CENTER
 62
     2
 10
38.647285
 20
-6.099991
 11
53.925072
 21
-6.099991
  0
LINE
  8
0
 10
40.426842
 20
-6.140806
 11
40.128395
 21
-2.499972
  0
LINE
  8
0
 10
41.423508
 20
-6.059115
 11
41.131756
 21
-2.499977
  0
LINE
  8
0
 10
50.426819
 20
-6.140824
 11
50.128372
 21
-2.499974
  0
LINE
  8
0
 10
51.423500
 20
-6.059140
 11
51.131752
 21
-2.499986
  0
LINE
  8
0
  6
CENTER
 62
     2
 10
38.621849
 20
6.100006
 11
53.925072
 21
6.100006
  0
LINE
  8
0
  6
CENTER
 62
     2
 10
41.925056
 20
6.600006
 11
49.925056
 21
6.600006
  0
LINE
  8
0
 10
51.718552
 20
2.500002
 11
51.426804
 21
6.059155
  0
LINE
  8
0
  6
CENTER
 62
     2
 10
41.925056
 20
5.600006
 11
49.925056
 21
5.600006
  0
LINE
  8
0
  6
CENTER
 62
     2
 10
-60.000000
 20
65.991486
 11
-60.000000
 21
118.544952
  0
LINE
  8
0
 62
     4
 10
-32.999992
 20
97.000000
 11
-39.999992
 21
97.000000
  0
LINE
  8
0
 10
-30.000000
 20
70.000000
 11
-30.000000
 21
76.000000
  0
LINE
  8
0
 10
-89.999992
 20
69.999992
 11
-89.999992
 21
75.999992
  0
LINE
  8
0
 10
-29.999992
 20
76.000000
 11
-43.999992
 21
76.000000
  0
LINE
  8
0
 10
-63.500000
 20
76.000000
 11
-63.500000
 21
90.999992
  0
LINE
  8
0
 10
-63.499992
 20
76.000000
 11
-89.999992
 21
76.000000
  0
LINE
  8
0
 10
-40.000000
 20
76.000000
 11
-40.000000
 21
97.000000
  0
LINE
  8
0
 10
-63.499992
 20
91.000000
 11
-79.999992
 21
91.000000
  0
LINE
  8
0
 10
-79.999992
 20
75.999992
 11
-79.999992
 21
96.999992
  0
LINE
  8
0
 10
-29.999992
 20
70.000000
 11
-89.999992
 21
70.000000
  0
LINE
  8
0
 10
-74.999992
 20
75.999992
 11
-74.999992
 21
90.999992
  0
LINE
  8
0
 10
-56.500000
 20
97.000000
 11
-56.500000
 21
106.500000
  0
LINE
  8
0
 10
-48.500000
 20
97.000000
 11
-48.500000
 21
106.500000
  0
LINE
  8
0
 10
-67.500000
 20
97.000000
 11
-67.500000
 21
106.599503
  0
LINE
  8
0
 62
     2
 10
-68.000000
 20
97.000000
 11
-68.000000
 21
106.599503
  0
LINE
  8
0
 62
     2
 10
-71.000000
 20
97.000000
 11
-71.000000
 21
106.599503
  0
LINE
  8
0
 10
-71.500000
 20
97.000000
 11
-71.500000
 21
106.599503
  0
LINE
  8
0
 10
-65.920128
 20
106.599480
 11
-65.420143
 21
106.888145
  0
LINE
  8
0
 10
-73.020164
 20
106.599503
 11
-65.920158
 21
106.599503
  0
LINE
  8
0
 10
-67.420158
 20
106.888168
 11
-67.420158
 21
108.710831
  0
LINE
  8
0
 10
-71.520164
 20
106.888168
 11
-71.520164
 21
108.710831
  0
LINE
  8
0
 10
-73.520126
 20
106.888260
 11
-73.020134
 21
106.599586
  0
LINE
  8
0
 10
-73.520164
 20
106.888176
 11
-73.520164
 21
108.710823
  0
LINE
  8
0
 10
-73.520164
 20
108.710838
 11
-73.020164
 21
108.999512
  0
LINE
  8
0
 10
-65.920113
 20
108.999626
 11
-65.420105
 21
108.710945
  0
LINE
  8
0
 10
-65.420158
 20
106.888168
 11
-65.420158
 21
108.710831
  0
LINE
  8
0
 62
     4
 10
-33.000000
 20
76.000000
 11
-33.000000
 21
97.000000
  0
LINE
  8
0
 62
     4
 10
-30.999992
 20
89.500000
 11
-32.999992
 21
89.500000
  0
LINE
  8
0
 62
     4
 10
-24.911781
 20
90.500000
 11
-30.999992
 21
90.500000
  0
LINE
  8
0
 62
     4
 10
-31.000000
 20
89.500000
 11
-31.000000
 21
94.500000
  0
LINE
  8
0
 62
     4
 10
-26.643822
 20
93.500000
 11
-30.999992
 21
93.500000
  0
LINE
  8
0
 62
     4
 10
-30.999992
 20
94.500000
 11
-32.999992
 21
94.500000
  0
LINE
  8
0
 10
-73.499992
 20
88.999992
 11
-73.499992
 21
90.999992
  0
LINE
  8
0
 10
-65.499992
 20
88.999992
 11
-65.499992
 21
90.999992
  0
LINE
  8
0
 10
-65.991386
 20
85.799232
 11
-65.491402
 21
86.087898
  0
LINE
  8
0
 10
-73.091438
 20
85.799316
 11
-65.991425
 21
85.799316
  0
LINE
  8
0
 10
-67.491432
 20
86.087997
 11
-67.491432
 21
88.999992
  0
LINE
  8
0
 10
-71.591438
 20
86.087997
 11
-71.591438
 21
88.999992
  0
LINE
  8
0
 10
-73.591393
 20
86.088089
 11
-73.091385
 21
85.799408
  0
LINE
  8
0
 10
-73.591438
 20
86.088005
 11
-73.591438
 21
88.999992
  0
LINE
  8
0
 10
-65.491432
 20
86.087997
 11
-65.491432
 21
88.999992
  0
LINE
  8
0
 10
-71.499985
 20
80.000000
 11
-67.499985
 21
80.000000
  0
LINE
  8
0
 62
     2
 10
-70.999992
 20
79.999992
 11
-70.999992
 21
83.399323
  0
LINE
  8
0
 62
     2
 10
-67.999992
 20
79.999992
 11
-67.999992
 21
83.399323
  0
LINE
  8
0
 10
-71.499992
 20
79.999992
 11
-71.499992
 21
83.399323
  0
LINE
  8
0
 10
-67.499992
 20
79.999992
 11
-67.499992
 21
83.399323
  0
LINE
  8
0
 10
-65.991402
 20
83.399231
 11
-65.491425
 21
83.687897
  0
LINE
  8
0
 10
-73.091431
 20
83.399323
 11
-65.991425
 21
83.399323
  0
LINE
  8
0
 10
-67.491432
 20
83.687996
 11
-67.491432
 21
85.510651
  0
LINE
  8
0
 10
-71.591438
 20
83.687996
 11
-71.591438
 21
85.510651
  0
LINE
  8
0
 10
-73.591377
 20
83.688095
 11
-73.091370
 21
83.399414
  0
LINE
  8
0
 10
-73.591438
 20
83.688004
 11
-73.591438
 21
85.510651
  0
LINE
  8
0
 10
-73.591446
 20
85.510506
 11
-73.091454
 21
85.799179
  0
LINE
  8
0
 10
-65.991356
 20
85.799446
 11
-65.491341
 21
85.510765
  0
LINE
  8
0
 10
-65.491432
 20
83.687996
 11
-65.491432
 21
85.510651
  0
LINE
  8
0
 10
-65.491432
 20
89.000000
 11
-73.591438
 21
89.000000
  0
LINE
  8
0
 10
-42.500000
 20
106.500000
 11
-42.500000
 21
109.500000
  0
LINE
  8
0
 10
-62.500000
 20
106.500000
 11
-62.500000
 21
109.500000
  0
LINE
  8
0
 10
-44.000000
 20
76.000000
 11
-44.000000
 21
97.000000
  0
LINE
  8
0
 10
-29.999992
 20
115.000000
 11
-89.999992
 21
115.000000
  0
LINE
  8
0
 10
-30.000000
 20
109.000000
 11
-30.000000
 21
115.000000
  0
LINE
  8
0
 10
-89.999992
 20
108.999992
 11
-89.999992
 21
115.000000
  0
LINE
  8
0
 10
-29.999992
 20
109.000000
 11
-42.499992
 21
109.000000
  0
LINE
  8
0
 10
-42.499992
 20
106.500000
 11
-62.499992
 21
106.500000
  0
LINE
  8
0
 10
-41.500000
 20
109.000000
 11
-41.500000
 21
109.500000
  0
LINE
  8
0
 10
-63.500000
 20
109.000000
 11
-63.500000
 21
109.500000
  0
LINE
  8
0
 10
-41.499992
 20
109.500000
 11
-63.499992
 21
109.500000
  0
LINE
  8
0
 10
-62.499992
 20
109.000000
 11
-89.999992
 21
109.000000
  0
LINE
  8
0
 10
-63.000000
 20
70.000000
 11
-63.000000
 21
74.000000
  0
LINE
  8
0
 10
-57.000000
 20
70.000000
 11
-57.000000
 21
74.000000
  0
LINE
  8
0
 10
-56.999992
 20
74.000000
 11
-62.999992
 21
74.000000
  0
LINE
  8
0
 10
-39.999992
 20
97.000000
 11
-79.999992
 21
97.000000
  0
LINE
  8
0
 62
     1
 10
-27.379450
 20
94.774185
 11
-24.362436
 21
89.548561
  0
LINE
  8
0
  6
CENTER
 62
     2
 10
-35.000000
 20
65.991486
 11
-35.000000
 21
79.571640
  0
LINE
  8
0
  6
CENTER
 62
     2
 10
-84.999992
 20
65.991486
 11
-84.999992
 21
80.142105
  0
LINE
  8
0
  6
CENTER
 62
     2
 10
-35.000000
 20
107.239136
 11
-35.000000
 21
118.544952
  0
LINE
  8
0
  6
CENTER
 62
     2
 10
-84.999992
 20
106.383438
 11
-84.999992
 21
118.544952
  0
LINE
  8
0
 10
-56.500008
 20
105.285294
 11
-66.059158
 21
104.501717
  0
LINE
  8
0
 10
-56.500004
 20
106.288635
 11
-66.140839
 21
105.498360
  0
LINE
  8
0
  6
CENTER
 62
     2
 10
-66.099991
 20
95.696770
 11
-66.099991
 21
111.000000
  0
LINE
  8
0
 10
-62.500019
 20
108.793465
 11
-65.420189
 21
108.554092
  0
LINE
  8
0
 10
-56.500000
 20
97.285263
 11
-59.979721
 21
97.000023
  0
LINE
  8
0
 10
-56.500000
 20
98.288635
 11
-66.140846
 21
97.498360
  0
LINE
  8
0
 10
-62.500008
 20
106.793442
 11
-66.059151
 21
106.501694
  0
LINE
  8
0
 10
-62.500008
 20
107.796814
 11
-65.420166
 21
107.557442
  0
LINE
  8
0
 10
-56.500008
 20
99.285301
 11
-66.059143
 21
98.501724
  0
LINE
  8
0
 10
-56.500019
 20
100.288643
 11
-66.140854
 21
99.498367
  0
LINE
  8
0
 10
-56.499996
 20
101.285271
 11
-66.059143
 21
100.501694
  0
LINE
  8
0
 10
-56.500011
 20
102.288643
 11
-66.140854
 21
101.498367
  0
LINE
  8
0
 10
-56.499996
 20
103.285294
 11
-66.059151
 21
102.501709
  0
LINE
  8
0
 10
-56.499996
 20
104.288658
 11
-66.140839
 21
103.498383
  0
LINE
  8
0
 62
     4
 10
-30.199966
 20
83.200027
 11
-30.199966
 21
88.800018
  0
LINE
  8
0
 62
     4
 10
-32.999992
 20
88.800003
 11
-30.199989
 21
88.800003
  0
LINE
  8
0
 62
     4
 10
-32.999992
 20
83.199997
 11
-30.199989
 21
83.199997
  0
LINE
  8
0
 62
     4
 10
-80.000008
 20
85.999985
 11
-86.000008
 21
85.999985
  0
LINE
  8
0
 62
     4
 10
-87.000008
 20
84.300018
 11
-87.000008
 21
92.500015
  0
LINE
  8
0
 62
     4
 10
-87.000008
 20
76.000000
 11
-87.000008
 21
78.700027
  0
LINE
  8
0
 62
     4
 10
-89.000008
 20
88.999985
 11
-94.000038
 21
88.999985
  0
LINE
  8
0
 62
     4
 10
-80.000008
 20
76.999985
 11
-86.000008
 21
76.999985
  0
LINE
  8
0
 62
     4
 10
-86.000008
 20
77.000015
 11
-86.000008
 21
86.000015
  0
LINE
  8
0
 62
     4
 10
-89.800011
 20
78.700027
 11
-89.800011
 21
84.300018
  0
LINE
  8
0
 62
     4
 10
-86.800011
 20
78.700027
 11
-86.800011
 21
84.300018
  0
LINE
  8
0
 62
     4
 10
-89.000000
 20
85.999985
 11
-92.833366
 21
85.999985
  0
LINE
  8
0
 62
     4
 10
-87.000000
 20
89.999985
 11
-89.000000
 21
89.999985
  0
LINE
  8
0
 62
     4
 10
-79.999992
 20
92.499985
 11
-86.999992
 21
92.499985
  0
LINE
  8
0
 62
     4
 10
-89.000008
 20
85.000031
 11
-89.000008
 21
90.000031
  0
LINE
  8
0
 62
     4
 10
-87.000008
 20
84.999985
 11
-89.000008
 21
84.999985
  0
LINE
  8
0
 62
     4
 10
-86.000008
 20
84.299988
 11
-89.799995
 21
84.299988
  0
LINE
  8
0
 62
     4
 10
-86.000000
 20
78.699997
 11
-89.800003
 21
78.699997
  0
LINE
  8
0
 62
     1
 10
-95.014969
 20
91.609909
 11
-91.704506
 21
83.097305
  0
LINE
  8
0
  6
CENTER
 62
     2
 10
-60.000000
 20
-65.991486
 11
-60.000000
 21
-118.544952
  0
LINE
  8
0
 62
     4
 10
-32.999977
 20
-97.000000
 11
-39.999977
 21
-97.000000
  0
LINE
  8
0
 10
-30.000000
 20
-70.000000
 11
-30.000000
 21
-76.000000
  0
LINE
  8
0
 10
-89.999992
 20
-70.000000
 11
-89.999992
 21
-76.000000
  0
LINE
  8
0
 10
-29.999977
 20
-76.000000
 11
-43.999977
 21
-76.000000
  0
LINE
  8
0
  6
PHANTOM
 62
     2
 10
-29.999977
 20
-99.000000
 11
-89.999977
 21
-99.000000
  0
LINE
  8
0
  6
PHANTOM
 62
     2
 10
-30.000000
 20
-99.000000
 11
-30.000000
 21
-105.000000
  0
LINE
  8
0
  6
PHANTOM
 62
     2
 10
-89.999992
 20
-99.000000
 11
-89.999992
 21
-105.000000
  0
LINE
  8
0
 10
-63.500000
 20
-76.000000
 11
-63.500000
 21
-91.000000
  0
LINE
  8
0
 10
-63.499977
 20
-76.000000
 11
-89.999977
 21
-76.000000
  0
LINE
  8
0
 10
-40.000000
 20
-76.000000
 11
-40.000000
 21
-97.000000
  0
LINE
  8
0
 10
-63.499977
 20
-91.000000
 11
-79.999977
 21
-91.000000
  0
LINE
  8
0
 10
-79.999992
 20
-76.000000
 11
-79.999992
 21
-97.000000
  0
LINE
  8
0
 10
-29.999977
 20
-70.000000
 11
-89.999977
 21
-70.000000
  0
LINE
  8
0
 10
-74.999992
 20
-76.000000
 11
-74.999992
 21
-91.000000
  0
LINE
  8
0
 10
-56.500000
 20
-97.000000
 11
-56.500000
 21
-106.500000
  0
LINE
  8
0
 10
-48.500000
 20
-97.000000
 11
-48.500000
 21
-106.500000
  0
LINE
  8
0
 10
-67.500000
 20
-97.000000
 11
-67.500000
 21
-106.599503
  0
LINE
  8
0
 62
     2
 10
-68.000000
 20
-97.000000
 11
-68.000000
 21
-106.599503
  0
LINE
  8
0
 62
     2
 10
-71.000000
 20
-97.000000
 11
-71.000000
 21
-106.599503
  0
LINE
  8
0
 10
-71.500000
 20
-97.000000
 11
-71.500000
 21
-106.599503
  0
LINE
  8
0
 10
-65.920113
 20
-106.599518
 11
-65.420128
 21
-106.888176
  0
LINE
  8
0
 10
-73.020149
 20
-106.599503
 11
-65.920143
 21
-106.599503
  0
LINE
  8
0
 10
-67.420158
 20
-106.888184
 11
-67.420158
 21
-108.710831
  0
LINE
  8
0
 10
-71.520164
 20
-106.888184
 11
-71.520164
 21
-108.710831
  0
LINE
  8
0
 10
-73.520111
 20
-106.888268
 11
-73.020119
 21
-106.599586
  0
LINE
  8
0
 10
-73.520164
 20
-106.888184
 11
-73.520164
 21
-108.710831
  0
LINE
  8
0
 10
-73.520187
 20
-108.710937
 11
-73.020203
 21
-108.999596
  0
LINE
  8
0
 10
-65.920120
 20
-108.999603
 11
-65.420113
 21
-108.710922
  0
LINE
  8
0
 10
-65.420158
 20
-106.888184
 11
-65.420158
 21
-108.710831
  0
LINE
  8
0
 62
     4
 10
-33.000000
 20
-76.000000
 11
-33.000000
 21
-83.199997
  0
LINE
  8
0
 62
     4
 10
-30.999977
 20
-89.500000
 11
-32.999977
 21
-89.500000
  0
LINE
  8
0
 62
     4
 10
-24.911766
 20
-93.500000
 11
-30.999977
 21
-93.500000
  0
LINE
  8
0
 62
     4
 10
-31.000000
 20
-89.500000
 11
-31.000000
 21
-94.500000
  0
LINE
  8
0
 62
     4
 10
-26.643822
 20
-90.500000
 11
-30.999977
 21
-90.500000
  0
LINE
  8
0
 62
     4
 10
-30.999977
 20
-94.500000
 11
-32.999977
 21
-94.500000
  0
LINE
  8
0
 10
-73.499992
 20
-89.000000
 11
-73.499992
 21
-91.000000
  0
LINE
  8
0
 10
-65.499992
 20
-89.000000
 11
-65.499992
 21
-91.000000
  0
LINE
  8
0
 10
-65.991409
 20
-85.799248
 11
-65.491425
 21
-86.087914
  0
LINE
  8
0
 10
-73.091423
 20
-85.799316
 11
-65.991409
 21
-85.799316
  0
LINE
  8
0
 10
-67.491432
 20
-86.087997
 11
-67.491432
 21
-89.000000
  0
LINE
  8
0
 10
-71.591438
 20
-86.087997
 11
-71.591438
 21
-89.000000
  0
LINE
  8
0
 10
-73.591423
 20
-86.088028
 11
-73.091408
 21
-85.799362
  0
LINE
  8
0
 10
-73.591438
 20
-86.088013
 11
-73.591438
 21
-89.000000
  0
LINE
  8
0
 10
-65.491432
 20
-86.087997
 11
-65.491432
 21
-89.000000
  0
LINE
  8
0
 10
-71.499969
 20
-80.000000
 11
-67.499969
 21
-80.000000
  0
LINE
  8
0
 62
     2
 10
-70.999992
 20
-80.000000
 11
-70.999992
 21
-83.399323
  0
LINE
  8
0
 62
     2
 10
-67.999992
 20
-80.000000
 11
-67.999992
 21
-83.399323
  0
LINE
  8
0
 10
-71.499992
 20
-80.000000
 11
-71.499992
 21
-83.399323
  0
LINE
  8
0
 10
-67.499992
 20
-80.000000
 11
-67.499992
 21
-83.399323
  0
LINE
  8
0
 10
-65.991379
 20
-83.399216
 11
-65.491409
 21
-83.687874
  0
LINE
  8
0
 10
-73.091415
 20
-83.399323
 11
-65.991409
 21
-83.399323
  0
LINE
  8
0
 10
-67.491432
 20
-83.687988
 11
-67.491432
 21
-85.510651
  0
LINE
  8
0
 10
-71.591438
 20
-83.687988
 11
-71.591438
 21
-85.510651
  0
LINE
  8
0
 10
-73.591377
 20
-83.688080
 11
-73.091385
 21
-83.399406
  0
LINE
  8
0
 10
-73.591438
 20
-83.688004
 11
-73.591438
 21
-85.510651
  0
LINE
  8
0
 10
-73.591492
 20
-85.510597
 11
-73.091499
 21
-85.799255
  0
LINE
  8
0
 10
-65.991394
 20
-85.799362
 11
-65.491379
 21
-85.510658
  0
LINE
  8
0
 10
-65.491432
 20
-83.687988
 11
-65.491432
 21
-85.510651
  0
LINE
  8
0
 10
-65.491417
 20
-89.000000
 11
-73.591423
 21
-89.000000
  0
LINE
  8
0
 62
     4
 10
-86.999992
 20
-76.000000
 11
-86.999992
 21
-92.500000
  0
LINE
  8
0
 62
     4
 10
-88.999977
 20
-90.000000
 11
-86.999977
 21
-90.000000
  0
LINE
  8
0
 62
     4
 10
-94.154770
 20
-86.000000
 11
-88.999977
 21
-86.000000
  0
LINE
  8
0
 62
     4
 10
-88.999992
 20
-85.000000
 11
-88.999992
 21
-90.000000
  0
LINE
  8
0
 62
     4
 10
-92.422722
 20
-89.000000
 11
-88.999977
 21
-89.000000
  0
LINE
  8
0
 62
     4
 10
-88.999977
 20
-85.000000
 11
-86.999977
 21
-85.000000
  0
LINE
  8
0
 62
     4
 10
-79.999977
 20
-92.500000
 11
-86.999977
 21
-92.500000
  0
LINE
  8
0
 10
-42.500000
 20
-106.500000
 11
-42.500000
 21
-109.500000
  0
LINE
  8
0
 10
-62.500000
 20
-106.500000
 11
-62.500000
 21
-109.500000
  0
LINE
  8
0
 10
-44.000000
 20
-76.000000
 11
-44.000000
 21
-97.000000
  0
LINE
  8
0
 10
-29.999977
 20
-115.000000
 11
-89.999977
 21
-115.000000
  0
LINE
  8
0
 10
-30.000000
 20
-109.000000
 11
-30.000000
 21
-115.000000
  0
LINE
  8
0
 10
-89.999992
 20
-109.000000
 11
-89.999992
 21
-115.000000
  0
LINE
  8
0
 10
-29.999977
 20
-109.000000
 11
-42.499977
 21
-109.000000
  0
LINE
  8
0
 10
-42.499977
 20
-106.500000
 11
-62.499977
 21
-106.500000
  0
LINE
  8
0
 10
-41.500000
 20
-109.000000
 11
-41.500000
 21
-109.500000
  0
LINE
  8
0
 10
-63.500000
 20
-109.000000
 11
-63.500000
 21
-109.500000
  0
LINE
  8
0
 10
-41.499977
 20
-109.500000
 11
-63.499977
 21
-109.500000
  0
LINE
  8
0
 10
-62.499977
 20
-109.000000
 11
-89.999977
 21
-109.000000
  0
LINE
  8
0
 10
-39.999977
 20
-97.000000
 11
-79.999977
 21
-97.000000
  0
LINE
  8
0
  6
PHANTOM
 62
     2
 10
-29.999977
 20
-105.000000
 11
-89.999977
 21
-105.000000
  0
LINE
  8
0
 62
     1
 10
-27.379452
 20
-89.225845
 11
-24.362450
 21
-94.451439
  0
LINE
  8
0
 62
     1
 10
-94.606979
 20
-85.216743
 11
-91.986336
 21
-89.755844
  0
LINE
  8
0
  6
CENTER
 62
     2
 10
-35.000000
 20
-65.991486
 11
-35.000000
 21
-79.571655
  0
LINE
  8
0
  6
CENTER
 62
     2
 10
-84.999992
 20
-65.991486
 11
-84.999992
 21
-80.142105
  0
LINE
  8
0
  6
CENTER
 62
     2
 10
-35.000000
 20
-107.239136
 11
-35.000000
 21
-118.544952
  0
LINE
  8
0
  6
CENTER
 62
     2
 10
-84.999992
 20
-106.383453
 11
-84.999992
 21
-118.544952
  0
LINE
  8
0
 10
-56.499977
 20
-105.285149
 11
-66.059120
 21
-104.501564
  0
LINE
  8
0
 10
-56.499989
 20
-106.288658
 11
-66.140831
 21
-105.498383
  0
LINE
  8
0
  6
CENTER
 62
     2
 10
-66.099991
 20
-95.696777
 11
-66.099991
 21
-111.000000
  0
LINE
  8
0
  6
CENTER
 62
     2
 10
-53.899994
 20
-95.722229
 11
-53.899994
 21
-111.000000
  0
LINE
  8
0
 10
-62.499981
 20
-108.793327
 11
-65.420151
 21
-108.553963
  0
LINE
  8
0
 10
-56.499977
 20
-97.285118
 11
-59.979702
 21
-96.999870
  0
LINE
  8
0
 10
-56.499989
 20
-98.288643
 11
-66.140831
 21
-97.498360
  0
LINE
  8
0
 10
-62.499985
 20
-106.793388
 11
-66.059135
 21
-106.501640
  0
LINE
  8
0
 10
-62.499985
 20
-107.796738
 11
-65.420143
 21
-107.557373
  0
LINE
  8
0
 10
-56.499973
 20
-99.285149
 11
-66.059120
 21
-98.501564
  0
LINE
  8
0
 10
-56.499989
 20
-100.288681
 11
-66.140831
 21
-99.498398
  0
LINE
  8
0
 10
-56.499973
 20
-101.285179
 11
-66.059120
 21
-100.501602
  0
LINE
  8
0
 10
-56.499981
 20
-102.288658
 11
-66.140816
 21
-101.498375
  0
LINE
  8
0
 10
-56.499981
 20
-103.285164
 11
-66.059120
 21
-102.501579
  0
LINE
  8
0
 10
-56.499989
 20
-104.288681
 11
-66.140823
 21
-103.498398
  0
LINE
  8
0
 62
     4
 10
-39.999947
 20
-90.500000
 11
-33.999947
 21
-90.500000
  0
LINE
  8
0
 62
     4
 10
-33.999954
 20
-83.199997
 11
-30.199951
 21
-83.199997
  0
LINE
  8
0
 62
     4
 10
-33.999947
 20
-88.799988
 11
-30.199959
 21
-88.799988
  0
LINE
  8
0
 62
     4
 10
-33.200005
 20
-83.200027
 11
-33.200005
 21
-88.800018
  0
LINE
  8
0
 62
     4
 10
-30.200005
 20
-83.200027
 11
-30.200005
 21
-88.800018
  0
LINE
  8
0
 62
     4
 10
-34.000008
 20
-81.500031
 11
-34.000008
 21
-90.500031
  0
LINE
  8
0
 62
     4
 10
-39.999947
 20
-81.500000
 11
-33.999947
 21
-81.500000
  0
LINE
  8
0
 62
     4
 10
-33.000000
 20
-88.799988
 11
-33.000000
 21
-97.000000
  0
LINE
  8
0
  6
CENTER
 62
     2
 10
160.000793
 20
-0.000019
 11
92.347000
 21
-0.000019
  0
LINE
  8
0
 10
156.246994
 20
29.999996
 11
156.246994
 21
-30.000004
  0
LINE
  8
0
 10
96.246994
 20
29.999954
 11
96.246994
 21
-30.000050
  0
LINE
  8
0
 10
156.247009
 20
-30.000015
 11
96.247017
 21
-30.000015
  0
LINE
  8
0
 10
156.246979
 20
29.999981
 11
96.246971
 21
29.999981
  0
LINE
  8
0
  6
CENTER
 62
     2
 10
126.246994
 20
34.945423
 11
126.246994
 21
-34.722549
  0
LINE
  8
0
  6
CENTER
 62
     2
 10
151.246994
 20
3.499993
 11
151.246994
 21
-3.500007
  0
LINE
  8
0
  6
CENTER
 62
     2
 10
151.246994
 20
-19.575186
 11
151.246994
 21
-30.625002
  0
LINE
  8
0
  6
CENTER
 62
     2
 10
122.747009
 20
-25.000031
 11
129.747009
 21
-25.000031
  0
LINE
  8
0
  6
CENTER
 62
     2
 10
145.949402
 20
-25.000023
 11
156.301331
 21
-25.000023
  0
LINE
  8
0
  6
CENTER
 62
     2
 10
122.746979
 20
24.999973
 11
129.746979
 21
24.999973
  0
LINE
  8
0
  6
CENTER
 62
     2
 10
101.246994
 20
3.499961
 11
101.246994
 21
-3.500039
  0
LINE
  8
0
  6
CENTER
 62
     2
 10
101.246994
 20
-19.575216
 11
101.246994
 21
-30.625032
  0
LINE
  8
0
  6
CENTER
 62
     2
 10
106.544617
 20
-25.000023
 11
96.192688
 21
-25.000023
  0
LINE
  8
0
  6
CENTER
 62
     2
 10
101.246994
 20
19.575148
 11
101.246994
 21
30.624964
  0
LINE
  8
0
  6
CENTER
 62
     2
 10
106.544586
 20
24.999985
 11
96.192657
 21
24.999985
  0
LINE
  8
0
  6
CENTER
 62
     2
 10
145.949371
 20
24.999985
 11
156.301300
 21
24.999985
  0
LINE
  8
0
  6
CENTER
 62
     2
 10
151.246994
 20
19.575178
 11
151.246994
 21
30.624994
  0
ARC
  8
0
 10
-64.230560
 20
5.576931
 40
0.499999
 50
219.229950
 51
35.136841
  0
ARC
  8
0
 62
     4
 10
-44.619995
 20
-8.999996
 40
4.420010
 50
320.692322
 51
39.307594
  0
CIRCLE
  8
0
 10
-34.999977
 20
-25.000000
 40
1.500000
  0
CIRCLE
  8
0
 10
-34.999985
 20
24.999998
 40
1.500000
  0
CIRCLE
  8
0
 10
-84.999992
 20
24.999994
 40
1.500000
  0
CIRCLE
  8
0
 10
-84.999977
 20
-25.000008
 40
1.500000
  0
CIRCLE
  8
0
 62
     2
 10
-34.999977
 20
-25.000000
 40
2.000000
  0
CIRCLE
  8
0
 62
     2
 10
-34.999985
 20
24.999998
 40
2.000000
  0
CIRCLE
  8
0
 62
     2
 10
-84.999992
 20
24.999994
 40
2.000000
  0
CIRCLE
  8
0
 62
     2
 10
-84.999977
 20
-25.000008
 40
2.000000
  0
CIRCLE
  8
0
 10
-59.999977
 20
-25.000000
 40
3.000000
  0
ARC
  8
0
 10
-59.999992
 20
23.999996
 40
3.000000
 50
180.000000
 51
359.999969
  0
ARC
  8
0
 62
     4
 10
-75.379982
 20
8.999989
 40
4.420006
 50
140.692368
 51
219.307632
  0
CIRCLE
  8
0
 10
-59.999985
 20
-0.000004
 40
7.000000
  0
ARC
  8
0
 10
-59.999985
 20
0.499996
 40
6.000001
 50
142.303741
 51
37.696239
  0
ARC
  8
0
 10
-55.769409
 20
5.576931
 40
1.500000
 50
148.967224
 51
290.161682
  0
ARC
  8
0
 10
-64.230560
 20
5.576931
 40
1.500000
 50
249.838318
 51
31.032761
  0
ARC
  8
0
 10
-55.769409
 20
5.576931
 40
0.500000
 50
144.863159
 51
320.770050
  0
CIRCLE
  8
0
 10
-164.925049
 20
-6.100010
 40
0.500000
  0
ARC
  8
0
 10
-159.491669
 20
23.189907
 40
7.423350
 50
163.969009
 51
196.030869
  0
ARC
  8
0
 10
-165.038605
 20
20.139866
 40
1.876397
 50
147.795883
 51
212.204025
  0
ARC
  8
0
 10
-166.391388
 20
20.139851
 40
1.876396
 50
327.795929
 51
32.204071
  0
ARC
  8
0
 10
-166.391418
 20
26.239857
 40
1.876396
 50
327.795929
 51
32.204021
  0
ARC
  8
0
 10
-165.038635
 20
26.239872
 40
1.876396
 50
147.795929
 51
212.204025
  0
ARC
  8
0
 10
-171.938354
 20
23.189854
 40
7.423347
 50
343.969086
 51
16.030939
  0
ARC
  8
0
 10
-136.301147
 20
23.158522
 40
7.423350
 50
163.969009
 51
196.030869
  0
ARC
  8
0
 10
-145.600891
 20
20.108465
 40
1.876396
 50
327.795929
 51
32.204071
  0
ARC
  8
0
 10
-145.600922
 20
26.208471
 40
1.876396
 50
327.795929
 51
32.204021
  0
ARC
  8
0
 10
-151.147858
 20
23.158451
 40
7.423347
 50
343.969086
 51
16.030939
  0
ARC
  8
0
 10
-148.747864
 20
23.158466
 40
7.423347
 50
343.969086
 51
16.030939
  0
ARC
  8
0
 10
-143.200897
 20
20.108473
 40
1.876396
 50
327.795929
 51
32.204071
  0
ARC
  8
0
 10
-143.200897
 20
26.208471
 40
1.876396
 50
327.795929
 51
32.204021
  0
ARC
  8
0
 10
-141.848083
 20
20.108480
 40
1.876397
 50
147.795883
 51
212.204025
  0
ARC
  8
0
 10
-141.848114
 20
26.208487
 40
1.876396
 50
147.795929
 51
212.204025
  0
CIRCLE
  8
0
 10
-151.625122
 20
8.999882
 40
2.800000
  0
CIRCLE
  8
0
 62
     4
 10
-145.425049
 20
1.499889
 40
1.700000
  0
CIRCLE
  8
0
 62
     4
 10
-145.425049
 20
1.499889
 40
2.500000
  0
CIRCLE
  8
0
 62
     4
 10
-139.425079
 20
8.999914
 40
3.300000
  0
CIRCLE
  8
0
 10
-131.225098
 20
8.999975
 40
2.800000
  0
ARC
  8
0
 10
-166.925049
 20
-6.100010
 40
0.500000
 50
269.998260
 51
90.001747
  0
CIRCLE
  8
0
 10
-157.925110
 20
6.099987
 40
0.500000
  0
CIRCLE
  8
0
 10
-156.925049
 20
-6.100010
 40
0.500000
  0
CIRCLE
  8
0
 10
-155.925110
 20
6.099987
 40
0.500000
  0
ARC
  8
0
 10
-154.925049
 20
-6.100010
 40
0.500000
 50
90.001747
 51
269.998260
  0
CIRCLE
  8
0
 10
-165.925110
 20
6.099987
 40
0.500000
  0
ARC
  8
0
 10
44.491676
 20
-23.189915
 40
7.423347
 50
343.968994
 51
16.030882
  0
ARC
  8
0
 10
50.038612
 20
-20.139874
 40
1.876397
 50
327.795868
 51
32.203960
  0
ARC
  8
0
 10
51.391411
 20
-20.139858
 40
1.876400
 50
147.795990
 51
212.204010
  0
ARC
  8
0
 10
51.391441
 20
-26.239868
 40
1.876397
 50
147.795883
 51
212.203964
  0
ARC
  8
0
 10
50.038643
 20
-26.239883
 40
1.876396
 50
327.795929
 51
32.204010
  0
ARC
  8
0
 10
56.938377
 20
-23.189857
 40
7.423344
 50
163.969055
 51
196.030945
  0
ARC
  8
0
 10
21.301170
 20
-23.158531
 40
7.423347
 50
343.968994
 51
16.030882
  0
ARC
  8
0
 10
30.600899
 20
-20.108471
 40
1.876398
 50
147.795959
 51
212.204041
  0
ARC
  8
0
 10
30.600929
 20
-26.208481
 40
1.876399
 50
147.795914
 51
212.203995
  0
ARC
  8
0
 10
36.147865
 20
-23.158459
 40
7.423346
 50
163.969055
 51
196.030945
  0
ARC
  8
0
 10
33.747871
 20
-23.158474
 40
7.423346
 50
163.969055
 51
196.030945
  0
ARC
  8
0
 10
28.200905
 20
-20.108482
 40
1.876398
 50
147.795959
 51
212.204041
  0
ARC
  8
0
 10
28.200935
 20
-26.208488
 40
1.876399
 50
147.795914
 51
212.203995
  0
ARC
  8
0
 10
26.848106
 20
-20.108490
 40
1.876397
 50
327.795868
 51
32.203991
  0
ARC
  8
0
 10
26.848137
 20
-26.208496
 40
1.876398
 50
327.795959
 51
32.204041
  0
CIRCLE
  8
0
 10
36.625130
 20
-8.999889
 40
2.800000
  0
CIRCLE
  8
0
 62
     4
 10
34.925087
 20
-1.499897
 40
1.700000
  0
CIRCLE
  8
0
 62
     4
 10
34.925087
 20
-1.499897
 40
2.500000
  0
CIRCLE
  8
0
 62
     4
 10
28.925133
 20
-8.999920
 40
3.300000
  0
CIRCLE
  8
0
 10
16.225121
 20
-8.999985
 40
2.800000
  0
CIRCLE
  8
0
 10
42.925117
 20
-6.099995
 40
0.500000
  0
CIRCLE
  8
0
 10
40.925117
 20
-6.099995
 40
0.500000
  0
CIRCLE
  8
0
 10
50.925117
 20
-6.099995
 40
0.500000
  0
ARC
  8
0
 10
39.925056
 20
6.100002
 40
0.500000
 50
270.002197
 51
89.997818
  0
CIRCLE
  8
0
 10
41.925056
 20
6.100002
 40
0.500000
  0
CIRCLE
  8
0
 10
49.925056
 20
6.100002
 40
0.500000
  0
ARC
  8
0
 10
51.925056
 20
6.100002
 40
0.500000
 50
89.997818
 51
270.002197
  0
ARC
  8
0
 10
-69.470146
 20
114.022858
 40
7.423347
 50
253.969070
 51
286.030914
  0
ARC
  8
0
 10
-66.420158
 20
107.123093
 40
1.876396
 50
57.795929
 51
122.204071
  0
ARC
  8
0
 10
-69.470146
 20
101.576157
 40
7.423342
 50
73.969002
 51
106.030869
  0
ARC
  8
0
 10
-72.520164
 20
107.123093
 40
1.876396
 50
57.795929
 51
122.204071
  0
ARC
  8
0
 10
-72.520164
 20
108.475891
 40
1.876396
 50
237.795929
 51
302.204071
  0
ARC
  8
0
 10
-66.420158
 20
108.475891
 40
1.876396
 50
237.795929
 51
302.204071
  0
ARC
  8
0
 10
-69.541412
 20
78.375977
 40
7.423342
 50
73.969002
 51
106.030869
  0
ARC
  8
0
 10
-72.591438
 20
87.675720
 40
1.876396
 50
237.795929
 51
302.204071
  0
ARC
  8
0
 10
-66.491432
 20
87.675720
 40
1.876396
 50
237.795929
 51
302.204071
  0
ARC
  8
0
 10
-69.541420
 20
93.222672
 40
7.423347
 50
253.969070
 51
286.030914
  0
ARC
  8
0
 10
-69.541420
 20
90.822678
 40
7.423347
 50
253.969070
 51
286.030914
  0
ARC
  8
0
 10
-72.591438
 20
85.275711
 40
1.876396
 50
237.795929
 51
302.204071
  0
ARC
  8
0
 10
-66.491432
 20
85.275711
 40
1.876396
 50
237.795929
 51
302.204071
  0
ARC
  8
0
 10
-72.591438
 20
83.922913
 40
1.876396
 50
57.795929
 51
122.204071
  0
ARC
  8
0
 10
-66.491432
 20
83.922913
 40
1.876396
 50
57.795929
 51
122.204071
  0
ARC
  8
0
 10
-66.099998
 20
108.999985
 40
0.500000
 50
340.317535
 51
0.002623
  0
CIRCLE
  8
0
 10
-66.099998
 20
104.999985
 40
0.500000
  0
ARC
  8
0
 10
-66.099998
 20
96.999985
 40
0.500000
 50
0.002623
 51
179.997375
  0
ARC
  8
0
 10
-66.099998
 20
106.999985
 40
0.499998
 50
233.221207
 51
329.128906
  0
CIRCLE
  8
0
 10
-66.099998
 20
98.999985
 40
0.500000
  0
CIRCLE
  8
0
 10
-66.099998
 20
100.999985
 40
0.500000
  0
CIRCLE
  8
0
 10
-66.099998
 20
102.999985
 40
0.500000
  0
ARC
  8
0
 10
-69.470131
 20
-114.022858
 40
7.423349
 50
73.969017
 51
106.030922
  0
ARC
  8
0
 10
-66.420143
 20
-107.123108
 40
1.876396
 50
237.795929
 51
302.204071
  0
ARC
  8
0
 10
-69.470131
 20
-101.576157
 40
7.423347
 50
253.969070
 51
286.030975
  0
ARC
  8
0
 10
-72.520149
 20
-107.123108
 40
1.876396
 50
237.795929
 51
302.204071
  0
ARC
  8
0
 10
-72.520149
 20
-108.475891
 40
1.876396
 50
57.795929
 51
122.204071
  0
ARC
  8
0
 10
-66.420143
 20
-108.475891
 40
1.876396
 50
57.795929
 51
122.204071
  0
ARC
  8
0
 10
-69.541405
 20
-78.375977
 40
7.423347
 50
253.969070
 51
286.030975
  0
ARC
  8
0
 10
-72.591423
 20
-87.675720
 40
1.876396
 50
57.795929
 51
122.204071
  0
ARC
  8
0
 10
-66.491417
 20
-87.675720
 40
1.876396
 50
57.795929
 51
122.204071
  0
ARC
  8
0
 10
-69.541405
 20
-93.222672
 40
7.423349
 50
73.969017
 51
106.030922
  0
ARC
  8
0
 10
-69.541405
 20
-90.822678
 40
7.423349
 50
73.969017
 51
106.030922
  0
ARC
  8
0
 10
-72.591423
 20
-85.275726
 40
1.876396
 50
57.795929
 51
122.204071
  0
ARC
  8
0
 10
-66.491417
 20
-85.275726
 40
1.876396
 50
57.795929
 51
122.204071
  0
ARC
  8
0
 10
-72.591423
 20
-83.922913
 40
1.876396
 50
237.795929
 51
302.204071
  0
ARC
  8
0
 10
-66.491417
 20
-83.922913
 40
1.876396
 50
237.795929
 51
302.204071
  0
ARC
  8
0
 10
-66.099976
 20
-108.999985
 40
0.500000
 50
359.997375
 51
19.682465
  0
CIRCLE
  8
0
 10
-66.099976
 20
-104.999985
 40
0.500000
  0
ARC
  8
0
 10
-66.099976
 20
-96.999985
 40
0.500000
 50
180.001755
 51
359.997375
  0
ARC
  8
0
 10
-66.099976
 20
-106.999985
 40
0.499999
 50
30.871096
 51
126.778801
  0
CIRCLE
  8
0
 10
-66.099976
 20
-98.999985
 40
0.500000
  0
CIRCLE
  8
0
 10
-66.099976
 20
-100.999985
 40
0.500000
  0
CIRCLE
  8
0
 10
-66.099976
 20
-102.999985
 40
0.500000
  0
CIRCLE
  8
0
 10
151.246994
 20
-0.000007
 40
2.000000
  0
CIRCLE
  8
0
 10
151.246979
 20
24.999992
 40
2.250000
  0
CIRCLE
  8
0
 10
101.246979
 20
24.999958
 40
2.250000
  0
CIRCLE
  8
0
 10
151.247009
 20
-25.000008
 40
2.250000
  0
CIRCLE
  8
0
 10
101.247009
 20
-25.000046
 40
2.250000
  0
CIRCLE
  8
0
 10
126.246979
 20
24.999973
 40
2.000000
  0
CIRCLE
  8
0
 10
126.247009
 20
-25.000031
 40
2.000000
  0
CIRCLE
  8
0
 10
101.246994
 20
-0.000039
 40
2.000000
  0
CIRCLE
  8
0
  6
DASHED
 62
     2
 10
151.247009
 20
-25.000008
 40
4.000000
  0
CIRCLE
  8
0
  6
DASHED
 62
     2
 10
101.247009
 20
-25.000038
 40
4.000000
  0
CIRCLE
  8
0
  6
DASHED
 62
     2
 10
101.246979
 20
24.999969
 40
4.000000
  0
CIRCLE
  8
0
  6
DASHED
 62
     2
 10
151.246979
 20
25.000000
 40
4.000000
  0
TEXT
  8
0
 10
115.907150
 20
122.050003
 40
4.500000
  1
DATE : MAY ,1993
 50
0.000000
 41
1.052631
 51
0.000000
  7
STANDARD
  0
TEXT
  8
0
 10
113.700279
 20
-130.669998
 40
6.300000
  1
KOGANEI CORP.
 50
0.000000
 41
1.052632
 51
0.000000
  7
STANDARD
  0
TEXT
  8
0
 10
-185.892654
 20
122.050003
 40
4.500000
  1
HANDLING MODULE
 50
0.000000
 41
1.052632
 51
0.000000
  7
STANDARD
  0
TEXT
  8
0
 10
-186.892654
 20
104.550003
 40
4.500000
  1
MODEL:SHM51S-MS
 50
0.000000
 41
1.052632
 51
0.000000
  7
STANDARD
  0
ENDSEC
  0
EOF
