  0
SECTION
  2
HEADER
  0
ENDSEC
  0
SECTION
  2
TABLES
  0
TABLE
  2
LTYPE
 70
     4
  0
LTYPE
  2
CONTINUOUS
 70
    64
  3
Solid line
 72
    65
 73
     0
 40
0.000000
  0
LTYPE
  2
DASHED
 70
    64
  3
__ __ __ __ __ __ __ __ __ __ __ __ __ __ __
 72
    65
 73
     2
 40
3.500000
 49
2.000000
 49
-1.500000
  0
LTYPE
  2
CENTER
 70
    64
  3
____ _ ____ _ ____ _ ____ _ ____ _ ____ _ ____
 72
    65
 73
     4
 40
17.500000
 49
13.000000
 49
-1.500000
 49
1.500000
 49
-1.500000
  0
LTYPE
  2
PHANTOM
 70
    64
  3
_____ _ _ _____ _ _ _____ _ _ _____ _ _ ____  
 72
    65
 73
     6
 40
15.500000
 49
8.000000
 49
-1.500000
 49
1.500000
 49
-1.500000
 49
1.500000
 49
-1.500000
  0
LTYPE
  2
DASHED1
 70
    64
  3
__ __ __ __ __ __ __ __ __ __ __ __ __ __ __
 72
    65
 73
     2
 40
1.500000
 49
1.000000
 49
-0.500000
  0
LTYPE
  2
DASHED2
 70
    64
  3
__ __ __ __ __ __ __ __ __ __ __ __ __ __ __
 72
    65
 73
     2
 40
3.500000
 49
2.500000
 49
-1.000000
  0
LTYPE
  2
DASHED3
 70
    64
  3
__ __ __ __ __ __ __ __ __ __ __ __ __ __ __
 72
    65
 73
     2
 40
6.000000
 49
4.000000
 49
-2.000000
  0
LTYPE
  2
DASHED4
 70
    64
  3
__ __ __ __ __ __ __ __ __ __ __ __ __ __ __
 72
    65
 73
     2
 40
12.000000
 49
10.000000
 49
-2.000000
  0
LTYPE
  2
DASHED5
 70
    64
  3
__ __ __ __ __ __ __ __ __ __ __ __ __ __ __
 72
    65
 73
     2
 40
17.000000
 49
15.000000
 49
-2.000000
  0
LTYPE
  2
DASHED6
 70
    64
  3
__ __ __ __ __ __ __ __ __ __ __ __ __ __ __
 72
    65
 73
     2
 40
29.000000
 49
27.000000
 49
-2.000000
  0
LTYPE
  2
PHANTOM1
 70
    64
  3
_____ _ _ _____ _ _ _____ _ _ _____ _ _ ____  
 72
    65
 73
     6
 40
31.000000
 49
25.000000
 49
-1.500000
 49
1.000000
 49
-1.000000
 49
1.000000
 49
-1.500000
  0
LTYPE
  2
PHANTOM2
 70
    64
  3
_____ _ _ _____ _ _ _____ _ _ _____ _ _ ____  
 72
    65
 73
     6
 40
36.000000
 49
27.000000
 49
-1.500000
 49
2.500000
 49
-1.000000
 49
2.500000
 49
-1.500000
  0
LTYPE
  2
PHANTOM3
 70
    64
  3
_____ _ _ _____ _ _ _____ _ _ _____ _ _ ____  
 72
    65
 73
     6
 40
78.000000
 49
64.000000
 49
-2.000000
 49
4.000000
 49
-2.000000
 49
4.000000
 49
-2.000000
  0
LTYPE
  2
CENTER1
 70
    64
  3
____ _ ____ _ ____ _ ____ _ ____ _ ____ _ ____
 72
    65
 73
     4
 40
19.000000
 49
14.000000
 49
-1.000000
 49
3.000000
 49
-1.000000
  0
LTYPE
  2
CENTER2
 70
    64
  3
____ _ ____ _ ____ _ ____ _ ____ _ ____ _ ____
 72
    65
 73
     4
 40
28.500000
 49
25.000000
 49
-1.000000
 49
1.500000
 49
-1.000000
  0
LTYPE
  2
CENTER3
 70
    64
  3
____ _ ____ _ ____ _ ____ _ ____ _ ____ _ ____
 72
    65
 73
     4
 40
31.500000
 49
27.000000
 49
-1.000000
 49
2.500000
 49
-1.000000
  0
LTYPE
  2
CENTER4
 70
    64
  3
____ _ ____ _ ____ _ ____ _ ____ _ ____ _ ____
 72
    65
 73
     4
 40
50.000000
 49
45.000000
 49
-1.000000
 49
3.000000
 49
-1.000000
  0
LTYPE
  2
CENTER5
 70
    64
  3
____ _ ____ _ ____ _ ____ _ ____ _ ____ _ ____
 72
    65
 73
     4
 40
100.000000
 49
92.000000
 49
-2.000000
 49
4.000000
 49
-2.000000
  0
LTYPE
  2
SBK1
 70
    64
  3
______ _ _ _ ______ _ _ _ ______ _ _ _ _____  
 72
    65
 73
     8
 40
60.500000
 49
45.000000
 49
-2.000000
 49
2.500000
 49
-2.000000
 49
2.500000
 49
-2.000000
 49
2.500000
 49
-2.000000
  0
LTYPE
  2
SBK2
 70
    64
  3
______ _ _ _ ______ _ _ _ ______ _ _ _ _____  
 72
    65
 73
     8
 40
84.000000
 49
64.000000
 49
-2.000000
 49
4.000000
 49
-2.000000
 49
4.000000
 49
-2.000000
 49
4.000000
 49
-2.000000
  0
LTYPE
  2
STCH
 70
    64
  3
__ __ __ __ __ __ __ __ __ __ __ __ __ __ __
 72
    65
 73
     2
 40
3.000000
 49
1.000000
 49
-2.000000
  0
LTYPE
  2
MTCH
 70
    64
  3
_____ _ _ _____ _ _ _____ _ _ _____ _ _ ____  
 72
    65
 73
     6
 40
80.000000
 49
66.000000
 49
-2.000000
 49
4.000000
 49
-2.000000
 49
4.000000
 49
-2.000000
  0
ENDTAB
  0
TABLE
  2
LAYER
 70
     1
  0
LAYER
  2
0
 70
     0
 62
     7
  6
CONTINUOUS
  0
ENDTAB
  0
TABLE
  2
STYLE
 70
     1
  0
STYLE
  2
STANDARD
 70
     0
 40
0.000000
 41
1.000000
 50
0.000000
 71
     0
 42
0.200000
  3
txt
  4
BIGFONT
  0
ENDTAB
  0
TABLE
  2
VIEW
 70
     0
  0
ENDTAB
  0
ENDSEC
  0
SECTION
  2
BLOCKS
  0
ENDSEC
  0
SECTION
  2
ENTITIES
  0
LINE
  8
0
 10
-281.250000
 20
195.500000
 11
282.099976
 21
195.500000
  0
LINE
  8
0
 10
-281.250000
 20
195.500000
 11
-281.250000
 21
-195.000000
  0
LINE
  8
0
 10
282.099976
 20
195.500000
 11
282.099976
 21
-195.000000
  0
LINE
  8
0
 10
-281.250000
 20
-195.000000
 11
282.099976
 21
-195.000000
  0
LINE
  8
0
 10
162.099976
 20
-175.000000
 11
162.099976
 21
-195.000000
  0
LINE
  8
0
 10
162.099976
 20
-175.000000
 11
282.099976
 21
-175.000000
  0
LINE
  8
0
 10
162.099976
 20
175.500000
 11
282.099976
 21
175.500000
  0
LINE
  8
0
 10
-281.250000
 20
175.500000
 11
-161.250000
 21
175.500000
  0
LINE
  8
0
 10
162.099976
 20
195.500000
 11
162.099976
 21
175.500000
  0
LINE
  8
0
 10
-161.250000
 20
195.500000
 11
-161.250000
 21
175.500000
  0
LINE
  8
0
  6
CENTER
 62
     2
 10
-78.448425
 20
-53.506542
 11
-78.448425
 21
52.946735
  0
LINE
  8
0
  6
CENTER
 62
     2
 10
-24.851250
 20
-0.364970
 11
-132.651245
 21
-0.364970
  0
LINE
  8
0
 10
-28.448479
 20
-50.364975
 11
-128.448486
 21
-50.364975
  0
LINE
  8
0
 10
-28.448418
 20
49.635029
 11
-128.448425
 21
49.635029
  0
LINE
  8
0
 10
-28.448433
 20
-50.365002
 11
-28.448433
 21
49.634998
  0
LINE
  8
0
 10
-128.448425
 20
-50.364971
 11
-128.448425
 21
49.635029
  0
LINE
  8
0
  6
CENTER
 62
     2
 10
-120.948433
 20
-46.415142
 11
-120.948433
 21
-39.472839
  0
LINE
  8
0
  6
CENTER
 62
     2
 10
-35.948433
 20
-46.641884
 11
-35.948433
 21
-39.297802
  0
LINE
  8
0
 10
-81.448425
 20
41.135017
 11
-81.448425
 21
49.635017
  0
LINE
  8
0
 10
-75.448425
 20
41.135014
 11
-75.448425
 21
49.635014
  0
LINE
  8
0
  6
CENTER
 62
     2
 10
-117.788872
 20
-42.864975
 11
-124.464104
 21
-42.864975
  0
LINE
  8
0
  6
CENTER
 62
     2
 10
-32.302666
 20
-42.864975
 11
-39.408562
 21
-42.864975
  0
LINE
  8
0
  6
CENTER
 62
     2
 10
-32.733269
 20
42.135029
 11
-39.408501
 21
42.135029
  0
LINE
  8
0
  6
CENTER
 62
     2
 10
-35.948433
 20
38.832939
 11
-35.948433
 21
45.292854
  0
LINE
  8
0
  6
CENTER
 62
     2
 10
-117.575546
 20
42.135029
 11
-124.578171
 21
42.135029
  0
LINE
  8
0
  6
CENTER
 62
     2
 10
-120.948433
 20
38.617634
 11
-120.948433
 21
45.077549
  0
LINE
  8
0
 10
-88.448425
 20
28.771767
 11
-88.448425
 21
34.498268
  0
LINE
  8
0
 10
-98.448425
 20
28.771770
 11
-98.448425
 21
34.498272
  0
LINE
  8
0
 10
-88.448402
 20
28.771748
 11
-93.448402
 21
25.884998
  0
LINE
  8
0
 10
-93.448387
 20
37.385010
 11
-98.448395
 21
34.498253
  0
LINE
  8
0
 10
-93.448418
 20
25.885014
 11
-98.448418
 21
28.771765
  0
LINE
  8
0
 10
-88.448410
 20
34.498257
 11
-93.448402
 21
37.385006
  0
LINE
  8
0
 10
-58.448471
 20
-35.228222
 11
-63.448467
 21
-38.114971
  0
LINE
  8
0
 10
-63.448429
 20
-38.114956
 11
-68.448425
 21
-35.228207
  0
LINE
  8
0
 10
-68.448425
 20
-35.228237
 11
-68.448425
 21
-29.501738
  0
LINE
  8
0
 10
-63.448452
 20
-26.614975
 11
-68.448463
 21
-29.501732
  0
LINE
  8
0
 10
-58.448429
 20
-29.501734
 11
-63.448425
 21
-26.614985
  0
LINE
  8
0
 10
-58.448425
 20
-35.228241
 11
-58.448425
 21
-29.501740
  0
LINE
  8
0
 62
     2
 10
-78.448425
 20
45.187824
 11
-78.448425
 21
51.742283
  0
LINE
  8
0
  6
CENTER
 62
     2
 10
-73.505806
 20
-42.864975
 11
-83.505539
 21
-42.864975
  0
LINE
  8
0
 10
-217.448441
 20
37.135029
 11
-217.448441
 21
26.135031
  0
LINE
  8
0
 10
-217.448441
 20
26.135015
 11
-219.448441
 21
26.135015
  0
LINE
  8
0
 10
-217.448441
 20
37.135014
 11
-219.448441
 21
37.135014
  0
LINE
  8
0
 10
-207.048447
 20
34.135029
 11
-207.048447
 21
29.135031
  0
LINE
  8
0
 10
-208.248428
 20
36.135029
 11
-208.248428
 21
27.135031
  0
LINE
  8
0
 10
-207.048447
 20
29.135015
 11
-208.248428
 21
29.135015
  0
LINE
  8
0
 10
-207.048447
 20
34.135014
 11
-208.248428
 21
34.135014
  0
LINE
  8
0
 10
-208.248428
 20
36.135014
 11
-208.848434
 21
36.135014
  0
LINE
  8
0
 10
-208.248428
 20
27.135015
 11
-208.848434
 21
27.135015
  0
LINE
  8
0
 10
-208.848434
 20
36.135029
 11
-208.848434
 21
27.135031
  0
LINE
  8
0
  6
DASHED
 62
     2
 10
-208.248428
 20
29.635015
 11
-208.848434
 21
29.635015
  0
LINE
  8
0
  6
DASHED
 62
     2
 10
-208.248428
 20
33.635014
 11
-208.848434
 21
33.635014
  0
LINE
  8
0
 10
-209.448456
 20
36.635036
 11
-208.848465
 21
35.595821
  0
LINE
  8
0
 10
-208.848465
 20
27.674215
 11
-209.448456
 21
26.634989
  0
LINE
  8
0
 10
-209.448441
 20
26.635015
 11
-211.848434
 21
26.635015
  0
LINE
  8
0
 10
-209.448441
 20
36.635014
 11
-211.848434
 21
36.635014
  0
LINE
  8
0
 10
-212.448456
 20
27.674234
 11
-213.048447
 21
26.635006
  0
LINE
  8
0
 10
-212.448441
 20
35.595798
 11
-212.448441
 21
27.674261
  0
LINE
  8
0
 10
-213.048462
 20
36.634998
 11
-212.448471
 21
35.595783
  0
LINE
  8
0
  6
DASHED
 62
     2
 10
-213.048447
 20
36.635014
 11
-213.448441
 21
36.635014
  0
LINE
  8
0
  6
DASHED
 62
     2
 10
-213.048416
 20
26.635015
 11
-213.448441
 21
26.635015
  0
LINE
  8
0
 10
-213.048416
 20
26.635015
 11
-217.448441
 21
26.635015
  0
LINE
  8
0
 10
-213.048447
 20
36.635014
 11
-217.448441
 21
36.635014
  0
LINE
  8
0
 10
-213.048447
 20
31.635015
 11
-217.448441
 21
31.635015
  0
LINE
  8
0
 10
-195.448441
 20
49.635014
 11
-226.448441
 21
49.635014
  0
LINE
  8
0
 10
-195.448471
 20
-50.364990
 11
-226.448471
 21
-50.364990
  0
LINE
  8
0
  6
CENTER
 62
     2
 10
-192.202301
 20
-0.364985
 11
-247.469131
 21
-0.364985
  0
LINE
  8
0
 10
-195.448441
 20
49.635029
 11
-195.448441
 21
-50.364971
  0
LINE
  8
0
 10
-245.448441
 20
49.635029
 11
-245.448441
 21
-50.364971
  0
LINE
  8
0
 10
-238.448441
 20
49.635014
 11
-245.448441
 21
49.635014
  0
LINE
  8
0
 10
-238.448471
 20
-50.364990
 11
-245.448471
 21
-50.364990
  0
LINE
  8
0
 10
-210.448441
 20
11.635015
 11
-219.448441
 21
11.635015
  0
LINE
  8
0
 10
-203.448441
 20
49.635029
 11
-203.448441
 21
22.635031
  0
LINE
  8
0
 10
-226.448441
 20
28.635015
 11
-234.848434
 21
28.635015
  0
LINE
  8
0
 62
     2
 10
-226.448441
 20
34.135014
 11
-234.848434
 21
34.135014
  0
LINE
  8
0
 10
-226.448441
 20
34.635014
 11
-234.848434
 21
34.635014
  0
LINE
  8
0
 62
     2
 10
-226.448441
 20
29.135015
 11
-234.848434
 21
29.135015
  0
LINE
  8
0
 10
-219.448441
 20
49.635029
 11
-219.448441
 21
22.635031
  0
LINE
  8
0
 10
-202.948441
 20
3.135015
 11
-225.948441
 21
3.135015
  0
LINE
  8
0
 10
-202.948441
 20
11.135031
 11
-210.448441
 21
11.135031
  0
LINE
  8
0
 10
-202.948441
 20
11.135038
 11
-202.948441
 21
3.135030
  0
LINE
  8
0
 10
-225.948441
 20
11.135038
 11
-225.948441
 21
3.135030
  0
LINE
  8
0
 10
-202.948441
 20
5.885030
 11
-203.242966
 21
5.885030
  0
LINE
  8
0
 10
-202.948441
 20
8.385031
 11
-203.242966
 21
8.385031
  0
LINE
  8
0
 10
-203.948441
 20
-3.864985
 11
-225.948441
 21
-3.864985
  0
LINE
  8
0
 10
-203.948441
 20
3.135030
 11
-203.948441
 21
-3.864970
  0
LINE
  8
0
 10
-225.948441
 20
3.135030
 11
-225.948441
 21
-3.864970
  0
LINE
  8
0
 10
-202.448471
 20
-45.364990
 11
-226.448471
 21
-45.364990
  0
LINE
  8
0
 10
-208.253952
 20
8.385031
 11
-210.448441
 21
8.385031
  0
LINE
  8
0
 10
-208.253952
 20
5.885030
 11
-210.448441
 21
5.885030
  0
LINE
  8
0
 10
-223.653946
 20
8.385031
 11
-223.948441
 21
8.385031
  0
LINE
  8
0
 10
-223.653946
 20
5.885030
 11
-223.948441
 21
5.885030
  0
LINE
  8
0
 10
-219.448441
 20
11.635031
 11
-219.448441
 21
3.135030
  0
LINE
  8
0
 10
-219.448441
 20
5.885030
 11
-220.642960
 21
5.885030
  0
LINE
  8
0
 10
-219.448441
 20
8.385031
 11
-220.642960
 21
8.385031
  0
LINE
  8
0
 10
-214.220139
 20
5.885030
 11
-215.676773
 21
5.885030
  0
LINE
  8
0
 10
-214.220139
 20
8.385031
 11
-215.676773
 21
8.385031
  0
LINE
  8
0
 10
-214.220139
 20
8.385030
 11
-213.498459
 21
7.135031
  0
LINE
  8
0
 10
-216.398453
 20
7.135049
 11
-215.676758
 21
5.885050
  0
LINE
  8
0
 10
-215.676727
 20
8.384993
 11
-216.398407
 21
7.135006
  0
LINE
  8
0
 10
-213.498413
 20
7.135010
 11
-214.220108
 21
5.885012
  0
LINE
  8
0
 10
-222.748459
 20
8.935019
 11
-223.548477
 21
8.935019
  0
LINE
  8
0
 10
-222.748459
 20
5.335027
 11
-223.548477
 21
5.335027
  0
LINE
  8
0
 10
-221.348434
 20
7.535039
 11
-221.348434
 21
6.735036
  0
LINE
  8
0
 10
-224.948441
 20
7.535039
 11
-224.948441
 21
6.735036
  0
LINE
  8
0
 10
-221.348465
 20
6.735021
 11
-222.748459
 21
6.735021
  0
LINE
  8
0
 10
-221.348465
 20
7.535024
 11
-222.748459
 21
7.535024
  0
LINE
  8
0
 10
-222.748428
 20
8.935034
 11
-222.748428
 21
7.535039
  0
LINE
  8
0
 10
-223.548447
 20
8.935034
 11
-223.548447
 21
7.535039
  0
LINE
  8
0
 10
-222.748428
 20
6.735036
 11
-222.748428
 21
5.335042
  0
LINE
  8
0
 10
-223.548477
 20
6.735021
 11
-224.948441
 21
6.735021
  0
LINE
  8
0
 10
-223.548447
 20
6.735036
 11
-223.548447
 21
5.335042
  0
LINE
  8
0
 10
-223.548477
 20
7.535024
 11
-224.948441
 21
7.535024
  0
LINE
  8
0
 10
-203.948441
 20
7.535039
 11
-203.948441
 21
6.735036
  0
LINE
  8
0
 10
-203.948441
 20
6.735021
 11
-205.348465
 21
6.735021
  0
LINE
  8
0
 10
-203.948441
 20
7.535024
 11
-205.348465
 21
7.535024
  0
LINE
  8
0
 10
-205.348434
 20
8.935034
 11
-205.348434
 21
7.535039
  0
LINE
  8
0
 10
-205.348465
 20
8.935019
 11
-206.148453
 21
8.935019
  0
LINE
  8
0
 10
-206.148453
 20
8.935034
 11
-206.148453
 21
7.535039
  0
LINE
  8
0
 10
-206.148453
 20
7.535024
 11
-207.548447
 21
7.535024
  0
LINE
  8
0
 10
-206.148453
 20
6.735021
 11
-207.548447
 21
6.735021
  0
LINE
  8
0
 10
-205.348434
 20
6.735036
 11
-205.348434
 21
5.335042
  0
LINE
  8
0
 10
-206.148453
 20
6.735036
 11
-206.148453
 21
5.335042
  0
LINE
  8
0
 10
-205.348465
 20
5.335027
 11
-206.148453
 21
5.335027
  0
LINE
  8
0
 10
-207.548447
 20
7.535039
 11
-207.548447
 21
6.735036
  0
LINE
  8
0
 10
-210.448441
 20
11.635031
 11
-210.448441
 21
3.135030
  0
LINE
  8
0
 10
-219.448441
 20
11.135031
 11
-225.948441
 21
11.135031
  0
LINE
  8
0
 10
-238.448456
 20
27.674259
 11
-237.848465
 21
26.635044
  0
LINE
  8
0
 10
-235.448441
 20
26.635015
 11
-237.848434
 21
26.635015
  0
LINE
  8
0
 10
-234.848434
 20
27.674248
 11
-235.448425
 21
26.635035
  0
LINE
  8
0
 10
-234.848434
 20
35.595814
 11
-234.848434
 21
27.674276
  0
LINE
  8
0
 10
-235.448441
 20
31.635015
 11
-237.848434
 21
31.635015
  0
LINE
  8
0
 10
-237.848419
 20
36.635025
 11
-238.448425
 21
35.595802
  0
LINE
  8
0
 10
-235.448441
 20
36.635014
 11
-237.848434
 21
36.635014
  0
LINE
  8
0
 10
-235.448456
 20
36.635056
 11
-234.848450
 21
35.595814
  0
LINE
  8
0
 10
-235.948471
 20
-42.364990
 11
-238.448471
 21
-42.364990
  0
LINE
  8
0
 10
-235.948441
 20
-20.364985
 11
-238.448441
 21
-20.364985
  0
LINE
  8
0
 10
-226.448471
 20
-36.364986
 11
-235.948471
 21
-36.364986
  0
LINE
  8
0
 10
-226.448471
 20
-26.364985
 11
-235.948471
 21
-26.364985
  0
LINE
  8
0
 10
-235.948441
 20
-20.364962
 11
-235.948441
 21
-42.364971
  0
LINE
  8
0
 10
-202.448441
 20
49.635029
 11
-202.448441
 21
-50.364971
  0
LINE
  8
0
 10
-238.448441
 20
49.635029
 11
-238.448441
 21
-50.364971
  0
LINE
  8
0
 10
-226.448441
 20
49.635029
 11
-226.448441
 21
-50.364971
  0
LINE
  8
0
  6
PHANTOM
 62
     2
 10
-226.448441
 20
8.735022
 11
-238.448441
 21
8.735022
  0
LINE
  8
0
  6
PHANTOM
 62
     2
 10
-226.448441
 20
-9.464975
 11
-238.448441
 21
-9.464975
  0
LINE
  8
0
  6
PHANTOM
 62
     2
 10
-226.448441
 20
10.135031
 11
-238.448441
 21
10.135031
  0
LINE
  8
0
  6
PHANTOM
 62
     2
 10
-226.448441
 20
-10.864985
 11
-238.448441
 21
-10.864985
  0
LINE
  8
0
  6
CENTER
 62
     2
 10
-224.660904
 20
-10.164972
 11
-240.018143
 21
-10.164972
  0
LINE
  8
0
  6
CENTER
 62
     2
 10
-225.075821
 20
9.435019
 11
-240.018143
 21
9.435019
  0
LINE
  8
0
 10
-209.448441
 20
31.635015
 11
-211.848434
 21
31.635015
  0
LINE
  8
0
  6
CENTER
 62
     2
 10
-192.654633
 20
-42.864990
 11
-205.498306
 21
-42.864990
  0
LINE
  8
0
  6
CENTER
 62
     2
 10
-234.528549
 20
-42.864990
 11
-248.251907
 21
-42.864990
  0
LINE
  8
0
  6
CENTER
 62
     2
 10
-235.039291
 20
-32.864986
 11
-248.037888
 21
-32.864986
  0
LINE
  8
0
  6
CENTER
 62
     2
 10
-235.039291
 20
32.135014
 11
-248.037888
 21
32.135014
  0
LINE
  8
0
  6
CENTER
 62
     2
 10
-234.528549
 20
42.135014
 11
-248.251907
 21
42.135014
  0
LINE
  8
0
  6
CENTER
 62
     2
 10
-192.654633
 20
42.135014
 11
-205.498306
 21
42.135014
  0
LINE
  8
0
 10
71.551544
 20
-32.364986
 11
73.951538
 21
-32.364986
  0
LINE
  8
0
 10
31.551544
 20
-50.364990
 11
62.551544
 21
-50.364990
  0
LINE
  8
0
 10
31.551575
 20
49.635014
 11
62.551575
 21
49.635014
  0
LINE
  8
0
  6
CENTER
 62
     2
 10
29.661545
 20
-0.364985
 11
83.015564
 21
-0.364985
  0
LINE
  8
0
 10
31.551559
 20
-50.365017
 11
31.551559
 21
49.634983
  0
LINE
  8
0
 10
81.551552
 20
-50.365032
 11
81.551552
 21
49.634968
  0
LINE
  8
0
 10
74.551544
 20
-50.364990
 11
81.551544
 21
-50.364990
  0
LINE
  8
0
 10
74.551575
 20
49.635014
 11
81.551575
 21
49.635014
  0
LINE
  8
0
 10
45.551559
 20
-12.364985
 11
54.551559
 21
-12.364985
  0
LINE
  8
0
 10
39.551559
 20
-50.365017
 11
39.551559
 21
-20.365015
  0
LINE
  8
0
 10
62.551552
 20
-50.365032
 11
62.551552
 21
49.634968
  0
LINE
  8
0
 10
55.551552
 20
-50.365032
 11
55.551552
 21
-20.365030
  0
LINE
  8
0
 10
39.051559
 20
-3.864985
 11
62.051559
 21
-3.864985
  0
LINE
  8
0
 10
39.051559
 20
-11.864985
 11
45.551559
 21
-11.864985
  0
LINE
  8
0
 10
39.051559
 20
-11.865015
 11
39.051559
 21
-3.865016
  0
LINE
  8
0
 10
39.051559
 20
3.135015
 11
61.051559
 21
3.135015
  0
LINE
  8
0
 10
39.051559
 20
-3.865016
 11
39.051559
 21
3.134984
  0
LINE
  8
0
 10
61.051552
 20
-3.865031
 11
61.051552
 21
3.134969
  0
LINE
  8
0
 10
38.551575
 20
44.635014
 11
62.551575
 21
44.635014
  0
LINE
  8
0
 10
39.051559
 20
-9.114985
 11
39.346069
 21
-9.114985
  0
LINE
  8
0
 10
39.051559
 20
-6.614985
 11
39.346069
 21
-6.614985
  0
LINE
  8
0
 10
61.257050
 20
-9.114985
 11
62.051559
 21
-9.114985
  0
LINE
  8
0
 10
61.257050
 20
-6.614985
 11
62.051559
 21
-6.614985
  0
LINE
  8
0
 10
54.551552
 20
-12.365030
 11
54.551552
 21
-3.865031
  0
LINE
  8
0
 10
54.551559
 20
-6.614985
 11
56.246063
 21
-6.614985
  0
LINE
  8
0
 10
54.551559
 20
-9.114985
 11
56.246063
 21
-9.114985
  0
LINE
  8
0
 10
49.323242
 20
-6.614985
 11
50.779877
 21
-6.614985
  0
LINE
  8
0
 10
49.323242
 20
-9.114985
 11
50.779877
 21
-9.114985
  0
LINE
  8
0
 10
49.323246
 20
-9.115006
 11
48.601559
 21
-7.865006
  0
LINE
  8
0
 10
51.501560
 20
-7.865039
 11
50.779873
 21
-6.615038
  0
LINE
  8
0
 10
50.779888
 20
-9.115026
 11
51.501575
 21
-7.865027
  0
LINE
  8
0
 10
48.601547
 20
-7.865016
 11
49.323235
 21
-6.615017
  0
LINE
  8
0
 10
58.351562
 20
-9.664988
 11
59.151566
 21
-9.664988
  0
LINE
  8
0
 10
58.351562
 20
-6.064997
 11
59.151566
 21
-6.064997
  0
LINE
  8
0
 10
56.951576
 20
-8.265039
 11
56.951576
 21
-7.465037
  0
LINE
  8
0
 10
60.551552
 20
-8.265039
 11
60.551552
 21
-7.465037
  0
LINE
  8
0
 10
56.951553
 20
-7.464991
 11
58.351562
 21
-7.464991
  0
LINE
  8
0
 10
56.951553
 20
-8.264994
 11
58.351562
 21
-8.264994
  0
LINE
  8
0
 10
58.351570
 20
-9.665033
 11
58.351570
 21
-8.265039
  0
LINE
  8
0
 10
59.151558
 20
-9.665033
 11
59.151558
 21
-8.265039
  0
LINE
  8
0
 10
58.351570
 20
-7.465037
 11
58.351570
 21
-6.065043
  0
LINE
  8
0
 10
59.151566
 20
-7.464991
 11
60.551559
 21
-7.464991
  0
LINE
  8
0
 10
59.151558
 20
-7.465037
 11
59.151558
 21
-6.065043
  0
LINE
  8
0
 10
59.151566
 20
-8.264994
 11
60.551559
 21
-8.264994
  0
LINE
  8
0
 10
40.051559
 20
-8.265024
 11
40.051559
 21
-7.465022
  0
LINE
  8
0
 10
40.051559
 20
-7.464991
 11
41.451553
 21
-7.464991
  0
LINE
  8
0
 10
40.051559
 20
-8.264994
 11
41.451553
 21
-8.264994
  0
LINE
  8
0
 10
41.451569
 20
-9.665018
 11
41.451569
 21
-8.265024
  0
LINE
  8
0
 10
41.451553
 20
-9.664988
 11
42.251556
 21
-9.664988
  0
LINE
  8
0
 10
42.251556
 20
-9.665018
 11
42.251556
 21
-8.265024
  0
LINE
  8
0
 10
42.251556
 20
-8.264994
 11
43.651566
 21
-8.264994
  0
LINE
  8
0
 10
42.251556
 20
-7.464991
 11
43.651566
 21
-7.464991
  0
LINE
  8
0
 10
41.451569
 20
-7.465022
 11
41.451569
 21
-6.065028
  0
LINE
  8
0
 10
42.251556
 20
-7.465022
 11
42.251556
 21
-6.065028
  0
LINE
  8
0
 10
41.451553
 20
-6.064997
 11
42.251556
 21
-6.064997
  0
LINE
  8
0
 10
43.651566
 20
-8.265024
 11
43.651566
 21
-7.465022
  0
LINE
  8
0
 10
45.551559
 20
-12.365015
 11
45.551559
 21
-3.865016
  0
LINE
  8
0
 10
54.551559
 20
-11.864985
 11
62.051559
 21
-11.864985
  0
LINE
  8
0
 10
74.551544
 20
-28.404224
 11
73.951546
 21
-27.364996
  0
LINE
  8
0
 10
71.551544
 20
-27.364985
 11
73.951538
 21
-27.364985
  0
LINE
  8
0
 10
71.551544
 20
-32.364986
 11
73.951538
 21
-32.364986
  0
LINE
  8
0
 10
73.951569
 20
-37.365005
 11
74.551567
 21
-36.325779
  0
LINE
  8
0
 10
71.551544
 20
-37.364990
 11
73.951538
 21
-37.364990
  0
LINE
  8
0
 10
72.051575
 20
41.635014
 11
74.551575
 21
41.635014
  0
LINE
  8
0
 10
72.051559
 20
19.635015
 11
74.551559
 21
19.635015
  0
LINE
  8
0
 10
38.551559
 20
-50.365017
 11
38.551559
 21
49.634983
  0
LINE
  8
0
 10
74.551552
 20
-50.365032
 11
74.551552
 21
49.634968
  0
LINE
  8
0
 10
62.551544
 20
-29.364985
 11
70.951538
 21
-29.364985
  0
LINE
  8
0
 62
     2
 10
62.551544
 20
-29.864985
 11
70.951538
 21
-29.864985
  0
LINE
  8
0
 62
     2
 10
62.551544
 20
-34.864986
 11
70.951538
 21
-34.864986
  0
LINE
  8
0
 10
62.551544
 20
-35.364986
 11
70.951538
 21
-35.364986
  0
LINE
  8
0
 10
72.051552
 20
19.634970
 11
72.051552
 21
41.634968
  0
LINE
  8
0
 10
71.551567
 20
-37.365021
 11
70.951569
 21
-36.325794
  0
LINE
  8
0
 10
70.951546
 20
-28.404221
 11
71.551544
 21
-27.364994
  0
LINE
  8
0
 10
70.951576
 20
-36.325817
 11
70.951576
 21
-28.404245
  0
LINE
  8
0
 10
53.551552
 20
-37.865032
 11
53.551552
 21
-26.865030
  0
LINE
  8
0
 10
53.551544
 20
-26.864985
 11
55.551544
 21
-26.864985
  0
LINE
  8
0
 10
53.551544
 20
-37.864990
 11
55.551544
 21
-37.864990
  0
LINE
  8
0
 10
43.151566
 20
-34.865017
 11
43.151566
 21
-29.865015
  0
LINE
  8
0
 10
44.351562
 20
-36.865017
 11
44.351562
 21
-27.865015
  0
LINE
  8
0
 10
43.151550
 20
-29.864985
 11
44.351547
 21
-29.864985
  0
LINE
  8
0
 10
43.151550
 20
-34.864986
 11
44.351547
 21
-34.864986
  0
LINE
  8
0
 10
44.351547
 20
-36.864990
 11
44.951538
 21
-36.864990
  0
LINE
  8
0
 10
44.351547
 20
-27.864985
 11
44.951538
 21
-27.864985
  0
LINE
  8
0
 10
44.951569
 20
-36.865017
 11
44.951569
 21
-27.865015
  0
LINE
  8
0
  6
DASHED
 62
     2
 10
44.351547
 20
-30.364985
 11
44.951538
 21
-30.364985
  0
LINE
  8
0
  6
DASHED
 62
     2
 10
44.351547
 20
-34.364986
 11
44.951538
 21
-34.364986
  0
LINE
  8
0
 10
45.551563
 20
-37.365025
 11
44.951565
 21
-36.325794
  0
LINE
  8
0
 10
44.951561
 20
-28.404255
 11
45.551567
 21
-27.365015
  0
LINE
  8
0
 10
45.551529
 20
-27.364985
 11
47.951538
 21
-27.364985
  0
LINE
  8
0
 10
45.551544
 20
-37.364990
 11
47.951538
 21
-37.364990
  0
LINE
  8
0
  6
DASHED
 62
     2
 10
47.951569
 20
-37.365009
 11
48.551567
 21
-36.325783
  0
LINE
  8
0
  6
DASHED
 62
     2
 10
48.551559
 20
-28.404257
 11
47.951561
 21
-27.365028
  0
LINE
  8
0
 10
48.551544
 20
-28.404243
 11
49.151543
 21
-27.365017
  0
LINE
  8
0
 10
48.551559
 20
-36.325817
 11
48.551559
 21
-28.404276
  0
LINE
  8
0
 10
49.151554
 20
-37.365013
 11
48.551556
 21
-36.325787
  0
LINE
  8
0
  6
DASHED
 62
     2
 10
49.151535
 20
-37.364990
 11
49.551544
 21
-37.364990
  0
LINE
  8
0
  6
DASHED
 62
     2
 10
49.151535
 20
-27.364985
 11
49.551544
 21
-27.364985
  0
LINE
  8
0
 10
49.551544
 20
-27.364985
 11
53.551544
 21
-27.364985
  0
LINE
  8
0
 10
49.551544
 20
-37.364990
 11
53.551544
 21
-37.364990
  0
LINE
  8
0
 10
49.151550
 20
-32.364986
 11
53.551544
 21
-32.364986
  0
LINE
  8
0
 10
62.551575
 20
35.635014
 11
72.051575
 21
35.635014
  0
LINE
  8
0
 10
62.551575
 20
25.635015
 11
72.051575
 21
25.635015
  0
LINE
  8
0
  6
PHANTOM
 62
     2
 10
62.551559
 20
8.735022
 11
74.551559
 21
8.735022
  0
LINE
  8
0
  6
PHANTOM
 62
     2
 10
62.551559
 20
-9.464991
 11
74.551559
 21
-9.464991
  0
LINE
  8
0
  6
PHANTOM
 62
     2
 10
62.551559
 20
-10.864985
 11
74.551559
 21
-10.864985
  0
LINE
  8
0
  6
PHANTOM
 62
     2
 10
62.551559
 20
10.135015
 11
74.551559
 21
10.135015
  0
LINE
  8
0
 62
     2
 10
61.229095
 20
-10.164988
 11
75.366608
 21
-10.164988
  0
LINE
  8
0
 62
     2
 10
60.814178
 20
9.435019
 11
75.176437
 21
9.435019
  0
LINE
  8
0
 10
62.051552
 20
-11.865030
 11
62.051552
 21
-3.865031
  0
LINE
  8
0
 10
45.551544
 20
-32.364986
 11
47.951538
 21
-32.364986
  0
LINE
  8
0
  6
CENTER
 62
     2
 10
29.424118
 20
42.135014
 11
41.678699
 21
42.135014
  0
LINE
  8
0
  6
CENTER
 62
     2
 10
72.490219
 20
42.135014
 11
84.044533
 21
42.135014
  0
LINE
  8
0
  6
CENTER
 62
     2
 10
72.490219
 20
32.135014
 11
84.044533
 21
32.135014
  0
LINE
  8
0
  6
CENTER
 62
     2
 10
72.490219
 20
-42.864986
 11
84.044533
 21
-42.864986
  0
LINE
  8
0
  6
CENTER
 62
     2
 10
72.490219
 20
-32.864986
 11
84.044533
 21
-32.864986
  0
LINE
  8
0
  6
CENTER
 62
     2
 10
29.424118
 20
-42.864986
 11
41.678699
 21
-42.864986
  0
LINE
  8
0
 10
-28.448448
 20
109.635002
 11
-28.448448
 21
116.635002
  0
LINE
  8
0
 10
-128.448456
 20
109.635002
 11
-128.448456
 21
116.635002
  0
LINE
  8
0
 10
-28.448418
 20
109.635017
 11
-128.448425
 21
109.635017
  0
LINE
  8
0
 10
-55.448410
 20
140.635010
 11
-101.448410
 21
140.635010
  0
LINE
  8
0
 10
-28.448418
 20
152.635010
 11
-128.448425
 21
152.635010
  0
LINE
  8
0
 10
-28.448418
 20
159.635010
 11
-128.448425
 21
159.635010
  0
LINE
  8
0
 10
-28.448448
 20
152.635010
 11
-28.448448
 21
159.635010
  0
LINE
  8
0
 10
-128.448456
 20
152.635010
 11
-128.448456
 21
159.635010
  0
LINE
  8
0
 10
-101.448441
 20
116.635002
 11
-101.448441
 21
140.635010
  0
LINE
  8
0
 10
-28.448418
 20
116.635017
 11
-60.448410
 21
116.635017
  0
LINE
  8
0
 10
-101.448410
 20
116.635017
 11
-128.448425
 21
116.635017
  0
LINE
  8
0
 10
-85.948441
 20
117.635002
 11
-85.948441
 21
133.635010
  0
LINE
  8
0
 10
-85.948410
 20
133.635010
 11
-101.448410
 21
133.635010
  0
LINE
  8
0
 10
-85.948410
 20
117.635017
 11
-101.448410
 21
117.635017
  0
LINE
  8
0
 10
-60.448441
 20
116.635002
 11
-60.448441
 21
140.635010
  0
LINE
  8
0
 10
-57.948441
 20
150.135010
 11
-57.948441
 21
152.635010
  0
LINE
  8
0
 10
-79.948441
 20
150.135010
 11
-79.948441
 21
152.635010
  0
LINE
  8
0
 10
-88.448349
 20
149.634888
 11
-89.487579
 21
149.034897
  0
LINE
  8
0
 10
-89.487640
 20
149.035034
 11
-97.409180
 21
149.035034
  0
LINE
  8
0
 10
-97.409180
 20
149.035004
 11
-98.448395
 21
149.634995
  0
LINE
  8
0
 10
-101.448410
 20
117.135017
 11
-106.448418
 21
117.135017
  0
LINE
  8
0
 10
-106.448418
 20
118.135017
 11
-112.448418
 21
118.135017
  0
LINE
  8
0
 10
-112.448448
 20
118.135002
 11
-112.448448
 21
126.385002
  0
LINE
  8
0
 10
-106.448448
 20
117.135002
 11
-106.448448
 21
140.135010
  0
LINE
  8
0
 10
-106.448418
 20
124.635017
 11
-111.448418
 21
124.635017
  0
LINE
  8
0
 10
-106.448418
 20
133.635010
 11
-111.448418
 21
133.635010
  0
LINE
  8
0
 10
-111.448448
 20
124.635002
 11
-111.448448
 21
133.635010
  0
LINE
  8
0
 10
-115.248436
 20
126.385002
 11
-115.248436
 21
131.885010
  0
LINE
  8
0
 10
-112.248405
 20
131.885010
 11
-115.248405
 21
131.885010
  0
LINE
  8
0
 10
-112.248405
 20
126.385017
 11
-115.248405
 21
126.385017
  0
LINE
  8
0
 10
-112.448448
 20
131.885010
 11
-112.448448
 21
140.135010
  0
LINE
  8
0
 10
-112.248436
 20
126.135002
 11
-112.248436
 21
132.135010
  0
LINE
  8
0
 10
-111.448418
 20
126.135017
 11
-112.248405
 21
126.135017
  0
LINE
  8
0
 10
-111.448418
 20
132.135010
 11
-112.248405
 21
132.135010
  0
LINE
  8
0
 10
-112.448418
 20
132.635010
 11
-114.448418
 21
132.635010
  0
LINE
  8
0
 10
-112.448418
 20
137.635010
 11
-114.448418
 21
137.635010
  0
LINE
  8
0
 10
-114.448448
 20
132.635010
 11
-114.448448
 21
137.635010
  0
LINE
  8
0
 10
-114.448418
 20
133.135010
 11
-126.777916
 21
133.135010
  0
LINE
  8
0
 10
-114.448418
 20
137.135010
 11
-124.468513
 21
137.135010
  0
LINE
  8
0
  6
CENTER
 62
     2
 10
-28.448418
 20
142.635010
 11
-128.448425
 21
142.635010
  0
LINE
  8
0
  6
CENTER
 62
     2
 10
-28.448418
 20
149.635010
 11
-128.448425
 21
149.635010
  0
LINE
  8
0
  6
CENTER
 62
     2
 10
-28.448448
 20
142.635010
 11
-28.448448
 21
149.635010
  0
LINE
  8
0
  6
CENTER
 62
     2
 10
-128.448456
 20
142.635010
 11
-128.448456
 21
149.635010
  0
LINE
  8
0
 10
-73.948441
 20
140.635010
 11
-73.948441
 21
150.135010
  0
LINE
  8
0
 10
-63.948441
 20
140.635010
 11
-63.948441
 21
150.135010
  0
LINE
  8
0
 10
-97.409187
 20
123.035011
 11
-98.448410
 21
123.635010
  0
LINE
  8
0
 10
-87.948410
 20
131.635010
 11
-98.948410
 21
131.635010
  0
LINE
  8
0
 10
-98.948441
 20
131.635010
 11
-98.948441
 21
133.635010
  0
LINE
  8
0
 10
-87.948441
 20
131.635010
 11
-87.948441
 21
133.635010
  0
LINE
  8
0
 10
-88.948410
 20
122.435020
 11
-97.948410
 21
122.435020
  0
LINE
  8
0
 10
-95.948441
 20
121.235008
 11
-95.948441
 21
122.435005
  0
LINE
  8
0
 10
-90.948441
 20
121.235008
 11
-90.948441
 21
122.435005
  0
LINE
  8
0
 10
-88.948441
 20
122.435005
 11
-88.948441
 21
123.034996
  0
LINE
  8
0
 10
-97.948441
 20
122.435005
 11
-97.948441
 21
123.034996
  0
LINE
  8
0
 10
-88.948410
 20
123.035027
 11
-97.948410
 21
123.035027
  0
LINE
  8
0
  6
DASHED
 62
     2
 10
-95.448441
 20
122.435005
 11
-95.448441
 21
123.034996
  0
LINE
  8
0
  6
DASHED
 62
     2
 10
-91.448441
 20
122.435005
 11
-91.448441
 21
123.034996
  0
LINE
  8
0
 10
-88.448357
 20
123.634872
 11
-89.487579
 21
123.034882
  0
LINE
  8
0
 10
-98.448441
 20
123.634987
 11
-98.448441
 21
126.034996
  0
LINE
  8
0
 10
-88.448441
 20
123.635002
 11
-88.448441
 21
126.034996
  0
LINE
  8
0
 10
-97.409142
 20
126.635002
 11
-98.448380
 21
127.235008
  0
LINE
  8
0
 10
-89.487640
 20
126.635017
 11
-97.409180
 21
126.635017
  0
LINE
  8
0
 10
-88.448372
 20
127.234879
 11
-89.487602
 21
126.634880
  0
LINE
  8
0
 10
-98.448441
 20
127.234993
 11
-98.448441
 21
131.635010
  0
LINE
  8
0
 10
-88.448441
 20
127.235008
 11
-88.448441
 21
131.635010
  0
LINE
  8
0
 10
-93.448441
 20
127.235008
 11
-93.448441
 21
131.635010
  0
LINE
  8
0
 10
-90.948410
 20
121.235008
 11
-95.948410
 21
121.235008
  0
LINE
  8
0
 10
-96.448441
 20
140.635010
 11
-96.448441
 21
149.035004
  0
LINE
  8
0
 62
     2
 10
-95.948441
 20
140.635010
 11
-95.948441
 21
149.035004
  0
LINE
  8
0
 62
     2
 10
-90.948441
 20
140.635010
 11
-90.948441
 21
149.035004
  0
LINE
  8
0
 10
-90.448441
 20
140.635010
 11
-90.448441
 21
149.035004
  0
LINE
  8
0
 10
-57.948410
 20
150.135010
 11
-79.948410
 21
150.135010
  0
LINE
  8
0
 10
-88.448425
 20
152.035004
 11
-89.487656
 21
152.635010
  0
LINE
  8
0
 10
-97.409088
 20
152.634888
 11
-98.448311
 21
152.034897
  0
LINE
  8
0
 10
-98.448441
 20
149.635010
 11
-98.448441
 21
152.035004
  0
LINE
  8
0
 10
-93.448441
 20
149.635010
 11
-93.448441
 21
152.035004
  0
LINE
  8
0
 10
-88.448441
 20
149.635010
 11
-88.448441
 21
152.035004
  0
LINE
  8
0
  6
CENTER
 62
     2
 10
-87.548439
 20
138.759338
 11
-87.548439
 21
154.035126
  0
LINE
  8
0
  6
CENTER
 62
     2
 10
-86.848442
 20
140.635010
 11
-86.848442
 21
152.635010
  0
LINE
  8
0
  6
CENTER
 62
     2
 10
-78.448441
 20
106.517799
 11
-78.448441
 21
160.839478
  0
LINE
  8
0
  6
CENTER
 62
     2
 10
-88.248436
 20
140.635010
 11
-88.248436
 21
152.635010
  0
LINE
  8
0
 10
-93.448441
 20
123.635002
 11
-93.448441
 21
126.034996
  0
LINE
  8
0
 10
-101.448410
 20
140.135010
 11
-112.448418
 21
140.135010
  0
LINE
  8
0
 10
-55.448410
 20
117.135017
 11
-50.448410
 21
117.135017
  0
LINE
  8
0
 10
-50.448410
 20
118.135017
 11
-44.448410
 21
118.135017
  0
LINE
  8
0
 10
-44.448441
 20
118.135002
 11
-44.448441
 21
140.135010
  0
LINE
  8
0
 10
-50.448441
 20
117.135002
 11
-50.448441
 21
140.135010
  0
LINE
  8
0
 10
-41.648445
 20
126.385002
 11
-41.648445
 21
131.885010
  0
LINE
  8
0
 10
-44.448410
 20
131.885010
 11
-41.648415
 21
131.885010
  0
LINE
  8
0
 10
-44.448410
 20
126.385017
 11
-41.648415
 21
126.385017
  0
LINE
  8
0
 10
-44.448410
 20
132.635010
 11
-42.448410
 21
132.635010
  0
LINE
  8
0
 10
-44.448410
 20
137.635010
 11
-42.448410
 21
137.635010
  0
LINE
  8
0
 10
-42.448441
 20
132.635010
 11
-42.448441
 21
137.635010
  0
LINE
  8
0
 10
-42.448410
 20
133.135010
 11
-31.777866
 21
133.135010
  0
LINE
  8
0
 10
-42.448410
 20
137.135010
 11
-29.468464
 21
137.135010
  0
LINE
  8
0
 10
-55.448410
 20
140.135010
 11
-44.448410
 21
140.135010
  0
LINE
  8
0
 10
-55.448441
 20
116.635002
 11
-55.448441
 21
140.635010
  0
LINE
  8
0
  6
PHANTOM
 62
     2
 10
-128.307358
 20
130.485992
 11
-122.823639
 21
139.984070
  0
LINE
  8
0
  6
PHANTOM
 62
     2
 10
-130.307373
 20
130.485992
 11
-124.700447
 21
140.197449
  0
LINE
  8
0
  6
PHANTOM
 62
     2
 10
-31.826925
 20
129.585968
 11
-25.896803
 21
139.857239
  0
LINE
  8
0
  6
PHANTOM
 62
     2
 10
-33.826923
 20
129.585953
 11
-27.896801
 21
139.857239
  0
LINE
  8
0
  6
CENTER
 62
     2
 10
-120.948448
 20
150.484985
 11
-120.948448
 21
162.084991
  0
LINE
  8
0
  6
CENTER
 62
     2
 10
-110.948448
 20
150.484985
 11
-110.948448
 21
162.084991
  0
LINE
  8
0
  6
CENTER
 62
     2
 10
-120.948448
 20
107.284996
 11
-120.948448
 21
119.084999
  0
LINE
  8
0
  6
CENTER
 62
     2
 10
-35.948433
 20
150.484985
 11
-35.948433
 21
162.084991
  0
LINE
  8
0
  6
CENTER
 62
     2
 10
-45.948433
 20
150.484985
 11
-45.948433
 21
162.084991
  0
LINE
  8
0
  6
CENTER
 62
     2
 10
-35.948433
 20
107.284996
 11
-35.948433
 21
119.084999
  0
LINE
  8
0
 10
-128.448425
 20
-110.364983
 11
-128.448425
 21
-117.364983
  0
LINE
  8
0
 10
-28.448441
 20
-110.364983
 11
-28.448441
 21
-117.364983
  0
LINE
  8
0
 10
-128.448486
 20
-110.364983
 11
-28.448502
 21
-110.364983
  0
LINE
  8
0
 10
-101.448502
 20
-141.364990
 11
-55.448502
 21
-141.364990
  0
LINE
  8
0
 10
-128.448486
 20
-153.364990
 11
-28.448502
 21
-153.364990
  0
LINE
  8
0
 10
-128.448486
 20
-160.364990
 11
-28.448502
 21
-160.364990
  0
LINE
  8
0
 10
-128.448425
 20
-153.364990
 11
-128.448425
 21
-160.364990
  0
LINE
  8
0
 10
-28.448441
 20
-153.364990
 11
-28.448441
 21
-160.364990
  0
LINE
  8
0
 10
-55.448441
 20
-117.364983
 11
-55.448441
 21
-141.364990
  0
LINE
  8
0
 10
-128.448486
 20
-117.364983
 11
-96.448502
 21
-117.364983
  0
LINE
  8
0
 10
-55.448502
 20
-117.364983
 11
-28.448502
 21
-117.364983
  0
LINE
  8
0
 10
-70.948441
 20
-118.364983
 11
-70.948441
 21
-134.364990
  0
LINE
  8
0
 10
-70.948502
 20
-134.364990
 11
-55.448502
 21
-134.364990
  0
LINE
  8
0
 10
-70.948502
 20
-118.364983
 11
-55.448502
 21
-118.364983
  0
LINE
  8
0
 10
-96.448441
 20
-117.364983
 11
-96.448441
 21
-141.364990
  0
LINE
  8
0
 10
-98.948441
 20
-150.864990
 11
-98.948441
 21
-153.364990
  0
LINE
  8
0
 10
-76.948441
 20
-150.864990
 11
-76.948441
 21
-153.364990
  0
LINE
  8
0
 10
-68.448509
 20
-150.364975
 11
-67.409279
 21
-149.764969
  0
LINE
  8
0
 10
-67.409271
 20
-149.764984
 11
-59.487732
 21
-149.764984
  0
LINE
  8
0
 10
-59.487724
 20
-149.765030
 11
-58.448513
 21
-150.365021
  0
LINE
  8
0
 10
-55.448502
 20
-117.864983
 11
-50.448502
 21
-117.864983
  0
LINE
  8
0
 10
-50.448502
 20
-118.864983
 11
-44.448502
 21
-118.864983
  0
LINE
  8
0
 10
-44.448441
 20
-118.864983
 11
-44.448441
 21
-127.114983
  0
LINE
  8
0
 10
-50.448441
 20
-117.864983
 11
-50.448441
 21
-140.864990
  0
LINE
  8
0
 10
-50.448502
 20
-125.364983
 11
-45.448502
 21
-125.364983
  0
LINE
  8
0
 10
-50.448502
 20
-134.364990
 11
-45.448502
 21
-134.364990
  0
LINE
  8
0
 10
-45.448441
 20
-125.364983
 11
-45.448441
 21
-134.364990
  0
LINE
  8
0
 10
-41.648445
 20
-127.114983
 11
-41.648445
 21
-132.614990
  0
LINE
  8
0
 10
-44.648506
 20
-132.614990
 11
-41.648506
 21
-132.614990
  0
LINE
  8
0
 10
-44.648506
 20
-127.114983
 11
-41.648506
 21
-127.114983
  0
LINE
  8
0
 10
-44.448441
 20
-132.614990
 11
-44.448441
 21
-140.864990
  0
LINE
  8
0
 10
-44.648445
 20
-126.864983
 11
-44.648445
 21
-132.864990
  0
LINE
  8
0
 10
-45.448502
 20
-126.864983
 11
-44.648506
 21
-126.864983
  0
LINE
  8
0
 10
-45.448502
 20
-132.864990
 11
-44.648506
 21
-132.864990
  0
LINE
  8
0
 10
-44.448502
 20
-133.364990
 11
-42.448502
 21
-133.364990
  0
LINE
  8
0
 10
-44.448502
 20
-138.364990
 11
-42.448502
 21
-138.364990
  0
LINE
  8
0
 10
-42.448441
 20
-133.364990
 11
-42.448441
 21
-138.364990
  0
LINE
  8
0
 10
-42.448502
 20
-133.864990
 11
-29.757015
 21
-133.864990
  0
LINE
  8
0
 10
-42.448502
 20
-137.864990
 11
-32.066418
 21
-137.864990
  0
LINE
  8
0
  6
CENTER
 62
     2
 10
-128.448486
 20
-143.364990
 11
-28.448502
 21
-143.364990
  0
LINE
  8
0
  6
CENTER
 62
     2
 10
-128.448486
 20
-150.364990
 11
-28.448502
 21
-150.364990
  0
LINE
  8
0
  6
CENTER
 62
     2
 10
-128.448425
 20
-143.364990
 11
-128.448425
 21
-150.364990
  0
LINE
  8
0
  6
CENTER
 62
     2
 10
-28.448441
 20
-143.364990
 11
-28.448441
 21
-150.364990
  0
LINE
  8
0
 10
-82.948441
 20
-141.364990
 11
-82.948441
 21
-150.864990
  0
LINE
  8
0
 10
-92.948441
 20
-141.364990
 11
-92.948441
 21
-150.864990
  0
LINE
  8
0
 10
-59.487705
 20
-123.764977
 11
-58.448475
 21
-124.364975
  0
LINE
  8
0
 10
-68.948502
 20
-132.364990
 11
-57.948502
 21
-132.364990
  0
LINE
  8
0
 10
-57.948441
 20
-132.364990
 11
-57.948441
 21
-134.364990
  0
LINE
  8
0
 10
-68.948441
 20
-132.364990
 11
-68.948441
 21
-134.364990
  0
LINE
  8
0
 10
-67.948502
 20
-123.164986
 11
-58.948502
 21
-123.164986
  0
LINE
  8
0
 10
-60.948441
 20
-121.964989
 11
-60.948441
 21
-123.164986
  0
LINE
  8
0
 10
-65.948441
 20
-121.964989
 11
-65.948441
 21
-123.164986
  0
LINE
  8
0
 10
-67.948441
 20
-123.164986
 11
-67.948441
 21
-123.764977
  0
LINE
  8
0
 10
-58.948441
 20
-123.164986
 11
-58.948441
 21
-123.764977
  0
LINE
  8
0
 10
-67.948502
 20
-123.764992
 11
-58.948502
 21
-123.764992
  0
LINE
  8
0
  6
DASHED
 62
     2
 10
-61.448441
 20
-123.164986
 11
-61.448441
 21
-123.764977
  0
LINE
  8
0
  6
DASHED
 62
     2
 10
-65.448441
 20
-123.164986
 11
-65.448441
 21
-123.764977
  0
LINE
  8
0
 10
-68.448479
 20
-124.364967
 11
-67.409248
 21
-123.764969
  0
LINE
  8
0
 10
-58.448441
 20
-124.364967
 11
-58.448441
 21
-126.764977
  0
LINE
  8
0
 10
-68.448441
 20
-124.364983
 11
-68.448441
 21
-126.764977
  0
LINE
  8
0
 10
-59.487759
 20
-127.364983
 11
-58.448521
 21
-127.964989
  0
LINE
  8
0
 10
-67.409271
 20
-127.364983
 11
-59.487732
 21
-127.364983
  0
LINE
  8
0
 10
-68.448486
 20
-127.964973
 11
-67.409264
 21
-127.364975
  0
LINE
  8
0
 10
-58.448441
 20
-127.964973
 11
-58.448441
 21
-132.364990
  0
LINE
  8
0
 10
-68.448441
 20
-127.964989
 11
-68.448441
 21
-132.364990
  0
LINE
  8
0
 10
-63.448441
 20
-127.964989
 11
-63.448441
 21
-132.364990
  0
LINE
  8
0
 10
-65.948502
 20
-121.964973
 11
-60.948502
 21
-121.964973
  0
LINE
  8
0
 10
-60.448441
 20
-141.364990
 11
-60.448441
 21
-149.764984
  0
LINE
  8
0
 62
     2
 10
-60.948441
 20
-141.364990
 11
-60.948441
 21
-149.764984
  0
LINE
  8
0
 62
     2
 10
-65.948441
 20
-141.364990
 11
-65.948441
 21
-149.764984
  0
LINE
  8
0
 10
-66.448441
 20
-141.364990
 11
-66.448441
 21
-149.764984
  0
LINE
  8
0
 10
-98.948502
 20
-150.864990
 11
-76.948502
 21
-150.864990
  0
LINE
  8
0
 10
-68.448479
 20
-152.765015
 11
-67.409248
 21
-153.365021
  0
LINE
  8
0
 10
-59.487785
 20
-153.364990
 11
-58.448551
 21
-152.764984
  0
LINE
  8
0
 10
-58.448441
 20
-150.364990
 11
-58.448441
 21
-152.764984
  0
LINE
  8
0
 10
-63.448441
 20
-150.364990
 11
-63.448441
 21
-152.764984
  0
LINE
  8
0
 10
-68.448441
 20
-150.364990
 11
-68.448441
 21
-152.764984
  0
LINE
  8
0
  6
CENTER
 62
     2
 10
-69.348442
 20
-139.489319
 11
-69.348442
 21
-154.765106
  0
LINE
  8
0
  6
CENTER
 62
     2
 10
-70.048439
 20
-141.364990
 11
-70.048439
 21
-153.364990
  0
LINE
  8
0
  6
CENTER
 62
     2
 10
-78.448441
 20
-107.247780
 11
-78.448441
 21
-161.569458
  0
LINE
  8
0
  6
CENTER
 62
     2
 10
-68.648445
 20
-141.364990
 11
-68.648445
 21
-153.364990
  0
LINE
  8
0
 10
-63.448441
 20
-124.364983
 11
-63.448441
 21
-126.764977
  0
LINE
  8
0
 10
-55.448502
 20
-140.864990
 11
-44.448502
 21
-140.864990
  0
LINE
  8
0
 10
-101.448502
 20
-117.864983
 11
-106.448494
 21
-117.864983
  0
LINE
  8
0
 10
-106.448494
 20
-118.864983
 11
-112.448494
 21
-118.864983
  0
LINE
  8
0
 10
-112.448433
 20
-118.864983
 11
-112.448433
 21
-140.864990
  0
LINE
  8
0
 10
-106.448433
 20
-117.864983
 11
-106.448433
 21
-140.864990
  0
LINE
  8
0
 10
-115.248436
 20
-127.114983
 11
-115.248436
 21
-132.614990
  0
LINE
  8
0
 10
-112.448494
 20
-132.614990
 11
-115.248497
 21
-132.614990
  0
LINE
  8
0
 10
-112.448494
 20
-127.114983
 11
-115.248497
 21
-127.114983
  0
LINE
  8
0
 10
-112.448494
 20
-133.364990
 11
-114.448494
 21
-133.364990
  0
LINE
  8
0
 10
-112.448494
 20
-138.364990
 11
-114.448494
 21
-138.364990
  0
LINE
  8
0
 10
-114.448433
 20
-133.364990
 11
-114.448433
 21
-138.364990
  0
LINE
  8
0
 10
-114.448494
 20
-133.864990
 11
-124.757027
 21
-133.864990
  0
LINE
  8
0
 10
-114.448494
 20
-137.864990
 11
-127.066429
 21
-137.864990
  0
LINE
  8
0
 10
-101.448502
 20
-140.864990
 11
-112.448494
 21
-140.864990
  0
LINE
  8
0
 10
-101.448441
 20
-117.364983
 11
-101.448441
 21
-141.364990
  0
LINE
  8
0
  6
PHANTOM
 62
     2
 10
-128.737152
 20
-140.758728
 11
-123.362358
 21
-131.449326
  0
LINE
  8
0
  6
PHANTOM
 62
     2
 10
-130.737137
 20
-140.758728
 11
-125.362358
 21
-131.449326
  0
LINE
  8
0
  6
PHANTOM
 62
     2
 10
-31.737131
 20
-140.758743
 11
-26.362341
 21
-131.449341
  0
LINE
  8
0
  6
PHANTOM
 62
     2
 10
-33.737129
 20
-140.758743
 11
-28.362335
 21
-131.449326
  0
LINE
  8
0
  6
CENTER
 62
     2
 10
-35.948441
 20
-108.592873
 11
-35.948441
 21
-119.259537
  0
LINE
  8
0
  6
CENTER
 62
     2
 10
-45.948441
 20
-151.759537
 11
-45.948441
 21
-162.092865
  0
LINE
  8
0
  6
CENTER
 62
     2
 10
-35.948441
 20
-151.926208
 11
-35.948441
 21
-162.259537
  0
LINE
  8
0
  6
CENTER
 62
     2
 10
-120.948433
 20
-108.592873
 11
-120.948433
 21
-119.259537
  0
LINE
  8
0
  6
CENTER
 62
     2
 10
-120.948433
 20
-151.926208
 11
-120.948433
 21
-162.259537
  0
LINE
  8
0
  6
CENTER
 62
     2
 10
-110.948433
 20
-151.759537
 11
-110.948433
 21
-162.092865
  0
LINE
  8
0
 10
234.551559
 20
-50.365017
 11
234.551559
 21
49.634983
  0
LINE
  8
0
 10
134.551559
 20
-50.365017
 11
134.551559
 21
49.634983
  0
LINE
  8
0
 10
234.551559
 20
-50.365002
 11
134.551559
 21
-50.365002
  0
LINE
  8
0
  6
CENTER
 62
     2
 10
247.623764
 20
-0.364985
 11
130.523758
 21
-0.364985
  0
LINE
  8
0
 10
234.551590
 20
49.635014
 11
134.551590
 21
49.635014
  0
LINE
  8
0
 62
     2
 10
184.551559
 20
-60.593472
 11
184.551559
 21
43.585423
  0
LINE
  8
0
  6
CENTER
 62
     2
 10
227.051559
 20
-47.699135
 11
227.051559
 21
-37.657383
  0
LINE
  8
0
  6
CENTER
 62
     2
 10
231.363724
 20
42.135014
 11
222.577194
 21
42.135014
  0
LINE
  8
0
  6
CENTER
 62
     2
 10
231.782150
 20
-42.864986
 11
222.158798
 21
-42.864986
  0
LINE
  8
0
  6
CENTER
 62
     2
 10
227.051559
 20
37.655766
 11
227.051559
 21
46.860691
  0
LINE
  8
0
  6
CENTER
 62
     2
 10
221.069962
 20
32.135014
 11
212.953857
 21
32.135014
  0
LINE
  8
0
  6
CENTER
 62
     2
 10
220.903580
 20
-32.864986
 11
212.953857
 21
-32.864986
  0
LINE
  8
0
  6
CENTER
 62
     2
 10
217.051559
 20
-37.029774
 11
217.051559
 21
-28.661646
  0
LINE
  8
0
  6
CENTER
 62
     2
 10
188.267883
 20
32.135014
 11
180.736557
 21
32.135014
  0
LINE
  8
0
  6
CENTER
 62
     2
 10
188.267883
 20
42.135014
 11
180.527359
 21
42.135014
  0
LINE
  8
0
  6
CENTER
 62
     2
 10
188.058670
 20
-32.864986
 11
180.945770
 21
-32.864986
  0
LINE
  8
0
  6
CENTER
 62
     2
 10
188.267883
 20
-42.864986
 11
180.527359
 21
-42.864986
  0
LINE
  8
0
  6
CENTER
 62
     2
 10
227.051559
 20
-4.394076
 11
227.051559
 21
3.764844
  0
LINE
  8
0
  6
CENTER
 62
     2
 10
217.051559
 20
-3.975672
 11
217.051559
 21
3.346441
  0
LINE
  8
0
  6
CENTER
 62
     2
 10
217.051559
 20
28.032415
 11
217.051559
 21
36.400547
  0
LINE
  8
0
 10
177.801590
 20
24.435095
 11
177.801590
 21
22.978460
  0
LINE
  8
0
 10
180.301590
 20
24.435095
 11
180.301590
 21
22.978460
  0
LINE
  8
0
 10
177.801605
 20
24.434984
 11
179.051620
 21
25.156677
  0
LINE
  8
0
 10
179.051620
 20
22.256733
 11
180.301605
 21
22.978413
  0
LINE
  8
0
 10
177.801544
 20
22.978489
 11
179.051544
 21
22.256802
  0
LINE
  8
0
 10
179.051559
 20
25.156815
 11
180.301559
 21
24.435127
  0
LINE
  8
0
 10
167.051559
 20
32.085018
 11
168.301559
 21
31.363329
  0
LINE
  8
0
 10
165.801575
 20
31.363230
 11
167.051559
 21
32.084908
  0
LINE
  8
0
 10
165.801590
 20
31.363287
 11
165.801590
 21
29.906683
  0
LINE
  8
0
 10
168.301590
 20
31.363287
 11
168.301590
 21
29.906683
  0
LINE
  8
0
 10
167.051605
 20
29.184984
 11
168.301590
 21
29.906664
  0
LINE
  8
0
 10
165.801544
 20
29.906693
 11
167.051544
 21
29.185005
  0
LINE
  8
0
 10
179.051575
 20
39.013206
 11
180.301559
 21
38.291527
  0
LINE
  8
0
 10
177.801544
 20
38.291420
 11
179.051559
 21
39.013111
  0
LINE
  8
0
 10
177.801590
 20
38.291508
 11
177.801590
 21
36.834904
  0
LINE
  8
0
 10
180.301590
 20
38.291508
 11
180.301590
 21
36.834873
  0
LINE
  8
0
 10
179.051590
 20
36.113174
 11
180.301575
 21
36.834854
  0
LINE
  8
0
 10
177.801575
 20
36.834904
 11
179.051575
 21
36.113224
  0
LINE
  8
0
 10
191.301529
 20
-23.708534
 11
190.051514
 21
-22.986839
  0
LINE
  8
0
 10
190.051559
 20
-22.986824
 11
188.801559
 21
-23.708511
  0
LINE
  8
0
 10
188.801559
 20
-25.165125
 11
188.801559
 21
-23.708490
  0
LINE
  8
0
 10
190.051544
 20
-25.886854
 11
188.801529
 21
-25.165159
  0
LINE
  8
0
 10
191.301544
 20
-25.165096
 11
190.051559
 21
-25.886776
  0
LINE
  8
0
 10
191.301559
 20
-25.165125
 11
191.301559
 21
-23.708490
  0
LINE
  8
0
 10
191.301544
 20
-37.564949
 11
190.051529
 21
-36.843254
  0
LINE
  8
0
 10
190.051590
 20
-36.843224
 11
188.801575
 21
-37.564919
  0
LINE
  8
0
 10
188.801559
 20
-39.021542
 11
188.801559
 21
-37.564907
  0
LINE
  8
0
 10
190.051544
 20
-39.743237
 11
188.801529
 21
-39.021542
  0
LINE
  8
0
 10
191.301575
 20
-39.021538
 11
190.051559
 21
-39.743233
  0
LINE
  8
0
 10
191.301559
 20
-39.021542
 11
191.301559
 21
-37.564938
  0
LINE
  8
0
 10
202.051590
 20
-29.915018
 11
200.801575
 21
-30.636713
  0
LINE
  8
0
 10
200.801559
 20
-32.093319
 11
200.801559
 21
-30.636713
  0
LINE
  8
0
 10
202.051544
 20
-32.815063
 11
200.801544
 21
-32.093369
  0
LINE
  8
0
 10
203.301559
 20
-32.093338
 11
202.051559
 21
-32.815033
  0
LINE
  8
0
 10
203.301559
 20
-32.093319
 11
203.301559
 21
-30.636713
  0
LINE
  8
0
 10
203.301514
 20
-30.636728
 11
202.051529
 21
-29.915049
  0
LINE
  8
0
  6
CENTER
 62
     2
 10
184.551559
 20
-60.593472
 11
184.551559
 21
53.585423
  0
LINE
  8
0
  6
CENTER
 62
     2
 10
148.033157
 20
32.135014
 11
156.149261
 21
32.135014
  0
LINE
  8
0
  6
CENTER
 62
     2
 10
152.051559
 20
28.032415
 11
152.051559
 21
36.400547
  0
LINE
  8
0
  6
CENTER
 62
     2
 10
137.320969
 20
-42.864986
 11
146.944321
 21
-42.864986
  0
LINE
  8
0
  6
CENTER
 62
     2
 10
142.051559
 20
37.655766
 11
142.051559
 21
46.860691
  0
LINE
  8
0
  6
CENTER
 62
     2
 10
137.739395
 20
42.135014
 11
146.525925
 21
42.135014
  0
LINE
  8
0
  6
CENTER
 62
     2
 10
152.051559
 20
-3.975672
 11
152.051559
 21
3.346441
  0
LINE
  8
0
  6
CENTER
 62
     2
 10
142.051559
 20
-4.394076
 11
142.051559
 21
3.764844
  0
LINE
  8
0
  6
CENTER
 62
     2
 10
152.051559
 20
-37.029774
 11
152.051559
 21
-28.661646
  0
LINE
  8
0
  6
CENTER
 62
     2
 10
148.199539
 20
-32.864986
 11
156.149261
 21
-32.864986
  0
LINE
  8
0
  6
CENTER
 62
     2
 10
142.051559
 20
-47.699135
 11
142.051559
 21
-37.657383
  0
CIRCLE
  8
0
 10
-35.948467
 20
-42.865005
 40
2.000000
  0
CIRCLE
  8
0
 10
-120.948456
 20
-42.864967
 40
2.000000
  0
CIRCLE
  8
0
 10
-120.948425
 20
42.135025
 40
2.000000
  0
CIRCLE
  8
0
 10
-35.948429
 20
42.135002
 40
2.000000
  0
CIRCLE
  8
0
 62
     2
 10
-35.948467
 20
-42.865005
 40
2.500000
  0
CIRCLE
  8
0
 62
     2
 10
-120.948456
 20
-42.864967
 40
2.500000
  0
CIRCLE
  8
0
 62
     2
 10
-35.948429
 20
42.135002
 40
2.500000
  0
CIRCLE
  8
0
 62
     2
 10
-120.948425
 20
42.135025
 40
2.500000
  0
CIRCLE
  8
0
 10
-63.448456
 20
-32.364990
 40
8.000000
  0
CIRCLE
  8
0
 10
-93.448425
 20
31.635019
 40
8.000000
  0
CIRCLE
  8
0
 10
-78.448463
 20
-42.864986
 40
3.000000
  0
ARC
  8
0
 10
-78.448418
 20
41.135014
 40
3.000000
 50
180.000000
 51
0.000000
  0
CIRCLE
  8
0
 10
-59.448441
 20
-0.364991
 40
3.000000
  0
CIRCLE
  8
0
 10
-97.448441
 20
-0.364979
 40
3.000000
  0
CIRCLE
  8
0
 10
-68.948425
 20
30.635012
 40
9.500000
  0
CIRCLE
  8
0
 10
-87.948456
 20
-31.364981
 40
9.500000
  0
CIRCLE
  8
0
 10
-87.948456
 20
-31.364981
 40
5.000000
  0
CIRCLE
  8
0
 10
-68.948425
 20
30.635012
 40
5.000000
  0
CIRCLE
  8
0
 10
-63.448456
 20
-32.364990
 40
3.000000
  0
CIRCLE
  8
0
 10
-93.448425
 20
31.635019
 40
3.000000
  0
CIRCLE
  8
0
 62
     2
 10
-93.448425
 20
31.635019
 40
2.500000
  0
CIRCLE
  8
0
 62
     2
 10
-63.448456
 20
-32.364990
 40
2.500000
  0
CIRCLE
  8
0
 10
-63.448456
 20
-32.364990
 40
5.500000
  0
CIRCLE
  8
0
 10
-93.448425
 20
31.635019
 40
5.500000
  0
CIRCLE
  8
0
 10
-59.448441
 20
-0.364991
 40
2.500000
  0
CIRCLE
  8
0
 10
-97.448441
 20
-0.364979
 40
2.500000
  0
CIRCLE
  8
0
 10
-59.448441
 20
-0.364991
 40
1.750000
  0
CIRCLE
  8
0
 10
-97.448441
 20
-0.364979
 40
1.750000
  0
ARC
  8
0
 10
-72.190651
 20
8.135014
 40
0.700001
 50
105.627541
 51
1.650720
  0
ARC
  8
0
 10
-84.706230
 20
8.135017
 40
0.699997
 50
180.000000
 51
74.372459
  0
CIRCLE
  8
0
 10
-78.448441
 20
-0.364985
 40
11.000000
  0
ARC
  8
0
 10
-78.448441
 20
0.335012
 40
9.999999
 50
137.341843
 51
42.467644
  0
ARC
  8
0
 10
-72.190651
 20
8.135014
 40
1.500000
 50
130.235825
 51
316.959442
  0
ARC
  8
0
 10
-84.706230
 20
8.135017
 40
1.500000
 50
223.040573
 51
49.764172
  0
ARC
  8
0
 10
-214.356766
 20
34.135029
 40
5.508325
 50
333.008514
 51
26.991541
  0
ARC
  8
0
 10
-214.356766
 20
29.135031
 40
5.508325
 50
333.008514
 51
26.991558
  0
ARC
  8
0
 10
-206.940109
 20
34.135029
 40
5.508329
 50
153.008423
 51
206.991455
  0
ARC
  8
0
 10
-206.940109
 20
29.135031
 40
5.508329
 50
153.008423
 51
206.991455
  0
ARC
  8
0
 10
-217.956772
 20
29.135031
 40
5.508326
 50
333.008484
 51
26.991558
  0
ARC
  8
0
 10
-217.956772
 20
34.135029
 40
5.508326
 50
333.008484
 51
26.991541
  0
ARC
  8
0
 10
-211.448441
 20
22.635031
 40
8.000000
 50
270.000000
 51
0.000000
  0
ARC
  8
0
 10
-211.448441
 20
22.635031
 40
8.000000
 50
180.000046
 51
270.000000
  0
CIRCLE
  8
0
 10
-205.748459
 20
7.135046
 40
2.800000
  0
CIRCLE
  8
0
 10
-223.148453
 20
7.135046
 40
2.800000
  0
CIRCLE
  8
0
 10
-214.948441
 20
7.135046
 40
2.750000
  0
CIRCLE
  8
0
 10
-220.948441
 20
-0.364970
 40
2.500000
  0
CIRCLE
  8
0
 10
-208.448441
 20
0.135030
 40
1.000000
  0
CIRCLE
  8
0
 10
-220.948441
 20
-0.364970
 40
2.000000
  0
ARC
  8
0
 10
-240.356766
 20
29.135046
 40
5.508326
 50
333.008484
 51
26.991558
  0
ARC
  8
0
 10
-232.940109
 20
29.135031
 40
5.508329
 50
153.008423
 51
206.991455
  0
ARC
  8
0
 10
-232.940109
 20
34.135044
 40
5.508329
 50
153.008423
 51
206.991455
  0
ARC
  8
0
 10
-240.356766
 20
34.135044
 40
5.508326
 50
333.008484
 51
26.991541
  0
ARC
  8
0
 10
47.551559
 20
-20.365015
 40
8.000000
 50
90.000000
 51
179.999985
  0
ARC
  8
0
 10
47.551559
 20
-20.365015
 40
8.000000
 50
0.000027
 51
90.000000
  0
CIRCLE
  8
0
 10
41.851562
 20
-7.865016
 40
2.800000
  0
CIRCLE
  8
0
 10
58.751579
 20
-7.865023
 40
2.800000
  0
CIRCLE
  8
0
 10
50.051567
 20
-7.865023
 40
2.750000
  0
CIRCLE
  8
0
 10
56.051567
 20
-0.365023
 40
2.500000
  0
CIRCLE
  8
0
 10
43.551559
 20
-0.865016
 40
1.000000
  0
CIRCLE
  8
0
 10
56.051567
 20
-0.365023
 40
2.000000
  0
ARC
  8
0
 10
69.043236
 20
-29.865023
 40
5.508329
 50
333.008453
 51
26.991434
  0
ARC
  8
0
 10
69.043236
 20
-34.865025
 40
5.508329
 50
333.008423
 51
26.991434
  0
ARC
  8
0
 10
76.459892
 20
-34.865025
 40
5.508333
 50
153.008530
 51
206.991547
  0
ARC
  8
0
 10
76.459892
 20
-29.865023
 40
5.508332
 50
153.008545
 51
206.991562
  0
ARC
  8
0
 10
50.459892
 20
-34.865017
 40
5.508329
 50
153.008514
 51
206.991516
  0
ARC
  8
0
 10
50.459892
 20
-29.865015
 40
5.508328
 50
153.008530
 51
206.991547
  0
ARC
  8
0
 10
43.043221
 20
-34.865017
 40
5.508329
 50
333.008423
 51
26.991434
  0
ARC
  8
0
 10
43.043221
 20
-29.865015
 40
5.508329
 50
333.008453
 51
26.991434
  0
ARC
  8
0
 10
54.059898
 20
-29.865015
 40
5.508328
 50
153.008530
 51
206.991547
  0
ARC
  8
0
 10
54.059898
 20
-34.865017
 40
5.508329
 50
153.008514
 51
206.991516
  0
ARC
  8
0
 10
-95.948410
 20
154.543335
 40
5.508326
 50
243.008499
 51
296.991577
  0
ARC
  8
0
 10
-90.948410
 20
154.543335
 40
5.508326
 50
243.008499
 51
296.991577
  0
ARC
  8
0
 10
-95.948425
 20
121.126671
 40
5.508329
 50
63.008423
 51
116.991470
  0
ARC
  8
0
 10
-90.948410
 20
132.143341
 40
5.508333
 50
243.008530
 51
296.991577
  0
ARC
  8
0
 10
-95.948410
 20
132.143341
 40
5.508333
 50
243.008530
 51
296.991577
  0
ARC
  8
0
 10
-90.948410
 20
128.543335
 40
5.508333
 50
243.008530
 51
296.991577
  0
ARC
  8
0
 10
-95.948410
 20
128.543335
 40
5.508333
 50
243.008530
 51
296.991577
  0
ARC
  8
0
 10
-90.948410
 20
121.126671
 40
5.508329
 50
63.008423
 51
116.991470
  0
ARC
  8
0
 10
-90.948410
 20
147.126678
 40
5.508329
 50
63.008423
 51
116.991508
  0
ARC
  8
0
 10
-95.948410
 20
147.126678
 40
5.508329
 50
63.008423
 51
116.991508
  0
ARC
  8
0
 10
-60.948502
 20
-155.273315
 40
5.508324
 50
63.008530
 51
116.991577
  0
ARC
  8
0
 10
-65.948502
 20
-155.273315
 40
5.508324
 50
63.008530
 51
116.991577
  0
ARC
  8
0
 10
-60.948479
 20
-121.856651
 40
5.508328
 50
243.008453
 51
296.991455
  0
ARC
  8
0
 10
-65.948502
 20
-132.873322
 40
5.508331
 50
63.008568
 51
116.991577
  0
ARC
  8
0
 10
-60.948502
 20
-132.873322
 40
5.508331
 50
63.008568
 51
116.991577
  0
ARC
  8
0
 10
-65.948502
 20
-129.273315
 40
5.508331
 50
63.008568
 51
116.991577
  0
ARC
  8
0
 10
-60.948502
 20
-129.273315
 40
5.508331
 50
63.008568
 51
116.991577
  0
ARC
  8
0
 10
-65.948502
 20
-121.856651
 40
5.508326
 50
243.008499
 51
296.991455
  0
ARC
  8
0
 10
-65.948502
 20
-147.856659
 40
5.508326
 50
243.008499
 51
296.991516
  0
ARC
  8
0
 10
-60.948502
 20
-147.856659
 40
5.508328
 50
243.008453
 51
296.991516
  0
CIRCLE
  8
0
 10
169.551559
 20
-32.365017
 40
3.000000
  0
CIRCLE
  8
0
 10
199.551590
 20
31.634985
 40
3.000000
  0
CIRCLE
  8
0
 10
169.551559
 20
-32.365017
 40
2.500000
  0
CIRCLE
  8
0
 10
199.551590
 20
31.634985
 40
2.500000
  0
CIRCLE
  8
0
 10
227.051559
 20
-42.865017
 40
2.750000
  0
CIRCLE
  8
0
 10
142.051559
 20
-42.865017
 40
2.750000
  0
CIRCLE
  8
0
 10
142.051590
 20
42.134983
 40
2.750000
  0
CIRCLE
  8
0
 10
227.051559
 20
42.134983
 40
2.750000
  0
CIRCLE
  8
0
 10
217.051559
 20
-32.865017
 40
2.250000
  0
CIRCLE
  8
0
 10
152.051559
 20
-32.865017
 40
2.250000
  0
CIRCLE
  8
0
 10
152.051590
 20
32.134983
 40
2.250000
  0
CIRCLE
  8
0
 10
217.051559
 20
32.134983
 40
2.250000
  0
CIRCLE
  8
0
 10
184.551559
 20
-42.865017
 40
2.000000
  0
CIRCLE
  8
0
 10
184.551559
 20
-32.865017
 40
2.000000
  0
CIRCLE
  8
0
 10
184.551590
 20
32.134983
 40
2.000000
  0
CIRCLE
  8
0
 10
184.551590
 20
42.134983
 40
2.000000
  0
CIRCLE
  8
0
 10
227.051559
 20
-0.365016
 40
2.000000
  0
CIRCLE
  8
0
 10
217.051559
 20
-0.365016
 40
2.000000
  0
CIRCLE
  8
0
 10
152.051575
 20
-0.365016
 40
2.000000
  0
CIRCLE
  8
0
 10
142.051575
 20
-0.365016
 40
2.000000
  0
CIRCLE
  8
0
 10
167.051590
 20
30.634985
 40
3.250000
  0
CIRCLE
  8
0
 10
179.051590
 20
37.563175
 40
3.250000
  0
CIRCLE
  8
0
 10
179.051559
 20
23.706793
 40
3.250000
  0
CIRCLE
  8
0
 10
179.051590
 20
37.563175
 40
2.750000
  0
CIRCLE
  8
0
 10
179.051559
 20
23.706793
 40
2.750000
  0
CIRCLE
  8
0
 10
167.051590
 20
30.634985
 40
2.750000
  0
CIRCLE
  8
0
 10
190.051559
 20
-38.293209
 40
2.750000
  0
CIRCLE
  8
0
 10
190.051559
 20
-38.293209
 40
3.250000
  0
CIRCLE
  8
0
 10
202.051559
 20
-31.365015
 40
3.250000
  0
CIRCLE
  8
0
 10
202.051559
 20
-31.365015
 40
2.750000
  0
CIRCLE
  8
0
 10
190.051590
 20
-24.436823
 40
3.250000
  0
CIRCLE
  8
0
 10
190.051590
 20
-24.436823
 40
2.750000
  0
CIRCLE
  8
0
 10
194.051559
 20
-31.365015
 40
3.000000
  0
CIRCLE
  8
0
 10
175.051590
 20
30.634985
 40
3.000000
  0
CIRCLE
  8
0
 62
     2
 10
203.551559
 20
-0.365016
 40
1.500000
  0
CIRCLE
  8
0
 62
     2
 10
165.551575
 20
-0.365016
 40
1.500000
  0
CIRCLE
  8
0
 10
165.551575
 20
-0.365016
 40
1.000000
  0
CIRCLE
  8
0
 10
203.551559
 20
-0.365016
 40
1.000000
  0
TEXT
  8
0
 10
174.200241
 20
180.830002
 40
6.300000
  1
DATE: AUG ,1994
 50
0.000000
 41
1.052632
 51
0.000000
  7
STANDARD
  0
TEXT
  8
0
 10
167.564667
 20
-192.100006
 40
9.000000
  1
KOGANEI CORP.
 50
0.000000
 41
1.052632
 51
0.000000
  7
STANDARD
  0
TEXT
  8
0
 10
-269.149719
 20
180.830002
 40
6.300000
  1
HANDLING MODULE
 50
0.000000
 41
1.052632
 51
0.000000
  7
STANDARD
  0
TEXT
  8
0
 10
-270.049713
 20
155.830002
 40
6.300000
  1
MODEL:SHM51L-SS
 50
0.000000
 41
1.052632
 51
0.000000
  7
STANDARD
  0
ENDSEC
  0
EOF
