  0
SECTION
  2
HEADER
  0
ENDSEC
  0
SECTION
  2
TABLES
  0
TABLE
  2
LTYPE
 70
     4
  0
LTYPE
  2
CONTINUOUS
 70
    64
  3
Solid line
 72
    65
 73
     0
 40
0.000000
  0
LTYPE
  2
DASHED
 70
    64
  3
__ __ __ __ __ __ __ __ __ __ __ __ __ __ __
 72
    65
 73
     2
 40
3.500000
 49
2.000000
 49
-1.500000
  0
LTYPE
  2
CENTER
 70
    64
  3
____ _ ____ _ ____ _ ____ _ ____ _ ____ _ ____
 72
    65
 73
     4
 40
17.500000
 49
13.000000
 49
-1.500000
 49
1.500000
 49
-1.500000
  0
LTYPE
  2
PHANTOM
 70
    64
  3
_____ _ _ _____ _ _ _____ _ _ _____ _ _ ____  
 72
    65
 73
     6
 40
15.500000
 49
8.000000
 49
-1.500000
 49
1.500000
 49
-1.500000
 49
1.500000
 49
-1.500000
  0
LTYPE
  2
DASHED1
 70
    64
  3
__ __ __ __ __ __ __ __ __ __ __ __ __ __ __
 72
    65
 73
     2
 40
1.500000
 49
1.000000
 49
-0.500000
  0
LTYPE
  2
DASHED2
 70
    64
  3
__ __ __ __ __ __ __ __ __ __ __ __ __ __ __
 72
    65
 73
     2
 40
3.500000
 49
2.500000
 49
-1.000000
  0
LTYPE
  2
DASHED3
 70
    64
  3
__ __ __ __ __ __ __ __ __ __ __ __ __ __ __
 72
    65
 73
     2
 40
6.000000
 49
4.000000
 49
-2.000000
  0
LTYPE
  2
DASHED4
 70
    64
  3
__ __ __ __ __ __ __ __ __ __ __ __ __ __ __
 72
    65
 73
     2
 40
12.000000
 49
10.000000
 49
-2.000000
  0
LTYPE
  2
DASHED5
 70
    64
  3
__ __ __ __ __ __ __ __ __ __ __ __ __ __ __
 72
    65
 73
     2
 40
17.000000
 49
15.000000
 49
-2.000000
  0
LTYPE
  2
DASHED6
 70
    64
  3
__ __ __ __ __ __ __ __ __ __ __ __ __ __ __
 72
    65
 73
     2
 40
29.000000
 49
27.000000
 49
-2.000000
  0
LTYPE
  2
PHANTOM1
 70
    64
  3
_____ _ _ _____ _ _ _____ _ _ _____ _ _ ____  
 72
    65
 73
     6
 40
31.000000
 49
25.000000
 49
-1.500000
 49
1.000000
 49
-1.000000
 49
1.000000
 49
-1.500000
  0
LTYPE
  2
PHANTOM2
 70
    64
  3
_____ _ _ _____ _ _ _____ _ _ _____ _ _ ____  
 72
    65
 73
     6
 40
36.000000
 49
27.000000
 49
-1.500000
 49
2.500000
 49
-1.000000
 49
2.500000
 49
-1.500000
  0
LTYPE
  2
PHANTOM3
 70
    64
  3
_____ _ _ _____ _ _ _____ _ _ _____ _ _ ____  
 72
    65
 73
     6
 40
78.000000
 49
64.000000
 49
-2.000000
 49
4.000000
 49
-2.000000
 49
4.000000
 49
-2.000000
  0
LTYPE
  2
CENTER1
 70
    64
  3
____ _ ____ _ ____ _ ____ _ ____ _ ____ _ ____
 72
    65
 73
     4
 40
19.000000
 49
14.000000
 49
-1.000000
 49
3.000000
 49
-1.000000
  0
LTYPE
  2
CENTER2
 70
    64
  3
____ _ ____ _ ____ _ ____ _ ____ _ ____ _ ____
 72
    65
 73
     4
 40
28.500000
 49
25.000000
 49
-1.000000
 49
1.500000
 49
-1.000000
  0
LTYPE
  2
CENTER3
 70
    64
  3
____ _ ____ _ ____ _ ____ _ ____ _ ____ _ ____
 72
    65
 73
     4
 40
31.500000
 49
27.000000
 49
-1.000000
 49
2.500000
 49
-1.000000
  0
LTYPE
  2
CENTER4
 70
    64
  3
____ _ ____ _ ____ _ ____ _ ____ _ ____ _ ____
 72
    65
 73
     4
 40
50.000000
 49
45.000000
 49
-1.000000
 49
3.000000
 49
-1.000000
  0
LTYPE
  2
CENTER5
 70
    64
  3
____ _ ____ _ ____ _ ____ _ ____ _ ____ _ ____
 72
    65
 73
     4
 40
100.000000
 49
92.000000
 49
-2.000000
 49
4.000000
 49
-2.000000
  0
LTYPE
  2
SBK1
 70
    64
  3
______ _ _ _ ______ _ _ _ ______ _ _ _ _____  
 72
    65
 73
     8
 40
60.500000
 49
45.000000
 49
-2.000000
 49
2.500000
 49
-2.000000
 49
2.500000
 49
-2.000000
 49
2.500000
 49
-2.000000
  0
LTYPE
  2
SBK2
 70
    64
  3
______ _ _ _ ______ _ _ _ ______ _ _ _ _____  
 72
    65
 73
     8
 40
84.000000
 49
64.000000
 49
-2.000000
 49
4.000000
 49
-2.000000
 49
4.000000
 49
-2.000000
 49
4.000000
 49
-2.000000
  0
LTYPE
  2
STCH
 70
    64
  3
__ __ __ __ __ __ __ __ __ __ __ __ __ __ __
 72
    65
 73
     2
 40
3.000000
 49
1.000000
 49
-2.000000
  0
LTYPE
  2
MTCH
 70
    64
  3
_____ _ _ _____ _ _ _____ _ _ _____ _ _ ____  
 72
    65
 73
     6
 40
80.000000
 49
66.000000
 49
-2.000000
 49
4.000000
 49
-2.000000
 49
4.000000
 49
-2.000000
  0
ENDTAB
  0
TABLE
  2
LAYER
 70
     1
  0
LAYER
  2
0
 70
     0
 62
     7
  6
CONTINUOUS
  0
ENDTAB
  0
TABLE
  2
STYLE
 70
     1
  0
STYLE
  2
STANDARD
 70
     0
 40
0.000000
 41
1.000000
 50
0.000000
 71
     0
 42
0.200000
  3
txt
  4
BIGFONT
  0
ENDTAB
  0
TABLE
  2
VIEW
 70
     0
  0
ENDTAB
  0
ENDSEC
  0
SECTION
  2
BLOCKS
  0
ENDSEC
  0
SECTION
  2
ENTITIES
  0
LINE
  8
0
 10
-194.250000
 20
132.600006
 11
194.800003
 21
132.600006
  0
LINE
  8
0
 10
194.800003
 20
132.600006
 11
194.800003
 21
-133.500000
  0
LINE
  8
0
 10
-194.250000
 20
132.600006
 11
-194.250000
 21
-133.500000
  0
LINE
  8
0
 10
-194.250000
 20
-133.500000
 11
194.800003
 21
-133.500000
  0
LINE
  8
0
 10
109.800003
 20
-118.500000
 11
109.800003
 21
-133.500000
  0
LINE
  8
0
 10
109.800003
 20
-118.500000
 11
194.800003
 21
-118.500000
  0
LINE
  8
0
 10
109.800003
 20
132.600006
 11
109.800003
 21
117.600006
  0
LINE
  8
0
 10
109.800003
 20
117.600006
 11
194.800003
 21
117.600006
  0
LINE
  8
0
 10
-194.250000
 20
117.600006
 11
-109.250000
 21
117.600006
  0
LINE
  8
0
 10
-109.250000
 20
132.600006
 11
-109.250000
 21
117.600006
  0
LINE
  8
0
 10
-30.000008
 20
30.000015
 11
-89.999992
 21
30.000015
  0
LINE
  8
0
 10
-30.000023
 20
-29.999973
 11
-90.000008
 21
-29.999973
  0
LINE
  8
0
 10
-29.999992
 20
-30.000004
 11
-29.999992
 21
-13.000011
  0
LINE
  8
0
 10
-90.000000
 20
-29.999973
 11
-90.000000
 21
-2.999996
  0
LINE
  8
0
 10
-63.000000
 20
24.000011
 11
-63.000000
 21
30.000011
  0
LINE
  8
0
 10
-57.000000
 20
24.000011
 11
-57.000000
 21
30.000011
  0
LINE
  8
0
 10
-26.700005
 20
2.100021
 11
-34.700012
 21
2.100021
  0
LINE
  8
0
 10
-26.700005
 20
11.900024
 11
-30.000008
 21
11.900024
  0
LINE
  8
0
 10
-26.700005
 20
2.099995
 11
-26.700005
 21
11.899982
  0
LINE
  8
0
 10
-22.700005
 20
2.999989
 11
-22.700005
 21
10.999989
  0
LINE
  8
0
 10
-22.700005
 20
3.000031
 11
-26.700005
 21
3.000031
  0
LINE
  8
0
 10
-22.700005
 20
11.000015
 11
-26.700005
 21
11.000015
  0
LINE
  8
0
 10
-21.700005
 20
2.999989
 11
-21.700005
 21
10.999989
  0
LINE
  8
0
 10
-19.700005
 20
2.999989
 11
-19.700005
 21
10.999989
  0
LINE
  8
0
 10
-19.700005
 20
11.000015
 11
-21.700005
 21
11.000015
  0
LINE
  8
0
 10
-19.700005
 20
3.000031
 11
-21.700005
 21
3.000031
  0
LINE
  8
0
 10
-21.700005
 20
9.500015
 11
-22.700005
 21
9.500015
  0
LINE
  8
0
 10
-21.700005
 20
4.500031
 11
-22.700005
 21
4.500031
  0
LINE
  8
0
 10
-17.300011
 20
5.500015
 11
-19.700005
 21
5.500015
  0
LINE
  8
0
 10
-17.300011
 20
8.500015
 11
-19.700005
 21
8.500015
  0
LINE
  8
0
 10
-17.300011
 20
4.499989
 11
-17.300011
 21
9.499989
  0
LINE
  8
0
 10
-12.300011
 20
9.500015
 11
-17.300011
 21
9.500015
  0
LINE
  8
0
 10
-12.300011
 20
4.500031
 11
-17.300011
 21
4.500031
  0
LINE
  8
0
 10
-12.300011
 20
4.499989
 11
-12.300011
 21
9.499989
  0
LINE
  8
0
 10
-90.000008
 20
13.000000
 11
-76.000008
 21
13.000000
  0
LINE
  8
0
 10
-90.000008
 20
-3.000000
 11
-76.000008
 21
-3.000000
  0
LINE
  8
0
 10
-76.000015
 20
13.000011
 11
-76.000015
 21
-2.999989
  0
LINE
  8
0
 62
     4
 10
-87.000008
 20
5.000000
 11
-81.000023
 21
5.000000
  0
LINE
  8
0
 62
     4
 10
-87.000008
 20
-2.000000
 11
-76.000008
 21
-2.000000
  0
LINE
  8
0
 10
-81.000015
 20
13.000011
 11
-81.000015
 21
10.999996
  0
LINE
  8
0
 62
     4
 10
-87.000015
 20
5.000011
 11
-87.000015
 21
-1.999989
  0
LINE
  8
0
 62
     4
 10
-89.000008
 20
4.000000
 11
-87.000008
 21
4.000000
  0
LINE
  8
0
 62
     4
 10
-89.000008
 20
-1.000000
 11
-87.000008
 21
-1.000000
  0
LINE
  8
0
 62
     4
 10
-89.000015
 20
4.000011
 11
-89.000015
 21
-0.999989
  0
LINE
  8
0
 62
     4
 10
-96.797752
 20
3.000000
 11
-89.000008
 21
3.000000
  0
LINE
  8
0
 62
     4
 10
-95.065697
 20
0.000000
 11
-89.000008
 21
0.000000
  0
LINE
  8
0
 10
-77.100014
 20
11.799999
 11
-77.100014
 21
6.199993
  0
LINE
  8
0
 62
     4
 10
-77.800011
 20
11.800014
 11
-77.800011
 21
6.200008
  0
LINE
  8
0
 10
-79.900024
 20
6.199997
 11
-77.100006
 21
6.199997
  0
LINE
  8
0
 10
-79.900024
 20
11.800003
 11
-77.100006
 21
11.800003
  0
LINE
  8
0
 62
     4
 10
-89.700020
 20
11.800003
 11
-86.000008
 21
11.800003
  0
LINE
  8
0
 62
     4
 10
-86.700012
 20
11.800014
 11
-86.700012
 21
6.200008
  0
LINE
  8
0
 62
     4
 10
-89.700020
 20
6.199997
 11
-86.000008
 21
6.199997
  0
LINE
  8
0
 10
-81.000008
 20
7.000000
 11
-79.900024
 21
7.000000
  0
LINE
  8
0
 10
-81.000008
 20
11.000000
 11
-79.900024
 21
11.000000
  0
LINE
  8
0
 10
-79.900017
 20
11.799999
 11
-79.900017
 21
10.999996
  0
LINE
  8
0
 62
     4
 10
-86.000015
 20
13.000011
 11
-86.000015
 21
5.000011
  0
LINE
  8
0
  6
CENTER
 62
     2
 10
-105.920532
 20
0.000000
 11
-12.652855
 21
0.000000
  0
LINE
  8
0
 10
-29.999992
 20
2.999989
 11
-29.999992
 21
29.999989
  0
LINE
  8
0
 10
-90.000000
 20
13.000004
 11
-90.000000
 21
30.000019
  0
LINE
  8
0
 10
-30.000008
 20
-12.999969
 11
-44.000015
 21
-12.999969
  0
LINE
  8
0
 10
-30.000008
 20
3.000031
 11
-44.000008
 21
3.000031
  0
LINE
  8
0
 10
-44.000000
 20
-13.000004
 11
-44.000000
 21
2.999996
  0
LINE
  8
0
 62
     4
 10
-33.000008
 20
-4.999969
 11
-38.999992
 21
-4.999969
  0
LINE
  8
0
 62
     4
 10
-33.000008
 20
2.000031
 11
-44.000008
 21
2.000031
  0
LINE
  8
0
 10
-39.000000
 20
-13.000004
 11
-39.000000
 21
-11.000004
  0
LINE
  8
0
 62
     4
 10
-33.000000
 20
-5.000004
 11
-33.000000
 21
1.999996
  0
LINE
  8
0
 62
     4
 10
-31.000008
 20
-3.999969
 11
-33.000008
 21
-3.999969
  0
LINE
  8
0
 62
     4
 10
-31.000008
 20
1.000031
 11
-33.000008
 21
1.000031
  0
LINE
  8
0
 62
     4
 10
-30.999992
 20
-4.000004
 11
-30.999992
 21
0.999996
  0
LINE
  8
0
 62
     4
 10
-18.877296
 20
-2.999969
 11
-31.000008
 21
-2.999969
  0
LINE
  8
0
 62
     4
 10
-20.609337
 20
0.000031
 11
-31.000008
 21
0.000031
  0
LINE
  8
0
 10
-42.900002
 20
-11.799992
 11
-42.900002
 21
-6.199986
  0
LINE
  8
0
 10
-40.099998
 20
-11.799992
 11
-40.099998
 21
-11.000004
  0
LINE
  8
0
 62
     4
 10
-42.200005
 20
-11.799992
 11
-42.200005
 21
-6.199986
  0
LINE
  8
0
 10
-40.100006
 20
-6.199982
 11
-42.900009
 21
-6.199982
  0
LINE
  8
0
 10
-40.100006
 20
-11.799988
 11
-42.900009
 21
-11.799988
  0
LINE
  8
0
 62
     4
 10
-30.300011
 20
-11.799988
 11
-34.000008
 21
-11.799988
  0
LINE
  8
0
 62
     4
 10
-33.300003
 20
-11.800007
 11
-33.300003
 21
-6.200001
  0
LINE
  8
0
 62
     4
 10
-30.300011
 20
-6.199982
 11
-34.000008
 21
-6.199982
  0
LINE
  8
0
 10
-39.000008
 20
-6.999969
 11
-40.100006
 21
-6.999969
  0
LINE
  8
0
 10
-39.000008
 20
-10.999969
 11
-40.100006
 21
-10.999969
  0
LINE
  8
0
 62
     4
 10
-34.000000
 20
-13.000004
 11
-34.000000
 21
-5.000004
  0
LINE
  8
0
 62
     4
 10
-30.300011
 20
-11.800007
 11
-30.300011
 21
-6.200001
  0
LINE
  8
0
 62
     4
 10
-89.700012
 20
11.800014
 11
-89.700012
 21
6.200008
  0
LINE
  8
0
 10
-34.700005
 20
2.100002
 11
-34.700005
 21
2.999996
  0
LINE
  8
0
 10
-81.000023
 20
5.000000
 11
-76.000008
 21
5.000000
  0
LINE
  8
0
 10
-81.000015
 20
6.999996
 11
-81.000015
 21
5.000011
  0
LINE
  8
0
 10
-39.000000
 20
-7.000004
 11
-39.000000
 21
-5.000004
  0
LINE
  8
0
 10
-39.000008
 20
-4.999969
 11
-44.000008
 21
-4.999969
  0
LINE
  8
0
 10
-40.099998
 20
-7.000004
 11
-40.099998
 21
-6.200001
  0
LINE
  8
0
 10
-79.900017
 20
6.999996
 11
-79.900017
 21
6.199993
  0
LINE
  8
0
  6
CENTER
 62
     2
 10
-60.000000
 20
-32.705143
 11
-60.000000
 21
33.623837
  0
LINE
  8
0
  6
CENTER
 62
     2
 10
-35.000008
 20
29.000004
 11
-35.000008
 21
21.000004
  0
LINE
  8
0
  6
CENTER
 62
     2
 10
-35.000015
 20
-21.000004
 11
-35.000015
 21
-29.000004
  0
LINE
  8
0
  6
CENTER
 62
     2
 10
-85.000015
 20
-20.999973
 11
-85.000015
 21
-28.999973
  0
LINE
  8
0
  6
CENTER
 62
     2
 10
-85.000008
 20
29.000019
 11
-85.000008
 21
21.000019
  0
LINE
  8
0
  6
CENTER
 62
     2
 10
-80.999992
 20
25.000023
 11
-88.999992
 21
25.000023
  0
LINE
  8
0
  6
CENTER
 62
     2
 10
-81.000008
 20
-24.999973
 11
-89.000008
 21
-24.999973
  0
LINE
  8
0
  6
CENTER
 62
     2
 10
-56.000015
 20
-24.999989
 11
-64.000015
 21
-24.999989
  0
LINE
  8
0
  6
CENTER
 62
     2
 10
-31.000008
 20
-25.000004
 11
-39.000008
 21
-25.000004
  0
LINE
  8
0
  6
CENTER
 62
     2
 10
-30.999992
 20
25.000008
 11
-38.999992
 21
25.000008
  0
LINE
  8
0
 62
     1
 10
-97.260429
 20
3.801346
 11
-94.365601
 21
-1.212645
  0
LINE
  8
0
 62
     1
 10
-21.436270
 20
1.432293
 11
-18.340719
 21
-3.929358
  0
LINE
  8
0
 10
-145.065887
 20
30.199963
 11
-145.065887
 21
-29.800030
  0
LINE
  8
0
  6
CENTER
 62
     2
 10
-142.140793
 20
0.000008
 11
-182.726395
 21
0.000008
  0
LINE
  8
0
 10
-166.065887
 20
30.199947
 11
-166.065887
 21
22.199947
  0
LINE
  8
0
 10
-172.065887
 20
30.199940
 11
-172.065887
 21
-29.800060
  0
LINE
  8
0
 10
-174.065887
 20
30.199940
 11
-174.065887
 21
-29.800060
  0
LINE
  8
0
 10
-180.065887
 20
30.199940
 11
-180.065887
 21
-29.800060
  0
LINE
  8
0
 10
-145.065887
 20
30.199982
 11
-172.065872
 21
30.199982
  0
LINE
  8
0
 10
-145.065857
 20
-29.800022
 11
-172.065842
 21
-29.800022
  0
LINE
  8
0
 10
-174.065872
 20
30.199982
 11
-180.065872
 21
30.199982
  0
LINE
  8
0
 10
-174.065842
 20
-29.800022
 11
-180.065857
 21
-29.800022
  0
LINE
  8
0
 10
-166.065887
 20
30.199947
 11
-166.065887
 21
13.999958
  0
LINE
  8
0
 62
     4
 10
-146.065857
 20
-0.999992
 11
-168.065872
 21
-0.999992
  0
LINE
  8
0
 62
     4
 10
-146.065887
 20
5.999973
 11
-146.065887
 21
-1.000027
  0
LINE
  8
0
 10
-166.065872
 20
14.000008
 11
-172.065872
 21
14.000008
  0
LINE
  8
0
 62
     4
 10
-152.565887
 20
14.499973
 11
-152.565887
 21
5.999973
  0
LINE
  8
0
 62
     4
 10
-161.565887
 20
14.499958
 11
-161.565887
 21
5.999958
  0
LINE
  8
0
 62
     4
 10
-152.565872
 20
14.500008
 11
-161.565872
 21
14.500008
  0
LINE
  8
0
 10
-161.565903
 20
14.000008
 11
-172.065872
 21
14.000008
  0
LINE
  8
0
 10
-145.065872
 20
8.299995
 11
-146.141006
 21
8.299995
  0
LINE
  8
0
 10
-145.065857
 20
11.699989
 11
-146.141006
 21
11.699989
  0
LINE
  8
0
 10
-161.565903
 20
11.699989
 11
-166.541000
 21
11.699989
  0
LINE
  8
0
 10
-161.565903
 20
8.299995
 11
-166.541000
 21
8.299995
  0
LINE
  8
0
 10
-170.990723
 20
11.699989
 11
-172.065872
 21
11.699989
  0
LINE
  8
0
 10
-170.990738
 20
8.299995
 11
-172.065872
 21
8.299995
  0
LINE
  8
0
 10
-156.065872
 20
23.699982
 11
-162.865875
 21
23.699982
  0
LINE
  8
0
 10
-156.065872
 20
19.699989
 11
-166.065872
 21
19.699989
  0
LINE
  8
0
 62
     2
 10
-156.065872
 20
23.199982
 11
-162.865875
 21
23.199982
  0
LINE
  8
0
 62
     2
 10
-156.065872
 20
20.199989
 11
-166.065872
 21
20.199989
  0
LINE
  8
0
 10
-172.065872
 20
23.749969
 11
-173.065872
 21
23.749969
  0
LINE
  8
0
 10
-172.065857
 20
-24.300022
 11
-174.065857
 21
-24.300022
  0
LINE
  8
0
 10
-172.065857
 20
-27.300022
 11
-174.065857
 21
-27.300022
  0
LINE
  8
0
 10
-145.065857
 20
14.000008
 11
-152.565903
 21
14.000008
  0
LINE
  8
0
 10
-150.628067
 20
11.650002
 11
-152.565903
 21
11.650002
  0
LINE
  8
0
 10
-150.628067
 20
8.350014
 11
-152.565903
 21
8.350014
  0
LINE
  8
0
 10
-145.065872
 20
6.000008
 11
-172.065872
 21
6.000008
  0
LINE
  8
0
 10
-145.065857
 20
-1.999992
 11
-172.065872
 21
-1.999992
  0
LINE
  8
0
 10
-161.065887
 20
28.199955
 11
-161.065887
 21
24.199955
  0
LINE
  8
0
 10
-162.865906
 20
22.649929
 11
-162.865906
 21
29.749935
  0
LINE
  8
0
 10
-162.865814
 20
29.750017
 11
-163.154495
 21
30.250029
  0
LINE
  8
0
 10
-163.154556
 20
30.250000
 11
-165.777206
 21
30.250000
  0
LINE
  8
0
 10
-163.154556
 20
28.250000
 11
-165.777206
 21
28.250000
  0
LINE
  8
0
 10
-161.065872
 20
24.199982
 11
-162.865875
 21
24.199982
  0
LINE
  8
0
 10
-161.065872
 20
28.199982
 11
-162.865875
 21
28.199982
  0
LINE
  8
0
 62
     2
 10
-161.065872
 20
24.699982
 11
-162.865875
 21
24.699982
  0
LINE
  8
0
 62
     2
 10
-161.065872
 20
27.699982
 11
-162.865875
 21
27.699982
  0
LINE
  8
0
 10
-163.154556
 20
24.149994
 11
-165.777206
 21
24.149994
  0
LINE
  8
0
 10
-163.154587
 20
22.150021
 11
-162.865906
 21
22.650030
  0
LINE
  8
0
 10
-163.154556
 20
22.149994
 11
-165.777206
 21
22.149994
  0
LINE
  8
0
 10
-165.777176
 20
22.149982
 11
-166.065857
 21
22.649994
  0
LINE
  8
0
 10
-166.065918
 20
29.749969
 11
-165.777237
 21
30.249979
  0
LINE
  8
0
 10
-151.065887
 20
30.199955
 11
-151.065887
 21
13.999973
  0
LINE
  8
0
 10
-151.065887
 20
-2.000027
 11
-151.065887
 21
-29.800030
  0
LINE
  8
0
 10
-172.065872
 20
-2.999992
 11
-174.065872
 21
-2.999992
  0
LINE
  8
0
 10
-172.065872
 20
3.000008
 11
-174.065872
 21
3.000008
  0
LINE
  8
0
 10
-172.065903
 20
-6.800011
 11
-174.065872
 21
-6.800011
  0
LINE
  8
0
 10
-151.065918
 20
25.750000
 11
-154.065872
 21
25.750000
  0
LINE
  8
0
 10
-151.065918
 20
23.750000
 11
-154.065872
 21
23.750000
  0
LINE
  8
0
 10
-151.065903
 20
19.650002
 11
-154.065872
 21
19.650002
  0
LINE
  8
0
 10
-151.065903
 20
17.650002
 11
-154.065872
 21
17.650002
  0
LINE
  8
0
 10
-154.065887
 20
17.449986
 11
-154.065887
 21
25.949986
  0
LINE
  8
0
 10
-154.065872
 20
25.950012
 11
-156.065872
 21
25.950012
  0
LINE
  8
0
 10
-156.065887
 20
17.449986
 11
-156.065887
 21
25.949986
  0
LINE
  8
0
 10
-154.065872
 20
17.450020
 11
-156.065872
 21
17.450020
  0
LINE
  8
0
 10
-173.065872
 20
29.199982
 11
-174.065872
 21
29.199982
  0
LINE
  8
0
 10
-173.065872
 20
23.199982
 11
-174.065872
 21
23.199982
  0
LINE
  8
0
 10
-173.065887
 20
29.199940
 11
-173.065887
 21
23.199940
  0
LINE
  8
0
 10
-172.065872
 20
28.199982
 11
-173.065872
 21
28.199982
  0
LINE
  8
0
 62
     4
 10
-156.337555
 20
11.250008
 11
-157.794174
 21
11.250008
  0
LINE
  8
0
 62
     4
 10
-156.337570
 20
8.750008
 11
-157.794174
 21
8.750008
  0
LINE
  8
0
 62
     4
 10
-155.615875
 20
9.999998
 11
-156.337570
 21
8.749987
  0
LINE
  8
0
 62
     4
 10
-157.794205
 20
11.250064
 11
-158.515900
 21
10.000051
  0
LINE
  8
0
 62
     4
 10
-158.515839
 20
9.999987
 11
-157.794144
 21
8.749988
  0
LINE
  8
0
 62
     4
 10
-156.337509
 20
11.249963
 11
-155.615814
 21
9.999963
  0
LINE
  8
0
 10
-151.065857
 20
-25.800022
 11
-172.065857
 21
-25.800022
  0
LINE
  8
0
 10
-170.038620
 20
11.272797
 11
-167.493027
 21
8.727207
  0
LINE
  8
0
 10
-167.493134
 20
11.272792
 11
-170.038727
 21
8.727204
  0
LINE
  8
0
 10
-149.638596
 20
11.272818
 11
-147.093018
 21
8.727227
  0
LINE
  8
0
 10
-147.093109
 20
11.272782
 11
-149.638702
 21
8.727194
  0
LINE
  8
0
 62
     2
 10
-172.065872
 20
20.199989
 11
-174.065872
 21
20.199989
  0
LINE
  8
0
 10
-172.065872
 20
19.699989
 11
-174.065872
 21
19.699989
  0
LINE
  8
0
  6
CENTER
 62
     2
 10
-142.140808
 20
25.000000
 11
-152.868881
 21
25.000000
  0
LINE
  8
0
  6
CENTER
 62
     2
 10
-142.140778
 20
-25.000004
 11
-153.719864
 21
-25.000004
  0
LINE
  8
0
  6
CENTER
 62
     2
 10
-169.402969
 20
25.000000
 11
-182.726410
 21
25.000000
  0
LINE
  8
0
  6
CENTER
 62
     2
 10
-169.159775
 20
-25.000004
 11
-182.726364
 21
-25.000004
  0
LINE
  8
0
 62
     4
 10
-168.065857
 20
-1.000011
 11
-168.065857
 21
5.999989
  0
LINE
  8
0
 10
28.455940
 20
-30.199978
 11
28.455940
 21
29.800022
  0
LINE
  8
0
  6
CENTER
 62
     2
 10
25.530830
 20
0.000008
 11
66.116432
 21
0.000008
  0
LINE
  8
0
 10
49.455940
 20
-30.199963
 11
49.455940
 21
-22.199963
  0
LINE
  8
0
 10
55.455940
 20
-30.199947
 11
55.455940
 21
4.060963
  0
LINE
  8
0
 10
57.455940
 20
-30.199947
 11
57.455940
 21
29.800045
  0
LINE
  8
0
 10
63.455940
 20
-30.199947
 11
63.455940
 21
29.800053
  0
LINE
  8
0
 10
28.455925
 20
-30.199986
 11
55.455925
 21
-30.199986
  0
LINE
  8
0
 10
28.455894
 20
29.800026
 11
55.455894
 21
29.800026
  0
LINE
  8
0
 10
57.455925
 20
-30.199986
 11
63.455925
 21
-30.199986
  0
LINE
  8
0
 10
57.455894
 20
29.800026
 11
63.455894
 21
29.800026
  0
LINE
  8
0
 10
49.455940
 20
-30.199963
 11
49.455940
 21
-13.999981
  0
LINE
  8
0
 62
     4
 10
33.455910
 20
1.000008
 11
55.455910
 21
1.000008
  0
LINE
  8
0
 62
     4
 10
33.455940
 20
-5.999989
 11
33.455940
 21
1.000004
  0
LINE
  8
0
 10
49.455910
 20
-13.999992
 11
55.455910
 21
-13.999992
  0
LINE
  8
0
 62
     4
 10
39.955940
 20
-14.499989
 11
39.955940
 21
-5.999989
  0
LINE
  8
0
 62
     4
 10
48.955940
 20
-14.499981
 11
48.955940
 21
-5.999981
  0
LINE
  8
0
 62
     4
 10
39.955910
 20
-14.499992
 11
48.955910
 21
-14.499992
  0
LINE
  8
0
 10
48.955910
 20
-13.999992
 11
55.455910
 21
-13.999992
  0
LINE
  8
0
 10
28.455910
 20
-8.299980
 11
29.531044
 21
-8.299980
  0
LINE
  8
0
 10
28.455910
 20
-11.699974
 11
29.531044
 21
-11.699974
  0
LINE
  8
0
 10
48.955910
 20
-11.699974
 11
49.931038
 21
-11.699974
  0
LINE
  8
0
 10
48.955910
 20
-8.299980
 11
49.931053
 21
-8.299980
  0
LINE
  8
0
 10
54.380775
 20
-11.699974
 11
55.455910
 21
-11.699974
  0
LINE
  8
0
 10
54.380775
 20
-8.299980
 11
55.455910
 21
-8.299980
  0
LINE
  8
0
 10
39.455910
 20
-23.699970
 11
46.255928
 21
-23.699970
  0
LINE
  8
0
 10
39.455910
 20
-19.699970
 11
49.455910
 21
-19.699970
  0
LINE
  8
0
 62
     2
 10
39.455910
 20
-23.199970
 11
46.255928
 21
-23.199970
  0
LINE
  8
0
 62
     2
 10
39.455910
 20
-20.199970
 11
49.455910
 21
-20.199970
  0
LINE
  8
0
 10
55.455910
 20
-23.749958
 11
56.455910
 21
-23.749958
  0
LINE
  8
0
 10
35.555901
 20
20.700020
 11
45.555901
 21
20.700020
  0
LINE
  8
0
 10
46.055916
 20
20.700020
 11
55.855904
 21
20.700020
  0
LINE
  8
0
 10
46.705940
 20
8.438770
 11
46.705940
 21
18.200031
  0
LINE
  8
0
 10
55.205940
 20
8.438770
 11
55.205940
 21
18.200031
  0
LINE
  8
0
 10
36.205940
 20
8.438763
 11
36.205940
 21
18.200024
  0
LINE
  8
0
 10
44.705940
 20
8.438770
 11
44.705940
 21
18.200031
  0
LINE
  8
0
 10
46.055931
 20
19.200031
 11
46.055931
 21
20.700031
  0
LINE
  8
0
 10
55.855934
 20
19.200031
 11
55.855934
 21
20.700031
  0
LINE
  8
0
 10
35.555916
 20
19.200020
 11
45.555916
 21
19.200020
  0
LINE
  8
0
 10
46.055916
 20
19.200020
 11
55.855904
 21
19.200020
  0
LINE
  8
0
 10
36.205910
 20
18.200020
 11
44.705910
 21
18.200020
  0
LINE
  8
0
 10
35.555931
 20
19.200016
 11
35.555931
 21
20.700016
  0
LINE
  8
0
 10
36.205910
 20
17.200020
 11
44.705910
 21
17.200020
  0
LINE
  8
0
 10
37.205940
 20
18.200024
 11
37.205940
 21
19.200024
  0
LINE
  8
0
 10
43.705940
 20
18.200031
 11
43.705940
 21
19.200031
  0
LINE
  8
0
 10
46.705910
 20
18.200020
 11
55.205910
 21
18.200020
  0
LINE
  8
0
 10
46.705910
 20
17.200020
 11
55.205910
 21
17.200020
  0
LINE
  8
0
 10
47.705940
 20
18.200031
 11
47.705940
 21
19.200031
  0
LINE
  8
0
 10
54.205940
 20
18.200031
 11
54.205940
 21
19.200031
  0
LINE
  8
0
 10
55.455910
 20
24.300026
 11
57.455910
 21
24.300026
  0
LINE
  8
0
 10
55.455910
 20
27.300026
 11
57.455910
 21
27.300026
  0
LINE
  8
0
 10
28.455910
 20
-13.999992
 11
39.955910
 21
-13.999992
  0
LINE
  8
0
 10
34.018105
 20
-11.649986
 11
39.955910
 21
-11.649986
  0
LINE
  8
0
 10
34.018105
 20
-8.349998
 11
39.955910
 21
-8.349998
  0
LINE
  8
0
 10
28.455910
 20
-5.999992
 11
55.455910
 21
-5.999992
  0
LINE
  8
0
 10
28.455910
 20
2.000008
 11
37.625710
 21
2.000008
  0
LINE
  8
0
 10
44.455940
 20
-28.199970
 11
44.455940
 21
-24.199970
  0
LINE
  8
0
 10
46.255928
 20
-22.649944
 11
46.255928
 21
-29.749950
  0
LINE
  8
0
 10
46.255795
 20
-29.750044
 11
46.544476
 21
-30.250053
  0
LINE
  8
0
 10
46.544594
 20
-30.250004
 11
49.167244
 21
-30.250004
  0
LINE
  8
0
 10
46.544594
 20
-28.249989
 11
49.167244
 21
-28.249989
  0
LINE
  8
0
 10
44.455910
 20
-24.199970
 11
46.255928
 21
-24.199970
  0
LINE
  8
0
 10
44.455925
 20
-28.199970
 11
46.255928
 21
-28.199970
  0
LINE
  8
0
 62
     2
 10
44.455910
 20
-24.699970
 11
46.255928
 21
-24.699970
  0
LINE
  8
0
 62
     2
 10
44.455925
 20
-27.699970
 11
46.255928
 21
-27.699970
  0
LINE
  8
0
 10
46.544594
 20
-24.149982
 11
49.167244
 21
-24.149982
  0
LINE
  8
0
 10
46.544746
 20
-22.150070
 11
46.256065
 21
-22.650080
  0
LINE
  8
0
 10
46.544594
 20
-22.149982
 11
49.167244
 21
-22.149982
  0
LINE
  8
0
 10
49.167171
 20
-22.150021
 11
49.455853
 21
-22.650030
  0
LINE
  8
0
 10
49.456059
 20
-29.750042
 11
49.167377
 21
-30.250051
  0
LINE
  8
0
 10
34.455940
 20
-30.199978
 11
34.455940
 21
-13.999989
  0
LINE
  8
0
 10
34.455940
 20
2.000004
 11
34.455940
 21
29.800022
  0
LINE
  8
0
 10
55.455910
 20
3.000008
 11
57.455910
 21
3.000008
  0
LINE
  8
0
 10
55.455910
 20
-2.999992
 11
57.455910
 21
-2.999992
  0
LINE
  8
0
 10
43.286110
 20
2.000008
 11
48.125710
 21
2.000008
  0
LINE
  8
0
 10
53.786110
 20
2.000008
 11
55.455910
 21
2.000008
  0
LINE
  8
0
 10
55.455940
 20
7.939106
 11
55.455940
 21
19.200031
  0
LINE
  8
0
 10
55.455940
 20
20.700031
 11
55.455940
 21
29.800037
  0
LINE
  8
0
 10
55.790169
 20
6.800026
 11
57.455910
 21
6.800026
  0
LINE
  8
0
 10
34.455971
 20
-25.749989
 11
37.455910
 21
-25.749989
  0
LINE
  8
0
 10
34.455971
 20
-23.749989
 11
37.455910
 21
-23.749989
  0
LINE
  8
0
 10
34.455956
 20
-19.649982
 11
37.455910
 21
-19.649982
  0
LINE
  8
0
 10
34.455956
 20
-17.649982
 11
37.455910
 21
-17.649982
  0
LINE
  8
0
 10
37.455940
 20
-17.450001
 11
37.455940
 21
-25.950001
  0
LINE
  8
0
 10
37.455910
 20
-25.950001
 11
39.455910
 21
-25.950001
  0
LINE
  8
0
 10
39.455940
 20
-17.450001
 11
39.455940
 21
-25.950001
  0
LINE
  8
0
 10
37.455910
 20
-17.450001
 11
39.455910
 21
-17.450001
  0
LINE
  8
0
 10
56.455925
 20
-29.199986
 11
57.455925
 21
-29.199986
  0
LINE
  8
0
 10
56.455910
 20
-23.199970
 11
57.455910
 21
-23.199970
  0
LINE
  8
0
 10
56.455940
 20
-29.199947
 11
56.455940
 21
-23.199955
  0
LINE
  8
0
 10
55.455925
 20
-28.199970
 11
56.455925
 21
-28.199970
  0
LINE
  8
0
 62
     4
 10
43.727608
 20
-11.249992
 11
45.184212
 21
-11.249992
  0
LINE
  8
0
 62
     4
 10
43.727608
 20
-8.749992
 11
45.184227
 21
-8.749992
  0
LINE
  8
0
 62
     4
 10
43.006016
 20
-10.000048
 11
43.727711
 21
-8.750035
  0
LINE
  8
0
 62
     4
 10
45.184361
 20
-11.250095
 11
45.906052
 21
-10.000090
  0
LINE
  8
0
 62
     4
 10
45.905819
 20
-10.000029
 11
45.184135
 21
-8.750030
  0
LINE
  8
0
 62
     4
 10
43.727505
 20
-11.250032
 11
43.005817
 21
-10.000033
  0
LINE
  8
0
 10
45.555931
 20
19.200031
 11
45.555931
 21
20.700031
  0
LINE
  8
0
 10
34.455910
 20
25.800026
 11
55.455910
 21
25.800026
  0
LINE
  8
0
 10
53.428654
 20
-11.272834
 11
50.883064
 21
-8.727244
  0
LINE
  8
0
 10
50.883202
 20
-11.272825
 11
53.428791
 21
-8.727237
  0
LINE
  8
0
 10
33.028629
 20
-11.272837
 11
30.483040
 21
-8.727247
  0
LINE
  8
0
 10
30.483181
 20
-11.272824
 11
33.028759
 21
-8.727246
  0
LINE
  8
0
 62
     2
 10
55.455910
 20
-20.199970
 11
57.455910
 21
-20.199970
  0
LINE
  8
0
 10
55.455910
 20
-19.699970
 11
57.455910
 21
-19.699970
  0
LINE
  8
0
  6
CENTER
 62
     2
 10
25.530861
 20
-24.999989
 11
36.258919
 21
-24.999989
  0
LINE
  8
0
  6
CENTER
 62
     2
 10
25.530830
 20
25.000008
 11
37.109901
 21
25.000008
  0
LINE
  8
0
  6
CENTER
 62
     2
 10
52.793007
 20
-24.999989
 11
66.116447
 21
-24.999989
  0
LINE
  8
0
  6
CENTER
 62
     2
 10
52.549828
 20
25.000008
 11
66.116417
 21
25.000008
  0
LINE
  8
0
 10
-29.999992
 20
75.000000
 11
-89.999992
 21
75.000000
  0
LINE
  8
0
  6
CENTER
 62
     2
 10
-60.000000
 20
70.426651
 11
-60.000000
 21
115.267952
  0
LINE
  8
0
 10
-38.299988
 20
102.000000
 11
-80.999985
 21
102.000000
  0
LINE
  8
0
 10
-29.999992
 20
74.999985
 11
-29.999992
 21
80.999985
  0
LINE
  8
0
 10
-90.000000
 20
75.000000
 11
-90.000000
 21
81.000000
  0
LINE
  8
0
 10
-29.999992
 20
81.000000
 11
-43.999985
 21
81.000000
  0
LINE
  8
0
 10
-63.500000
 20
81.000000
 11
-63.500000
 21
96.000000
  0
LINE
  8
0
 10
-63.499992
 20
81.000000
 11
-89.999992
 21
81.000000
  0
LINE
  8
0
 10
-71.500000
 20
86.000000
 11
-71.500000
 21
96.000000
  0
LINE
  8
0
 10
-67.500000
 20
86.000000
 11
-67.500000
 21
96.000000
  0
LINE
  8
0
 62
     2
 10
-71.000000
 20
86.000000
 11
-71.000000
 21
96.000000
  0
LINE
  8
0
 62
     2
 10
-68.000000
 20
86.000000
 11
-68.000000
 21
96.000000
  0
LINE
  8
0
 10
-40.000000
 20
80.999985
 11
-40.000000
 21
101.999985
  0
LINE
  8
0
 10
-63.499992
 20
96.000000
 11
-79.999985
 21
96.000000
  0
LINE
  8
0
 62
     4
 10
-87.000000
 20
81.000000
 11
-87.000000
 21
84.250000
  0
LINE
  8
0
 10
-80.000000
 20
96.000000
 11
-80.000000
 21
102.000000
  0
LINE
  8
0
 10
-38.299995
 20
83.000000
 11
-39.999992
 21
83.000000
  0
LINE
  8
0
 10
-38.299988
 20
91.000000
 11
-39.999985
 21
91.000000
  0
LINE
  8
0
 10
-38.300003
 20
82.099983
 11
-38.300003
 21
91.899986
  0
LINE
  8
0
 62
     4
 10
-80.999985
 20
98.000000
 11
-86.999985
 21
98.000000
  0
LINE
  8
0
 10
-76.000000
 20
81.000000
 11
-76.000000
 21
91.000000
  0
LINE
  8
0
 62
     4
 10
-86.999985
 20
90.500000
 11
-88.999992
 21
90.500000
  0
LINE
  8
0
 62
     4
 10
-86.999985
 20
95.500000
 11
-88.999985
 21
95.500000
  0
LINE
  8
0
 62
     4
 10
-88.999985
 20
91.300003
 11
-94.834740
 21
91.300003
  0
LINE
  8
0
 62
     4
 10
-88.999985
 20
94.700005
 11
-96.797737
 21
94.700005
  0
LINE
  8
0
 62
     4
 10
-89.000000
 20
90.500000
 11
-89.000000
 21
95.500000
  0
LINE
  8
0
 10
-81.000000
 20
81.000000
 11
-81.000000
 21
102.000000
  0
LINE
  8
0
 62
     4
 10
-80.999985
 20
82.500000
 11
-85.999985
 21
82.500000
  0
LINE
  8
0
 62
     4
 10
-80.999985
 20
91.500000
 11
-85.999985
 21
91.500000
  0
LINE
  8
0
 62
     4
 10
-86.000000
 20
82.500000
 11
-86.000000
 21
91.500000
  0
LINE
  8
0
 62
     4
 10
-85.999985
 20
84.250000
 11
-89.499992
 21
84.250000
  0
LINE
  8
0
 62
     4
 10
-85.999985
 20
89.750000
 11
-89.499992
 21
89.750000
  0
LINE
  8
0
 62
     4
 10
-86.500000
 20
84.250000
 11
-86.500000
 21
89.750000
  0
LINE
  8
0
 62
     4
 10
-87.000000
 20
89.750000
 11
-87.000000
 21
98.000000
  0
LINE
  8
0
 10
-75.000000
 20
102.000000
 11
-75.000000
 21
103.000000
  0
LINE
  8
0
 10
-79.000000
 20
102.000000
 11
-79.000000
 21
103.000000
  0
LINE
  8
0
 10
-65.449997
 20
81.000000
 11
-65.449997
 21
84.000000
  0
LINE
  8
0
 10
-67.449997
 20
81.000000
 11
-67.449997
 21
84.000000
  0
LINE
  8
0
 10
-71.550003
 20
81.000000
 11
-71.550003
 21
84.000000
  0
LINE
  8
0
 10
-73.550003
 20
81.000000
 11
-73.550003
 21
84.000000
  0
LINE
  8
0
 10
-73.749985
 20
84.000000
 11
-65.249992
 21
84.000000
  0
LINE
  8
0
 10
-65.250000
 20
84.000000
 11
-65.250000
 21
86.000000
  0
LINE
  8
0
 10
-73.749985
 20
86.000000
 11
-65.249992
 21
86.000000
  0
LINE
  8
0
 10
-73.750000
 20
84.000000
 11
-73.750000
 21
86.000000
  0
LINE
  8
0
 10
-72.999985
 20
96.000000
 11
-80.999985
 21
96.000000
  0
LINE
  8
0
 10
-79.000000
 20
91.000000
 11
-79.000000
 21
92.800003
  0
LINE
  8
0
 10
-75.000000
 20
91.000000
 11
-75.000000
 21
92.800003
  0
LINE
  8
0
 62
     2
 10
-78.500000
 20
91.000000
 11
-78.500000
 21
92.800003
  0
LINE
  8
0
 62
     2
 10
-75.500000
 20
91.000000
 11
-75.500000
 21
92.800003
  0
LINE
  8
0
 10
-44.000000
 20
80.999992
 11
-44.000000
 21
101.999992
  0
LINE
  8
0
 62
     4
 10
-89.500000
 20
84.250000
 11
-89.500000
 21
89.750000
  0
LINE
  8
0
 10
-29.999992
 20
104.000000
 11
-43.499985
 21
104.000000
  0
LINE
  8
0
 10
-29.999992
 20
110.000000
 11
-89.999985
 21
110.000000
  0
LINE
  8
0
 10
-29.999992
 20
103.999985
 11
-29.999992
 21
109.999985
  0
LINE
  8
0
 10
-90.000000
 20
104.000000
 11
-90.000000
 21
110.000000
  0
LINE
  8
0
 10
-63.000000
 20
102.000000
 11
-63.000000
 21
104.499992
  0
LINE
  8
0
 10
-74.000000
 20
103.000000
 11
-74.000000
 21
104.000000
  0
LINE
  8
0
 10
-80.000000
 20
103.000000
 11
-80.000000
 21
104.000000
  0
LINE
  8
0
 10
-73.999985
 20
103.000000
 11
-79.999985
 21
103.000000
  0
LINE
  8
0
 10
-72.949997
 20
93.088676
 11
-72.949997
 21
95.711334
  0
LINE
  8
0
 10
-73.450005
 20
92.800003
 11
-72.950005
 21
93.088676
  0
LINE
  8
0
 10
-80.549988
 20
92.800003
 11
-73.449982
 21
92.800003
  0
LINE
  8
0
 10
-74.949997
 20
93.088676
 11
-74.949997
 21
95.711327
  0
LINE
  8
0
 10
-79.050003
 20
93.088676
 11
-79.050003
 21
95.711327
  0
LINE
  8
0
 10
-81.050003
 20
93.088684
 11
-80.549995
 21
92.800011
  0
LINE
  8
0
 10
-81.050003
 20
93.088676
 11
-81.050003
 21
95.711327
  0
LINE
  8
0
 10
-81.050041
 20
95.711334
 11
-80.550034
 21
96.000015
  0
LINE
  8
0
 10
-73.449982
 20
96.000008
 11
-72.949989
 21
95.711334
  0
LINE
  8
0
 10
-26.700005
 20
82.099998
 11
-38.299995
 21
82.099998
  0
LINE
  8
0
 10
-26.699989
 20
91.900002
 11
-38.299988
 21
91.900002
  0
LINE
  8
0
 10
-26.700005
 20
82.099983
 11
-26.700005
 21
91.899986
  0
LINE
  8
0
 10
-22.700005
 20
82.999985
 11
-22.700005
 21
90.999985
  0
LINE
  8
0
 10
-22.700005
 20
83.000000
 11
-26.700005
 21
83.000000
  0
LINE
  8
0
 10
-22.699989
 20
91.000000
 11
-26.699989
 21
91.000000
  0
LINE
  8
0
 10
-21.700005
 20
82.999985
 11
-21.700005
 21
90.999985
  0
LINE
  8
0
 10
-19.700005
 20
82.999985
 11
-19.700005
 21
90.999985
  0
LINE
  8
0
 10
-19.699989
 20
91.000000
 11
-21.699989
 21
91.000000
  0
LINE
  8
0
 10
-19.700005
 20
83.000000
 11
-21.700005
 21
83.000000
  0
LINE
  8
0
 10
-21.699989
 20
89.500000
 11
-22.699989
 21
89.500000
  0
LINE
  8
0
 10
-21.700005
 20
84.500000
 11
-22.700005
 21
84.500000
  0
LINE
  8
0
 10
-17.299995
 20
85.500000
 11
-19.700005
 21
85.500000
  0
LINE
  8
0
 10
-17.299980
 20
88.500000
 11
-19.699989
 21
88.500000
  0
LINE
  8
0
 10
-17.300011
 20
84.499985
 11
-17.300011
 21
89.499985
  0
LINE
  8
0
 10
-12.299995
 20
89.500000
 11
-17.299980
 21
89.500000
  0
LINE
  8
0
 10
-12.300011
 20
84.500000
 11
-17.299995
 21
84.500000
  0
LINE
  8
0
 10
-12.300011
 20
84.499985
 11
-12.300011
 21
89.499985
  0
LINE
  8
0
 10
-38.299988
 20
101.500000
 11
-39.999985
 21
101.500000
  0
LINE
  8
0
 10
-38.299988
 20
93.500000
 11
-39.999985
 21
93.500000
  0
LINE
  8
0
 10
-26.699989
 20
102.400002
 11
-38.299988
 21
102.400002
  0
LINE
  8
0
 10
-26.699989
 20
92.599998
 11
-38.299988
 21
92.599998
  0
LINE
  8
0
 10
-26.700005
 20
92.599983
 11
-26.700005
 21
102.399986
  0
LINE
  8
0
 10
-38.300003
 20
92.599983
 11
-38.300003
 21
102.399986
  0
LINE
  8
0
 10
-22.700005
 20
93.499985
 11
-22.700005
 21
101.499985
  0
LINE
  8
0
 10
-22.699989
 20
93.500000
 11
-26.699989
 21
93.500000
  0
LINE
  8
0
 10
-22.699989
 20
101.500000
 11
-26.699989
 21
101.500000
  0
LINE
  8
0
 10
-21.700005
 20
93.499985
 11
-21.700005
 21
101.499985
  0
LINE
  8
0
 10
-19.700005
 20
93.499985
 11
-19.700005
 21
101.499985
  0
LINE
  8
0
 10
-19.699989
 20
93.500000
 11
-21.699989
 21
93.500000
  0
LINE
  8
0
 10
-19.699989
 20
101.500000
 11
-21.699989
 21
101.500000
  0
LINE
  8
0
 10
-21.699989
 20
100.000000
 11
-22.699989
 21
100.000000
  0
LINE
  8
0
 10
-21.699989
 20
95.000000
 11
-22.699989
 21
95.000000
  0
LINE
  8
0
 10
-17.299980
 20
96.000000
 11
-19.699989
 21
96.000000
  0
LINE
  8
0
 10
-17.299980
 20
99.000000
 11
-19.699989
 21
99.000000
  0
LINE
  8
0
 10
-17.300011
 20
94.999985
 11
-17.300011
 21
99.999985
  0
LINE
  8
0
 10
-12.299995
 20
100.000000
 11
-17.299980
 21
100.000000
  0
LINE
  8
0
 10
-12.299995
 20
95.000000
 11
-17.299980
 21
95.000000
  0
LINE
  8
0
 10
-12.300011
 20
94.999985
 11
-12.300011
 21
99.999985
  0
LINE
  8
0
 10
-74.999985
 20
91.000000
 11
-78.999985
 21
91.000000
  0
LINE
  8
0
 10
-64.500000
 20
103.999992
 11
-64.500000
 21
104.499992
  0
LINE
  8
0
 10
-42.500000
 20
103.999992
 11
-42.500000
 21
104.499992
  0
LINE
  8
0
 10
-42.499985
 20
104.500000
 11
-64.499985
 21
104.500000
  0
LINE
  8
0
 10
-62.999985
 20
104.000000
 11
-89.999985
 21
104.000000
  0
LINE
  8
0
 10
-43.500000
 20
101.999992
 11
-43.500000
 21
104.499992
  0
LINE
  8
0
 10
-63.000000
 20
75.000000
 11
-63.000000
 21
79.000000
  0
LINE
  8
0
 10
-57.000000
 20
75.000000
 11
-57.000000
 21
79.000000
  0
LINE
  8
0
 10
-56.999992
 20
79.000000
 11
-62.999992
 21
79.000000
  0
LINE
  8
0
 10
-67.500000
 20
102.000000
 11
-67.500000
 21
104.000000
  0
LINE
  8
0
 62
     2
 10
-68.000000
 20
102.000000
 11
-68.000000
 21
104.000000
  0
LINE
  8
0
 62
     2
 10
-71.000000
 20
102.000000
 11
-71.000000
 21
104.000000
  0
LINE
  8
0
 10
-71.500000
 20
102.000000
 11
-71.500000
 21
104.000000
  0
LINE
  8
0
 62
     1
 10
-97.380157
 20
95.708755
 11
-94.229263
 21
90.251251
  0
LINE
  8
0
  6
CENTER
 62
     2
 10
-35.000000
 20
70.426651
 11
-35.000000
 21
82.867844
  0
LINE
  8
0
  6
CENTER
 62
     2
 10
-85.000000
 20
70.426651
 11
-85.000000
 21
83.627678
  0
LINE
  8
0
  6
CENTER
 62
     2
 10
-35.000000
 20
101.255951
 11
-35.000000
 21
113.030479
  0
LINE
  8
0
  6
CENTER
 62
     2
 10
-85.000000
 20
100.800041
 11
-85.000000
 21
113.030479
  0
LINE
  8
0
 10
-89.999992
 20
-65.000000
 11
-29.999992
 21
-65.000000
  0
LINE
  8
0
  6
CENTER
 62
     2
 10
-60.000000
 20
-60.426651
 11
-60.000000
 21
-113.999237
  0
LINE
  8
0
 10
-80.999985
 20
-92.000000
 11
-39.000000
 21
-92.000000
  0
LINE
  8
0
 10
-90.000000
 20
-64.999985
 11
-90.000000
 21
-70.999985
  0
LINE
  8
0
 10
-29.999992
 20
-65.000000
 11
-29.999992
 21
-71.000000
  0
LINE
  8
0
 10
-89.999992
 20
-71.000000
 11
-76.000008
 21
-71.000000
  0
LINE
  8
0
  6
PHANTOM
 62
     2
 10
-89.999992
 20
-110.000000
 11
-29.999992
 21
-110.000000
  0
LINE
  8
0
  6
PHANTOM
 62
     2
 10
-90.000000
 20
-103.999985
 11
-90.000000
 21
-109.999985
  0
LINE
  8
0
  6
PHANTOM
 62
     2
 10
-29.999992
 20
-104.000000
 11
-29.999992
 21
-110.000000
  0
LINE
  8
0
 10
-56.500000
 20
-71.000000
 11
-56.500000
 21
-86.000000
  0
LINE
  8
0
 10
-56.499992
 20
-71.000000
 11
-29.999992
 21
-71.000000
  0
LINE
  8
0
 10
-48.500000
 20
-76.000000
 11
-48.500000
 21
-86.000000
  0
LINE
  8
0
 10
-52.500000
 20
-76.000000
 11
-52.500000
 21
-86.000000
  0
LINE
  8
0
 62
     2
 10
-49.000000
 20
-76.000000
 11
-49.000000
 21
-86.000000
  0
LINE
  8
0
 62
     2
 10
-52.000000
 20
-76.000000
 11
-52.000000
 21
-86.000000
  0
LINE
  8
0
 10
-80.000000
 20
-70.999985
 11
-80.000000
 21
-91.999985
  0
LINE
  8
0
 10
-56.499992
 20
-86.000000
 11
-40.000000
 21
-86.000000
  0
LINE
  8
0
 62
     4
 10
-33.000015
 20
-71.000000
 11
-33.000015
 21
-78.250015
  0
LINE
  8
0
 10
-40.000000
 20
-86.000000
 11
-40.000000
 21
-92.000000
  0
LINE
  8
0
 62
     4
 10
-38.999977
 20
-92.000000
 11
-32.999977
 21
-92.000000
  0
LINE
  8
0
 10
-44.000000
 20
-71.000000
 11
-44.000000
 21
-81.000000
  0
LINE
  8
0
 62
     4
 10
-32.999977
 20
-84.500000
 11
-30.999977
 21
-84.500000
  0
LINE
  8
0
 62
     4
 10
-32.999977
 20
-89.500000
 11
-30.999977
 21
-89.500000
  0
LINE
  8
0
 62
     4
 10
-30.999977
 20
-85.300018
 11
-25.165230
 21
-85.300018
  0
LINE
  8
0
 62
     4
 10
-30.999977
 20
-88.700012
 11
-23.202232
 21
-88.700012
  0
LINE
  8
0
 62
     4
 10
-31.000023
 20
-84.500000
 11
-31.000023
 21
-89.500000
  0
LINE
  8
0
 10
-39.000000
 20
-71.000000
 11
-39.000000
 21
-83.059753
  0
LINE
  8
0
 62
     4
 10
-38.999977
 20
-76.500015
 11
-33.999977
 21
-76.500015
  0
LINE
  8
0
 62
     4
 10
-38.949989
 20
-85.500000
 11
-33.999977
 21
-85.500000
  0
LINE
  8
0
 62
     4
 10
-34.000015
 20
-76.500015
 11
-34.000015
 21
-85.500000
  0
LINE
  8
0
 62
     4
 10
-33.999977
 20
-78.250015
 11
-30.499977
 21
-78.250015
  0
LINE
  8
0
 62
     4
 10
-33.999977
 20
-83.750000
 11
-30.499977
 21
-83.750000
  0
LINE
  8
0
 62
     4
 10
-33.500015
 20
-78.250015
 11
-33.500015
 21
-83.750000
  0
LINE
  8
0
 62
     4
 10
-33.000015
 20
-83.750000
 11
-33.000015
 21
-92.000000
  0
LINE
  8
0
 10
-45.000000
 20
-92.000000
 11
-45.000000
 21
-93.000000
  0
LINE
  8
0
 10
-41.000000
 20
-92.000000
 11
-41.000000
 21
-93.000000
  0
LINE
  8
0
 10
-54.550003
 20
-71.000000
 11
-54.550003
 21
-74.000000
  0
LINE
  8
0
 10
-52.550003
 20
-71.000000
 11
-52.550003
 21
-74.000000
  0
LINE
  8
0
 10
-48.449997
 20
-71.000000
 11
-48.449997
 21
-74.000000
  0
LINE
  8
0
 10
-46.449997
 20
-71.000000
 11
-46.449997
 21
-74.000000
  0
LINE
  8
0
 10
-46.250000
 20
-74.000000
 11
-54.749992
 21
-74.000000
  0
LINE
  8
0
 10
-54.750000
 20
-74.000000
 11
-54.750000
 21
-76.000000
  0
LINE
  8
0
 10
-46.250000
 20
-76.000000
 11
-54.749992
 21
-76.000000
  0
LINE
  8
0
 10
-46.250000
 20
-74.000000
 11
-46.250000
 21
-76.000000
  0
LINE
  8
0
 10
-47.000000
 20
-86.000000
 11
-39.000000
 21
-86.000000
  0
LINE
  8
0
 10
-41.000000
 20
-81.000000
 11
-41.000000
 21
-82.800003
  0
LINE
  8
0
 10
-45.000000
 20
-81.000000
 11
-45.000000
 21
-82.800003
  0
LINE
  8
0
 62
     2
 10
-41.500000
 20
-81.000000
 11
-41.500000
 21
-82.800003
  0
LINE
  8
0
 62
     2
 10
-44.500000
 20
-81.000000
 11
-44.500000
 21
-82.800003
  0
LINE
  8
0
 10
-76.000000
 20
-71.000000
 11
-76.000000
 21
-92.000000
  0
LINE
  8
0
 62
     4
 10
-30.500023
 20
-78.250015
 11
-30.500023
 21
-83.750000
  0
LINE
  8
0
 10
-90.000008
 20
-94.000000
 11
-76.500008
 21
-94.000000
  0
LINE
  8
0
 10
-90.000008
 20
-100.000000
 11
-29.999992
 21
-100.000000
  0
LINE
  8
0
 10
-90.000000
 20
-93.999985
 11
-90.000000
 21
-99.999985
  0
LINE
  8
0
 10
-29.999992
 20
-94.000000
 11
-29.999992
 21
-100.000000
  0
LINE
  8
0
 10
-57.000000
 20
-92.000000
 11
-57.000000
 21
-94.500000
  0
LINE
  8
0
 10
-46.000000
 20
-93.000000
 11
-46.000000
 21
-94.000000
  0
LINE
  8
0
 10
-40.000000
 20
-93.000000
 11
-40.000000
 21
-94.000000
  0
LINE
  8
0
 10
-46.000000
 20
-93.000000
 11
-40.000000
 21
-93.000000
  0
LINE
  8
0
 10
-47.050003
 20
-83.088684
 11
-47.050003
 21
-85.711334
  0
LINE
  8
0
 10
-46.550026
 20
-82.799919
 11
-47.050003
 21
-83.088593
  0
LINE
  8
0
 10
-39.449997
 20
-82.800003
 11
-46.550003
 21
-82.800003
  0
LINE
  8
0
 10
-45.050003
 20
-83.088684
 11
-45.050003
 21
-85.711334
  0
LINE
  8
0
 10
-40.949997
 20
-83.088684
 11
-40.949997
 21
-85.711334
  0
LINE
  8
0
 10
-38.949944
 20
-83.088600
 11
-39.449947
 21
-82.799911
  0
LINE
  8
0
 10
-38.949997
 20
-83.088684
 11
-38.949997
 21
-85.711334
  0
LINE
  8
0
 10
-38.949944
 20
-85.711319
 11
-39.449963
 21
-85.999985
  0
LINE
  8
0
 10
-46.550003
 20
-85.999985
 11
-47.050003
 21
-85.711319
  0
LINE
  8
0
 10
-26.699989
 20
-72.100006
 11
-33.000008
 21
-72.100006
  0
LINE
  8
0
 10
-26.699989
 20
-81.899994
 11
-30.500008
 21
-81.899994
  0
LINE
  8
0
 10
-26.700005
 20
-72.099976
 11
-26.700005
 21
-81.899994
  0
LINE
  8
0
 10
-22.700005
 20
-72.999985
 11
-22.700005
 21
-80.999985
  0
LINE
  8
0
 10
-22.699989
 20
-73.000000
 11
-26.699989
 21
-73.000000
  0
LINE
  8
0
 10
-22.699989
 20
-81.000000
 11
-26.699989
 21
-81.000000
  0
LINE
  8
0
 10
-21.700005
 20
-72.999985
 11
-21.700005
 21
-80.999985
  0
LINE
  8
0
 10
-19.700005
 20
-72.999985
 11
-19.700005
 21
-80.999985
  0
LINE
  8
0
 10
-19.699989
 20
-81.000000
 11
-21.699989
 21
-81.000000
  0
LINE
  8
0
 10
-19.699989
 20
-73.000000
 11
-21.699989
 21
-73.000000
  0
LINE
  8
0
 10
-21.699989
 20
-79.500000
 11
-22.699989
 21
-79.500000
  0
LINE
  8
0
 10
-21.699989
 20
-74.500000
 11
-22.699989
 21
-74.500000
  0
LINE
  8
0
 10
-17.299995
 20
-75.500000
 11
-19.699989
 21
-75.500000
  0
LINE
  8
0
 10
-17.299995
 20
-78.500000
 11
-19.699989
 21
-78.500000
  0
LINE
  8
0
 10
-17.300011
 20
-74.499985
 11
-17.300011
 21
-79.499985
  0
LINE
  8
0
 10
-12.299995
 20
-79.500000
 11
-17.299995
 21
-79.500000
  0
LINE
  8
0
 10
-12.299995
 20
-74.500000
 11
-17.299995
 21
-74.500000
  0
LINE
  8
0
 10
-12.300011
 20
-74.499985
 11
-12.300011
 21
-79.499985
  0
LINE
  8
0
 10
-26.699989
 20
-92.399994
 11
-38.299995
 21
-92.399994
  0
LINE
  8
0
 10
-26.699989
 20
-82.600006
 11
-30.500008
 21
-82.600006
  0
LINE
  8
0
 10
-26.700005
 20
-82.599976
 11
-26.700005
 21
-85.300018
  0
LINE
  8
0
 10
-38.300003
 20
-92.000000
 11
-38.300003
 21
-92.399994
  0
LINE
  8
0
 10
-22.700005
 20
-83.499985
 11
-22.700005
 21
-91.499985
  0
LINE
  8
0
 10
-22.699989
 20
-83.500000
 11
-26.699989
 21
-83.500000
  0
LINE
  8
0
 10
-22.699989
 20
-91.500000
 11
-26.699989
 21
-91.500000
  0
LINE
  8
0
 10
-21.700005
 20
-83.499985
 11
-21.700005
 21
-91.499985
  0
LINE
  8
0
 10
-19.700005
 20
-83.499985
 11
-19.700005
 21
-91.499985
  0
LINE
  8
0
 10
-19.699989
 20
-83.500000
 11
-21.699989
 21
-83.500000
  0
LINE
  8
0
 10
-19.699989
 20
-91.500000
 11
-21.699989
 21
-91.500000
  0
LINE
  8
0
 10
-21.699989
 20
-90.000000
 11
-22.699989
 21
-90.000000
  0
LINE
  8
0
 10
-21.699989
 20
-85.000000
 11
-22.699989
 21
-85.000000
  0
LINE
  8
0
 10
-17.299995
 20
-86.000000
 11
-19.699989
 21
-86.000000
  0
LINE
  8
0
 10
-17.299995
 20
-89.000000
 11
-19.699989
 21
-89.000000
  0
LINE
  8
0
 10
-17.300011
 20
-84.999985
 11
-17.300011
 21
-89.999985
  0
LINE
  8
0
 10
-12.299995
 20
-90.000000
 11
-17.299995
 21
-90.000000
  0
LINE
  8
0
 10
-12.299995
 20
-85.000000
 11
-17.299995
 21
-85.000000
  0
LINE
  8
0
 10
-12.300011
 20
-84.999985
 11
-12.300011
 21
-89.999985
  0
LINE
  8
0
 10
-45.000000
 20
-81.000000
 11
-41.000000
 21
-81.000000
  0
LINE
  8
0
 10
-55.500000
 20
-94.000000
 11
-55.500000
 21
-94.500000
  0
LINE
  8
0
 10
-77.500000
 20
-94.000000
 11
-77.500000
 21
-94.500000
  0
LINE
  8
0
 10
-77.500008
 20
-94.500000
 11
-55.500000
 21
-94.500000
  0
LINE
  8
0
 10
-57.000000
 20
-94.000000
 11
-29.999992
 21
-94.000000
  0
LINE
  8
0
 10
-76.500000
 20
-92.000000
 11
-76.500000
 21
-94.500000
  0
LINE
  8
0
  6
PHANTOM
 62
     2
 10
-90.000008
 20
-104.000000
 11
-29.999992
 21
-104.000000
  0
LINE
  8
0
 10
-52.500000
 20
-92.000000
 11
-52.500000
 21
-94.000000
  0
LINE
  8
0
 62
     2
 10
-52.000000
 20
-92.000000
 11
-52.000000
 21
-94.000000
  0
LINE
  8
0
 62
     2
 10
-49.000000
 20
-92.000000
 11
-49.000000
 21
-94.000000
  0
LINE
  8
0
 10
-48.500000
 20
-92.000000
 11
-48.500000
 21
-94.000000
  0
LINE
  8
0
 62
     1
 10
-22.619812
 20
-89.708778
 11
-25.770695
 21
-84.251266
  0
LINE
  8
0
  6
CENTER
 62
     2
 10
-85.000000
 20
-60.426651
 11
-85.000000
 21
-72.867828
  0
LINE
  8
0
  6
CENTER
 62
     2
 10
-35.000000
 20
-60.426651
 11
-35.000000
 21
-73.627686
  0
LINE
  8
0
  6
CENTER
 62
     2
 10
-85.000000
 20
-91.255951
 11
-85.000000
 21
-113.999237
  0
LINE
  8
0
  6
CENTER
 62
     2
 10
-35.000000
 20
-90.800049
 11
-35.000000
 21
-113.999237
  0
LINE
  8
0
 10
-39.000000
 20
-85.740234
 11
-39.000000
 21
-92.000000
  0
LINE
  8
0
 10
-80.999992
 20
-71.000000
 11
-80.999992
 21
-92.000000
  0
LINE
  8
0
 62
     4
 10
-80.999985
 20
-88.000000
 11
-86.999985
 21
-88.000000
  0
LINE
  8
0
 62
     4
 10
-86.999985
 20
-80.500000
 11
-88.999992
 21
-80.500000
  0
LINE
  8
0
 62
     4
 10
-86.999985
 20
-85.500000
 11
-88.999985
 21
-85.500000
  0
LINE
  8
0
 62
     4
 10
-88.999985
 20
-84.699997
 11
-94.834740
 21
-84.699997
  0
LINE
  8
0
 62
     4
 10
-88.999985
 20
-81.299988
 11
-96.797737
 21
-81.299988
  0
LINE
  8
0
 62
     4
 10
-89.000000
 20
-80.500000
 11
-89.000000
 21
-85.500000
  0
LINE
  8
0
 62
     4
 10
-87.000000
 20
-74.250000
 11
-89.499992
 21
-74.250000
  0
LINE
  8
0
 62
     4
 10
-87.000000
 20
-79.750000
 11
-89.499992
 21
-79.750000
  0
LINE
  8
0
 62
     4
 10
-87.000000
 20
-71.000000
 11
-87.000000
 21
-88.000000
  0
LINE
  8
0
 62
     4
 10
-89.500000
 20
-74.250000
 11
-89.500000
 21
-79.750000
  0
LINE
  8
0
 62
     1
 10
-97.380135
 20
-80.291252
 11
-94.229263
 21
-85.748734
  0
LINE
  8
0
 10
-26.700005
 20
-88.700012
 11
-26.700005
 21
-92.399994
  0
LINE
  8
0
  6
CENTER
 62
     2
 10
133.669891
 20
33.492287
 11
133.669891
 21
-33.636719
  0
LINE
  8
0
 10
103.669846
 20
29.999985
 11
163.669846
 21
29.999985
  0
LINE
  8
0
 10
103.669891
 20
-30.000031
 11
163.669891
 21
-30.000031
  0
LINE
  8
0
 10
163.669891
 20
30.000010
 11
163.669891
 21
-29.999990
  0
LINE
  8
0
 10
103.669891
 20
29.999975
 11
103.669891
 21
-30.000025
  0
LINE
  8
0
  6
CENTER
 62
     2
 10
99.264786
 20
-0.000031
 11
167.555588
 21
-0.000031
  0
LINE
  8
0
 10
100.369873
 20
2.099976
 11
103.669876
 21
2.099976
  0
LINE
  8
0
 10
100.369858
 20
11.899979
 11
103.669861
 21
11.899979
  0
LINE
  8
0
 10
100.369904
 20
11.899982
 11
100.369904
 21
2.099964
  0
LINE
  8
0
 10
96.369904
 20
10.999969
 11
96.369904
 21
2.999970
  0
LINE
  8
0
 10
96.369858
 20
10.999985
 11
100.369858
 21
10.999985
  0
LINE
  8
0
 10
96.369873
 20
2.999969
 11
100.369873
 21
2.999969
  0
LINE
  8
0
 10
95.369904
 20
10.999969
 11
95.369904
 21
2.999969
  0
LINE
  8
0
 10
93.369904
 20
10.999967
 11
93.369904
 21
2.999967
  0
LINE
  8
0
 10
93.369858
 20
10.999985
 11
95.369858
 21
10.999985
  0
LINE
  8
0
 10
93.369873
 20
2.999969
 11
95.369873
 21
2.999969
  0
LINE
  8
0
 10
95.369873
 20
4.499969
 11
96.369873
 21
4.499969
  0
LINE
  8
0
 10
95.369858
 20
9.499985
 11
96.369858
 21
9.499985
  0
LINE
  8
0
 10
90.969879
 20
8.499985
 11
93.369873
 21
8.499985
  0
LINE
  8
0
 10
90.969879
 20
5.499969
 11
93.369873
 21
5.499969
  0
LINE
  8
0
 10
90.969894
 20
9.499965
 11
90.969894
 21
4.499965
  0
LINE
  8
0
 10
85.969879
 20
4.499969
 11
90.969879
 21
4.499969
  0
LINE
  8
0
 10
85.969864
 20
9.499985
 11
90.969864
 21
9.499985
  0
LINE
  8
0
 10
85.969910
 20
9.499961
 11
85.969910
 21
4.499961
  0
LINE
  8
0
  6
CENTER
 62
     2
 10
129.669861
 20
24.999985
 11
137.669861
 21
24.999985
  0
LINE
  8
0
  6
CENTER
 62
     2
 10
129.669876
 20
-25.000015
 11
137.669876
 21
-25.000015
  0
LINE
  8
0
  6
CENTER
 62
     2
 10
153.194809
 20
24.999985
 11
164.275009
 21
24.999985
  0
LINE
  8
0
  6
CENTER
 62
     2
 10
158.669876
 20
19.597740
 11
158.669876
 21
30.834007
  0
LINE
  8
0
  6
CENTER
 62
     2
 10
158.669861
 20
-4.000010
 11
158.669861
 21
3.999990
  0
LINE
  8
0
  6
CENTER
 62
     2
 10
108.669861
 20
-4.000021
 11
108.669861
 21
3.999980
  0
LINE
  8
0
  6
CENTER
 62
     2
 10
153.194824
 20
-25.000046
 11
164.275040
 21
-25.000046
  0
LINE
  8
0
  6
CENTER
 62
     2
 10
158.669876
 20
-19.597759
 11
158.669876
 21
-30.834026
  0
LINE
  8
0
  6
CENTER
 62
     2
 10
108.669922
 20
-19.597801
 11
108.669922
 21
-30.834068
  0
LINE
  8
0
  6
CENTER
 62
     2
 10
114.144989
 20
-25.000046
 11
103.064774
 21
-25.000046
  0
LINE
  8
0
  6
CENTER
 62
     2
 10
114.144958
 20
24.999985
 11
103.064751
 21
24.999985
  0
LINE
  8
0
  6
CENTER
 62
     2
 10
108.669922
 20
19.597698
 11
108.669922
 21
30.833965
  0
ARC
  8
0
 62
     4
 10
-44.620018
 20
-8.999989
 40
4.420009
 50
320.692413
 51
39.307495
  0
CIRCLE
  8
0
 10
-35.000008
 20
-25.000004
 40
1.500000
  0
CIRCLE
  8
0
 10
-35.000000
 20
24.999998
 40
1.500000
  0
CIRCLE
  8
0
 10
-84.999992
 20
25.000025
 40
1.500000
  0
CIRCLE
  8
0
 10
-85.000008
 20
-24.999973
 40
1.500000
  0
CIRCLE
  8
0
 62
     2
 10
-35.000008
 20
-25.000004
 40
2.000000
  0
CIRCLE
  8
0
 62
     2
 10
-35.000000
 20
24.999998
 40
2.000000
  0
CIRCLE
  8
0
 62
     2
 10
-84.999992
 20
25.000025
 40
2.000000
  0
CIRCLE
  8
0
 62
     2
 10
-85.000008
 20
-24.999973
 40
2.000000
  0
CIRCLE
  8
0
 10
-60.000015
 20
-24.999989
 40
3.000000
  0
ARC
  8
0
 62
     4
 10
-75.379990
 20
8.999996
 40
4.420011
 50
140.692444
 51
219.307709
  0
ARC
  8
0
 10
-60.000000
 20
24.000011
 40
3.000000
 50
180.000031
 51
0.000000
  0
CIRCLE
  8
0
 62
     4
 10
-157.065872
 20
9.999958
 40
3.300000
  0
CIRCLE
  8
0
 10
-168.765854
 20
9.999958
 40
2.800000
  0
CIRCLE
  8
0
 62
     4
 10
-163.065857
 20
2.499958
 40
1.700000
  0
CIRCLE
  8
0
 62
     4
 10
-163.065857
 20
2.499958
 40
2.500000
  0
CIRCLE
  8
0
 62
     4
 10
-150.565872
 20
2.999973
 40
1.000000
  0
ARC
  8
0
 10
-158.642532
 20
26.199955
 40
7.423349
 50
163.969025
 51
196.030899
  0
ARC
  8
0
 10
-164.189468
 20
29.249966
 40
1.876396
 50
147.795929
 51
212.204071
  0
ARC
  8
0
 10
-164.742264
 20
23.149960
 40
1.876396
 50
327.795929
 51
32.204071
  0
ARC
  8
0
 10
-164.189468
 20
23.149960
 40
1.876397
 50
147.795883
 51
212.204025
  0
ARC
  8
0
 10
-164.742264
 20
29.249966
 40
1.876396
 50
327.795929
 51
32.204071
  0
CIRCLE
  8
0
 10
-148.365829
 20
10.000065
 40
2.800000
  0
CIRCLE
  8
0
 62
     4
 10
44.455910
 20
-9.999981
 40
3.300000
  0
CIRCLE
  8
0
 10
52.155922
 20
-9.999981
 40
2.800000
  0
CIRCLE
  8
0
 62
     4
 10
50.455910
 20
-2.499981
 40
1.700000
  0
CIRCLE
  8
0
 62
     4
 10
50.455910
 20
-2.499981
 40
2.500000
  0
CIRCLE
  8
0
 62
     4
 10
37.955910
 20
-2.999989
 40
1.000000
  0
CIRCLE
  8
0
 10
40.455910
 20
6.000011
 40
2.500000
  0
CIRCLE
  8
0
 10
50.955910
 20
6.000019
 40
2.500000
  0
CIRCLE
  8
0
 10
40.455910
 20
6.000011
 40
4.900000
  0
CIRCLE
  8
0
 10
50.955910
 20
6.000019
 40
4.900000
  0
ARC
  8
0
 10
42.032570
 20
-26.199970
 40
7.423347
 50
343.968994
 51
16.030897
  0
ARC
  8
0
 10
47.579536
 20
-29.249981
 40
1.876396
 50
327.795929
 51
32.204010
  0
ARC
  8
0
 10
48.132332
 20
-23.149975
 40
1.876400
 50
147.795990
 51
212.204071
  0
ARC
  8
0
 10
47.579521
 20
-23.149975
 40
1.876397
 50
327.795868
 51
32.203960
  0
ARC
  8
0
 10
48.132332
 20
-29.249981
 40
1.876397
 50
147.795883
 51
212.203964
  0
CIRCLE
  8
0
 10
31.755882
 20
-10.000080
 40
2.800000
  0
CIRCLE
  8
0
 10
-31.700005
 20
97.499985
 40
2.000000
  0
ARC
  8
0
 10
-73.949989
 20
94.123596
 40
1.876396
 50
57.795929
 51
122.204071
  0
CIRCLE
  8
0
 10
-31.700005
 20
86.999985
 40
4.900000
  0
CIRCLE
  8
0
 10
-31.700005
 20
97.499985
 40
4.900000
  0
CIRCLE
  8
0
 10
-31.700005
 20
86.999985
 40
2.000000
  0
ARC
  8
0
 10
-73.949989
 20
94.676399
 40
1.876396
 50
237.795929
 51
302.204071
  0
ARC
  8
0
 10
-76.999992
 20
100.223343
 40
7.423347
 50
253.969070
 51
286.030914
  0
ARC
  8
0
 10
-80.049995
 20
94.676399
 40
1.876396
 50
237.795929
 51
302.204071
  0
ARC
  8
0
 10
-80.049995
 20
94.123596
 40
1.876396
 50
57.795929
 51
122.204071
  0
ARC
  8
0
 10
-76.999992
 20
88.576653
 40
7.423342
 50
73.969002
 51
106.030869
  0
ARC
  8
0
 10
-46.049995
 20
-84.123596
 40
1.876398
 50
237.795822
 51
302.203979
  0
ARC
  8
0
 10
-46.049995
 20
-84.676392
 40
1.876398
 50
57.795830
 51
122.203850
  0
ARC
  8
0
 10
-42.999992
 20
-90.223343
 40
7.423343
 50
73.968971
 51
106.030869
  0
ARC
  8
0
 10
-39.949989
 20
-84.676392
 40
1.876396
 50
57.795929
 51
122.204071
  0
ARC
  8
0
 10
-39.949989
 20
-84.123596
 40
1.876398
 50
237.795822
 51
302.203857
  0
ARC
  8
0
 10
-42.999992
 20
-78.576660
 40
7.423346
 50
253.968918
 51
286.030823
  0
CIRCLE
  8
0
 10
133.669846
 20
24.999985
 40
2.000000
  0
CIRCLE
  8
0
 10
133.669876
 20
-25.000015
 40
2.000000
  0
CIRCLE
  8
0
 10
108.669853
 20
24.999979
 40
2.250000
  0
CIRCLE
  8
0
 10
108.669884
 20
-25.000021
 40
2.250000
  0
CIRCLE
  8
0
 10
158.669846
 20
25.000006
 40
2.250000
  0
CIRCLE
  8
0
 10
158.669891
 20
-25.000010
 40
2.250000
  0
CIRCLE
  8
0
 10
108.669861
 20
-0.000020
 40
2.000000
  0
CIRCLE
  8
0
 10
158.669861
 20
-0.000010
 40
2.000000
  0
CIRCLE
  8
0
  6
DASHED
 62
     2
 10
158.669846
 20
25.000006
 40
4.000000
  0
CIRCLE
  8
0
  6
DASHED
 62
     2
 10
158.669891
 20
-25.000025
 40
4.000000
  0
CIRCLE
  8
0
  6
DASHED
 62
     2
 10
108.669937
 20
-25.000067
 40
4.000000
  0
CIRCLE
  8
0
  6
DASHED
 62
     2
 10
108.669899
 20
24.999964
 40
4.000000
  0
TEXT
  8
0
 10
115.907150
 20
122.050003
 40
4.500000
  1
DATE : MAY ,1993
 50
0.000000
 41
1.052631
 51
0.000000
  7
STANDARD
  0
TEXT
  8
0
 10
113.700279
 20
-130.669998
 40
6.300000
  1
KOGANEI CORP.
 50
0.000000
 41
1.052632
 51
0.000000
  7
STANDARD
  0
TEXT
  8
0
 10
-185.892654
 20
122.050003
 40
4.500000
  1
HANDLING MODULE
 50
0.000000
 41
1.052632
 51
0.000000
  7
STANDARD
  0
TEXT
  8
0
 10
-186.892654
 20
104.550003
 40
4.500000
  1
MODEL:SHM41S-MS
 50
0.000000
 41
1.052632
 51
0.000000
  7
STANDARD
  0
ENDSEC
  0
EOF
