  0
SECTION
  2
HEADER
  0
ENDSEC
  0
SECTION
  2
TABLES
  0
TABLE
  2
LTYPE
 70
     4
  0
LTYPE
  2
CONTINUOUS
 70
    64
  3
Solid line
 72
    65
 73
     0
 40
0.000000
  0
LTYPE
  2
DASHED
 70
    64
  3
__ __ __ __ __ __ __ __ __ __ __ __ __ __ __
 72
    65
 73
     2
 40
3.500000
 49
2.000000
 49
-1.500000
  0
LTYPE
  2
CENTER
 70
    64
  3
____ _ ____ _ ____ _ ____ _ ____ _ ____ _ ____
 72
    65
 73
     4
 40
17.500000
 49
13.000000
 49
-1.500000
 49
1.500000
 49
-1.500000
  0
LTYPE
  2
PHANTOM
 70
    64
  3
_____ _ _ _____ _ _ _____ _ _ _____ _ _ ____  
 72
    65
 73
     6
 40
15.500000
 49
8.000000
 49
-1.500000
 49
1.500000
 49
-1.500000
 49
1.500000
 49
-1.500000
  0
LTYPE
  2
DASHED1
 70
    64
  3
__ __ __ __ __ __ __ __ __ __ __ __ __ __ __
 72
    65
 73
     2
 40
1.500000
 49
1.000000
 49
-0.500000
  0
LTYPE
  2
DASHED2
 70
    64
  3
__ __ __ __ __ __ __ __ __ __ __ __ __ __ __
 72
    65
 73
     2
 40
3.500000
 49
2.500000
 49
-1.000000
  0
LTYPE
  2
DASHED3
 70
    64
  3
__ __ __ __ __ __ __ __ __ __ __ __ __ __ __
 72
    65
 73
     2
 40
6.000000
 49
4.000000
 49
-2.000000
  0
LTYPE
  2
DASHED4
 70
    64
  3
__ __ __ __ __ __ __ __ __ __ __ __ __ __ __
 72
    65
 73
     2
 40
12.000000
 49
10.000000
 49
-2.000000
  0
LTYPE
  2
DASHED5
 70
    64
  3
__ __ __ __ __ __ __ __ __ __ __ __ __ __ __
 72
    65
 73
     2
 40
17.000000
 49
15.000000
 49
-2.000000
  0
LTYPE
  2
DASHED6
 70
    64
  3
__ __ __ __ __ __ __ __ __ __ __ __ __ __ __
 72
    65
 73
     2
 40
29.000000
 49
27.000000
 49
-2.000000
  0
LTYPE
  2
PHANTOM1
 70
    64
  3
_____ _ _ _____ _ _ _____ _ _ _____ _ _ ____  
 72
    65
 73
     6
 40
31.000000
 49
25.000000
 49
-1.500000
 49
1.000000
 49
-1.000000
 49
1.000000
 49
-1.500000
  0
LTYPE
  2
PHANTOM2
 70
    64
  3
_____ _ _ _____ _ _ _____ _ _ _____ _ _ ____  
 72
    65
 73
     6
 40
36.000000
 49
27.000000
 49
-1.500000
 49
2.500000
 49
-1.000000
 49
2.500000
 49
-1.500000
  0
LTYPE
  2
PHANTOM3
 70
    64
  3
_____ _ _ _____ _ _ _____ _ _ _____ _ _ ____  
 72
    65
 73
     6
 40
78.000000
 49
64.000000
 49
-2.000000
 49
4.000000
 49
-2.000000
 49
4.000000
 49
-2.000000
  0
LTYPE
  2
CENTER1
 70
    64
  3
____ _ ____ _ ____ _ ____ _ ____ _ ____ _ ____
 72
    65
 73
     4
 40
19.000000
 49
14.000000
 49
-1.000000
 49
3.000000
 49
-1.000000
  0
LTYPE
  2
CENTER2
 70
    64
  3
____ _ ____ _ ____ _ ____ _ ____ _ ____ _ ____
 72
    65
 73
     4
 40
28.500000
 49
25.000000
 49
-1.000000
 49
1.500000
 49
-1.000000
  0
LTYPE
  2
CENTER3
 70
    64
  3
____ _ ____ _ ____ _ ____ _ ____ _ ____ _ ____
 72
    65
 73
     4
 40
31.500000
 49
27.000000
 49
-1.000000
 49
2.500000
 49
-1.000000
  0
LTYPE
  2
CENTER4
 70
    64
  3
____ _ ____ _ ____ _ ____ _ ____ _ ____ _ ____
 72
    65
 73
     4
 40
50.000000
 49
45.000000
 49
-1.000000
 49
3.000000
 49
-1.000000
  0
LTYPE
  2
CENTER5
 70
    64
  3
____ _ ____ _ ____ _ ____ _ ____ _ ____ _ ____
 72
    65
 73
     4
 40
100.000000
 49
92.000000
 49
-2.000000
 49
4.000000
 49
-2.000000
  0
LTYPE
  2
SBK1
 70
    64
  3
______ _ _ _ ______ _ _ _ ______ _ _ _ _____  
 72
    65
 73
     8
 40
60.500000
 49
45.000000
 49
-2.000000
 49
2.500000
 49
-2.000000
 49
2.500000
 49
-2.000000
 49
2.500000
 49
-2.000000
  0
LTYPE
  2
SBK2
 70
    64
  3
______ _ _ _ ______ _ _ _ ______ _ _ _ _____  
 72
    65
 73
     8
 40
84.000000
 49
64.000000
 49
-2.000000
 49
4.000000
 49
-2.000000
 49
4.000000
 49
-2.000000
 49
4.000000
 49
-2.000000
  0
LTYPE
  2
STCH
 70
    64
  3
__ __ __ __ __ __ __ __ __ __ __ __ __ __ __
 72
    65
 73
     2
 40
3.000000
 49
1.000000
 49
-2.000000
  0
LTYPE
  2
MTCH
 70
    64
  3
_____ _ _ _____ _ _ _____ _ _ _____ _ _ ____  
 72
    65
 73
     6
 40
80.000000
 49
66.000000
 49
-2.000000
 49
4.000000
 49
-2.000000
 49
4.000000
 49
-2.000000
  0
ENDTAB
  0
TABLE
  2
LAYER
 70
     1
  0
LAYER
  2
0
 70
     0
 62
     7
  6
CONTINUOUS
  0
ENDTAB
  0
TABLE
  2
STYLE
 70
     1
  0
STYLE
  2
STANDARD
 70
     0
 40
0.000000
 41
1.000000
 50
0.000000
 71
     0
 42
0.200000
  3
txt
  4
BIGFONT
  0
ENDTAB
  0
TABLE
  2
VIEW
 70
     0
  0
ENDTAB
  0
ENDSEC
  0
SECTION
  2
BLOCKS
  0
ENDSEC
  0
SECTION
  2
ENTITIES
  0
LINE
  8
0
 10
-194.250000
 20
132.600006
 11
194.800003
 21
132.600006
  0
LINE
  8
0
 10
194.800003
 20
132.600006
 11
194.800003
 21
-133.500000
  0
LINE
  8
0
 10
-194.250000
 20
132.600006
 11
-194.250000
 21
-133.500000
  0
LINE
  8
0
 10
-194.250000
 20
-133.500000
 11
194.800003
 21
-133.500000
  0
LINE
  8
0
 10
109.800003
 20
-118.500000
 11
109.800003
 21
-133.500000
  0
LINE
  8
0
 10
109.800003
 20
-118.500000
 11
194.800003
 21
-118.500000
  0
LINE
  8
0
 10
109.800003
 20
132.600006
 11
109.800003
 21
117.600006
  0
LINE
  8
0
 10
109.800003
 20
117.600006
 11
194.800003
 21
117.600006
  0
LINE
  8
0
 10
-194.250000
 20
117.600006
 11
-109.250000
 21
117.600006
  0
LINE
  8
0
 10
-109.250000
 20
132.600006
 11
-109.250000
 21
117.600006
  0
LINE
  8
0
  6
CENTER
 62
     2
 10
-55.000008
 20
-27.705154
 11
-55.000008
 21
38.623825
  0
LINE
  8
0
 10
-25.000000
 20
35.000019
 11
-85.000000
 21
35.000019
  0
LINE
  8
0
 10
-24.999985
 20
-24.999977
 11
-84.999985
 21
-24.999977
  0
LINE
  8
0
 10
-25.000015
 20
-24.999985
 11
-25.000015
 21
-7.999977
  0
LINE
  8
0
 10
-85.000008
 20
-24.999985
 11
-85.000008
 21
1.999977
  0
LINE
  8
0
 10
-58.000008
 20
29.000015
 11
-58.000008
 21
35.000015
  0
LINE
  8
0
 10
-52.000008
 20
29.000015
 11
-52.000008
 21
35.000015
  0
LINE
  8
0
 10
-21.700012
 20
7.100025
 11
-29.700012
 21
7.100025
  0
LINE
  8
0
 10
-21.700012
 20
16.900013
 11
-25.000000
 21
16.900013
  0
LINE
  8
0
 10
-21.700012
 20
7.100029
 11
-21.700012
 21
16.900017
  0
LINE
  8
0
 10
-17.700012
 20
8.000023
 11
-17.700012
 21
16.000023
  0
LINE
  8
0
 10
-17.700012
 20
8.000019
 11
-21.700012
 21
8.000019
  0
LINE
  8
0
 10
-17.700012
 20
16.000019
 11
-21.700012
 21
16.000019
  0
LINE
  8
0
 10
-16.700012
 20
8.000023
 11
-16.700012
 21
16.000023
  0
LINE
  8
0
 10
-14.700012
 20
8.000023
 11
-14.700012
 21
16.000023
  0
LINE
  8
0
 10
-14.700012
 20
16.000019
 11
-16.700012
 21
16.000019
  0
LINE
  8
0
 10
-14.700012
 20
8.000019
 11
-16.700012
 21
8.000019
  0
LINE
  8
0
 10
-16.700012
 20
14.500019
 11
-17.700012
 21
14.500019
  0
LINE
  8
0
 10
-16.700012
 20
9.500019
 11
-17.700012
 21
9.500019
  0
LINE
  8
0
 10
-12.300003
 20
10.500019
 11
-14.700012
 21
10.500019
  0
LINE
  8
0
 10
-12.300003
 20
13.500019
 11
-14.700012
 21
13.500019
  0
LINE
  8
0
 10
-12.300003
 20
9.500023
 11
-12.300003
 21
14.500023
  0
LINE
  8
0
 10
-7.300018
 20
14.500019
 11
-12.300003
 21
14.500019
  0
LINE
  8
0
 10
-7.300018
 20
9.500019
 11
-12.300003
 21
9.500019
  0
LINE
  8
0
 10
-7.300018
 20
9.500023
 11
-7.300018
 21
14.500023
  0
LINE
  8
0
 10
-85.000000
 20
18.000004
 11
-71.000000
 21
18.000004
  0
LINE
  8
0
 10
-85.000000
 20
2.000004
 11
-71.000000
 21
2.000004
  0
LINE
  8
0
 10
-71.000023
 20
18.000015
 11
-71.000023
 21
2.000015
  0
LINE
  8
0
 62
     4
 10
-82.000000
 20
10.000004
 11
-76.000015
 21
10.000004
  0
LINE
  8
0
 62
     4
 10
-82.000000
 20
3.000004
 11
-71.000000
 21
3.000004
  0
LINE
  8
0
 10
-76.000023
 20
18.000015
 11
-76.000023
 21
15.999985
  0
LINE
  8
0
 62
     4
 10
-82.000023
 20
10.000015
 11
-82.000023
 21
3.000000
  0
LINE
  8
0
 62
     4
 10
-84.000000
 20
9.000004
 11
-82.000000
 21
9.000004
  0
LINE
  8
0
 62
     4
 10
-84.000000
 20
4.000004
 11
-82.000000
 21
4.000004
  0
LINE
  8
0
 62
     4
 10
-84.000023
 20
9.000015
 11
-84.000023
 21
4.000015
  0
LINE
  8
0
 62
     4
 10
-95.273003
 20
8.000004
 11
-84.000000
 21
8.000004
  0
LINE
  8
0
 62
     4
 10
-93.540955
 20
5.000004
 11
-84.000000
 21
5.000004
  0
LINE
  8
0
 10
-72.100021
 20
16.800003
 11
-72.100021
 21
11.199997
  0
LINE
  8
0
 62
     4
 10
-72.800018
 20
16.800003
 11
-72.800018
 21
11.199997
  0
LINE
  8
0
 10
-74.900017
 20
11.200001
 11
-72.099998
 21
11.200001
  0
LINE
  8
0
 10
-74.900017
 20
16.800007
 11
-72.099998
 21
16.800007
  0
LINE
  8
0
 62
     4
 10
-84.700012
 20
16.800007
 11
-81.000000
 21
16.800007
  0
LINE
  8
0
 62
     4
 10
-81.700020
 20
16.800003
 11
-81.700020
 21
11.199997
  0
LINE
  8
0
 62
     4
 10
-84.700012
 20
11.200001
 11
-81.000000
 21
11.200001
  0
LINE
  8
0
 10
-76.000000
 20
12.000004
 11
-74.900017
 21
12.000004
  0
LINE
  8
0
 10
-76.000000
 20
16.000004
 11
-74.900017
 21
16.000004
  0
LINE
  8
0
 10
-74.900024
 20
16.800003
 11
-74.900024
 21
15.999985
  0
LINE
  8
0
 62
     4
 10
-81.000023
 20
18.000015
 11
-81.000023
 21
10.000015
  0
LINE
  8
0
  6
CENTER
 62
     2
 10
-100.622421
 20
5.000004
 11
-7.652847
 21
5.000004
  0
LINE
  8
0
 10
-25.000015
 20
8.000023
 11
-25.000015
 21
35.000023
  0
LINE
  8
0
 10
-85.000008
 20
17.999977
 11
-85.000008
 21
35.000008
  0
LINE
  8
0
 10
-25.000000
 20
-7.999981
 11
-39.000000
 21
-7.999981
  0
LINE
  8
0
 10
-25.000000
 20
8.000019
 11
-39.000000
 21
8.000019
  0
LINE
  8
0
 10
-39.000008
 20
-7.999985
 11
-39.000008
 21
8.000015
  0
LINE
  8
0
 62
     4
 10
-28.000000
 20
0.000019
 11
-34.000000
 21
0.000019
  0
LINE
  8
0
 62
     4
 10
-28.000000
 20
7.000019
 11
-39.000000
 21
7.000019
  0
LINE
  8
0
 10
-34.000008
 20
-7.999985
 11
-34.000008
 21
-5.999985
  0
LINE
  8
0
 62
     4
 10
-28.000015
 20
0.000015
 11
-28.000015
 21
7.000015
  0
LINE
  8
0
 62
     4
 10
-26.000000
 20
1.000019
 11
-28.000000
 21
1.000019
  0
LINE
  8
0
 62
     4
 10
-26.000000
 20
6.000019
 11
-28.000000
 21
6.000019
  0
LINE
  8
0
 62
     4
 10
-26.000015
 20
1.000015
 11
-26.000015
 21
6.000015
  0
LINE
  8
0
 62
     4
 10
-14.018219
 20
2.000019
 11
-26.000000
 21
2.000019
  0
LINE
  8
0
 62
     4
 10
-15.750275
 20
5.000019
 11
-26.000000
 21
5.000019
  0
LINE
  8
0
 10
-37.900009
 20
-6.799988
 11
-37.900009
 21
-1.199982
  0
LINE
  8
0
 10
-35.100006
 20
-6.799988
 11
-35.100006
 21
-5.999985
  0
LINE
  8
0
 62
     4
 10
-37.200012
 20
-6.800003
 11
-37.200012
 21
-1.199997
  0
LINE
  8
0
 10
-35.100006
 20
-1.199978
 11
-37.900009
 21
-1.199978
  0
LINE
  8
0
 10
-35.100006
 20
-6.799984
 11
-37.900009
 21
-6.799984
  0
LINE
  8
0
 62
     4
 10
-25.300003
 20
-6.799984
 11
-29.000000
 21
-6.799984
  0
LINE
  8
0
 62
     4
 10
-28.300003
 20
-6.799988
 11
-28.300003
 21
-1.199982
  0
LINE
  8
0
 62
     4
 10
-25.300003
 20
-1.199978
 11
-29.000000
 21
-1.199978
  0
LINE
  8
0
 10
-34.000000
 20
-1.999981
 11
-35.100006
 21
-1.999981
  0
LINE
  8
0
 10
-34.000000
 20
-5.999981
 11
-35.100006
 21
-5.999981
  0
LINE
  8
0
 62
     4
 10
-29.000015
 20
-7.999985
 11
-29.000015
 21
0.000015
  0
LINE
  8
0
 62
     4
 10
-25.300003
 20
-6.799988
 11
-25.300003
 21
-1.199982
  0
LINE
  8
0
 62
     4
 10
-84.700020
 20
16.800003
 11
-84.700020
 21
11.199997
  0
LINE
  8
0
 10
-29.700012
 20
7.100021
 11
-29.700012
 21
8.000015
  0
LINE
  8
0
 10
-76.000015
 20
10.000004
 11
-71.000000
 21
10.000004
  0
LINE
  8
0
 10
-76.000023
 20
11.999985
 11
-76.000023
 21
10.000015
  0
LINE
  8
0
 10
-34.000008
 20
-1.999985
 11
-34.000008
 21
0.000015
  0
LINE
  8
0
 10
-34.000000
 20
0.000019
 11
-39.000000
 21
0.000019
  0
LINE
  8
0
 10
-35.100006
 20
-1.999985
 11
-35.100006
 21
-1.199997
  0
LINE
  8
0
 10
-74.900024
 20
11.999985
 11
-74.900024
 21
11.199997
  0
LINE
  8
0
  6
CENTER
 62
     2
 10
-30.000000
 20
33.500015
 11
-30.000000
 21
26.500015
  0
LINE
  8
0
  6
CENTER
 62
     2
 10
-30.000000
 20
-16.499985
 11
-30.000000
 21
-23.499985
  0
LINE
  8
0
  6
CENTER
 62
     2
 10
-80.000000
 20
-16.499985
 11
-80.000000
 21
-23.499985
  0
LINE
  8
0
  6
CENTER
 62
     2
 10
-80.000000
 20
33.500015
 11
-80.000000
 21
26.500015
  0
LINE
  8
0
  6
CENTER
 62
     2
 10
-50.500000
 20
-19.999977
 11
-59.500000
 21
-19.999977
  0
LINE
  8
0
  6
CENTER
 62
     2
 10
-76.500000
 20
-19.999977
 11
-83.500000
 21
-19.999977
  0
LINE
  8
0
  6
CENTER
 62
     2
 10
-76.500000
 20
30.000019
 11
-83.500000
 21
30.000019
  0
LINE
  8
0
  6
CENTER
 62
     2
 10
-26.500000
 20
30.000019
 11
-33.500000
 21
30.000019
  0
LINE
  8
0
  6
CENTER
 62
     2
 10
-26.500000
 20
-19.999977
 11
-33.500000
 21
-19.999977
  0
LINE
  8
0
 62
     1
 10
-16.625587
 20
6.516143
 11
-13.194092
 21
0.572619
  0
LINE
  8
0
 62
     1
 10
-95.912300
 20
9.107276
 11
-92.652046
 21
3.460364
  0
LINE
  8
0
 10
-169.577560
 20
34.199993
 11
-170.577560
 21
34.199993
  0
LINE
  8
0
 10
-169.577545
 20
28.199993
 11
-170.577545
 21
28.199993
  0
LINE
  8
0
 10
-169.577438
 20
34.199883
 11
-169.577438
 21
28.199883
  0
LINE
  8
0
 10
-168.577560
 20
33.199993
 11
-169.577560
 21
33.199993
  0
LINE
  8
0
 62
     4
 10
-142.849182
 20
16.250011
 11
-144.305817
 21
16.250011
  0
LINE
  8
0
 62
     4
 10
-142.849182
 20
13.750011
 11
-144.305801
 21
13.750011
  0
LINE
  8
0
 62
     4
 10
-142.127563
 20
14.999978
 11
-142.849243
 21
13.749992
  0
LINE
  8
0
 62
     4
 10
-144.305908
 20
16.249989
 11
-145.027603
 21
14.999990
  0
LINE
  8
0
 62
     4
 10
-145.027405
 20
15.000033
 11
-144.305725
 21
13.750034
  0
LINE
  8
0
 62
     4
 10
-142.849075
 20
16.249962
 11
-142.127396
 21
14.999976
  0
LINE
  8
0
 10
-137.577408
 20
-20.799995
 11
-168.577408
 21
-20.799995
  0
LINE
  8
0
 10
-166.550217
 20
16.272755
 11
-164.004639
 21
13.727183
  0
LINE
  8
0
 10
-164.004791
 20
16.272791
 11
-166.550385
 21
13.727201
  0
LINE
  8
0
 10
-136.150223
 20
16.272821
 11
-133.604645
 21
13.727243
  0
LINE
  8
0
 10
-133.604721
 20
16.272757
 11
-136.150314
 21
13.727173
  0
LINE
  8
0
 62
     2
 10
-168.577530
 20
25.199993
 11
-170.577530
 21
25.199993
  0
LINE
  8
0
 10
-168.577530
 20
24.699993
 11
-170.577530
 21
24.699993
  0
LINE
  8
0
  6
CENTER
 62
     2
 10
-126.326584
 20
-19.999977
 11
-140.630600
 21
-19.999977
  0
LINE
  8
0
  6
CENTER
 62
     2
 10
-126.326691
 20
30.000011
 11
-139.462906
 21
30.000011
  0
LINE
  8
0
  6
CENTER
 62
     2
 10
-167.620193
 20
30.000011
 11
-181.924347
 21
30.000011
  0
LINE
  8
0
  6
CENTER
 62
     2
 10
-165.803482
 20
-19.999977
 11
-181.924225
 21
-19.999977
  0
LINE
  8
0
 10
-131.577438
 20
35.199974
 11
-131.577438
 21
-24.800026
  0
LINE
  8
0
  6
CENTER
 62
     2
 10
-126.326630
 20
5.000011
 11
-181.924286
 21
5.000011
  0
LINE
  8
0
 10
-162.577438
 20
35.199898
 11
-162.577438
 21
27.199898
  0
LINE
  8
0
 10
-168.577438
 20
35.199890
 11
-168.577438
 21
-24.800117
  0
LINE
  8
0
 10
-170.577438
 20
35.199883
 11
-170.577438
 21
-24.800117
  0
LINE
  8
0
 10
-176.577438
 20
35.199867
 11
-176.577438
 21
-24.800133
  0
LINE
  8
0
 10
-131.577560
 20
35.199993
 11
-168.577560
 21
35.199993
  0
LINE
  8
0
 10
-131.577393
 20
-24.799995
 11
-168.577393
 21
-24.799995
  0
LINE
  8
0
 10
-170.577560
 20
35.199993
 11
-176.577560
 21
35.199993
  0
LINE
  8
0
 10
-170.577393
 20
-24.799995
 11
-176.577393
 21
-24.799995
  0
LINE
  8
0
 10
-162.577438
 20
35.199898
 11
-162.577438
 21
18.999901
  0
LINE
  8
0
 62
     4
 10
-132.577469
 20
4.000011
 11
-154.577469
 21
4.000011
  0
LINE
  8
0
 62
     4
 10
-132.577438
 20
10.999947
 11
-132.577438
 21
3.999947
  0
LINE
  8
0
 10
-162.577515
 20
19.000011
 11
-168.577515
 21
19.000011
  0
LINE
  8
0
 62
     4
 10
-139.077438
 20
19.499931
 11
-139.077438
 21
10.999931
  0
LINE
  8
0
 62
     4
 10
-148.077438
 20
19.499901
 11
-148.077438
 21
10.999901
  0
LINE
  8
0
 62
     4
 10
-139.077515
 20
19.500011
 11
-148.077515
 21
19.500011
  0
LINE
  8
0
 10
-148.077469
 20
19.000011
 11
-168.577515
 21
19.000011
  0
LINE
  8
0
 10
-131.577499
 20
13.299999
 11
-132.652634
 21
13.299999
  0
LINE
  8
0
 10
-131.577499
 20
16.699993
 11
-132.652634
 21
16.699993
  0
LINE
  8
0
 10
-148.077469
 20
16.699993
 11
-163.052643
 21
16.699993
  0
LINE
  8
0
 10
-148.077469
 20
13.299999
 11
-163.052628
 21
13.299999
  0
LINE
  8
0
 10
-167.502365
 20
16.699993
 11
-168.577499
 21
16.699993
  0
LINE
  8
0
 10
-167.502365
 20
13.299999
 11
-168.577499
 21
13.299999
  0
LINE
  8
0
 10
-142.577545
 20
28.699993
 11
-159.377548
 21
28.699993
  0
LINE
  8
0
 10
-142.577530
 20
24.699993
 11
-162.577530
 21
24.699993
  0
LINE
  8
0
 62
     2
 10
-142.577545
 20
28.199993
 11
-159.377548
 21
28.199993
  0
LINE
  8
0
 62
     2
 10
-142.577530
 20
25.199993
 11
-162.577530
 21
25.199993
  0
LINE
  8
0
 10
-168.577545
 20
28.749981
 11
-169.577545
 21
28.749981
  0
LINE
  8
0
 10
-168.577423
 20
-19.299995
 11
-170.577423
 21
-19.299995
  0
LINE
  8
0
 10
-168.577408
 20
-22.299995
 11
-170.577408
 21
-22.299995
  0
LINE
  8
0
 10
-131.577515
 20
19.000011
 11
-139.077469
 21
19.000011
  0
LINE
  8
0
 10
-137.139694
 20
16.650005
 11
-139.077469
 21
16.650005
  0
LINE
  8
0
 10
-137.139694
 20
13.350018
 11
-139.077469
 21
13.350018
  0
LINE
  8
0
 10
-131.577499
 20
11.000011
 11
-168.577499
 21
11.000011
  0
LINE
  8
0
 10
-131.577469
 20
3.000011
 11
-168.577469
 21
3.000011
  0
LINE
  8
0
 10
-149.577438
 20
33.199928
 11
-149.577438
 21
29.199928
  0
LINE
  8
0
 10
-159.377457
 20
27.649895
 11
-159.377457
 21
34.749901
  0
LINE
  8
0
 10
-159.377426
 20
34.750027
 11
-159.666107
 21
35.250038
  0
LINE
  8
0
 10
-159.666229
 20
35.250011
 11
-162.288879
 21
35.250011
  0
LINE
  8
0
 10
-159.666229
 20
33.250011
 11
-162.288879
 21
33.250011
  0
LINE
  8
0
 10
-149.577545
 20
29.199993
 11
-159.377548
 21
29.199993
  0
LINE
  8
0
 10
-149.577560
 20
33.199993
 11
-159.377548
 21
33.199993
  0
LINE
  8
0
 62
     2
 10
-149.577545
 20
29.699993
 11
-159.377548
 21
29.699993
  0
LINE
  8
0
 62
     2
 10
-149.577560
 20
32.699993
 11
-159.377548
 21
32.699993
  0
LINE
  8
0
 10
-159.666214
 20
29.150005
 11
-162.288864
 21
29.150005
  0
LINE
  8
0
 10
-159.666336
 20
27.149994
 11
-159.377655
 21
27.650003
  0
LINE
  8
0
 10
-159.666214
 20
27.150005
 11
-162.288864
 21
27.150005
  0
LINE
  8
0
 10
-162.288773
 20
27.149946
 11
-162.577454
 21
27.649956
  0
LINE
  8
0
 10
-162.577682
 20
34.749958
 11
-162.289001
 21
35.249969
  0
LINE
  8
0
 10
-137.577438
 20
35.199959
 11
-137.577438
 21
18.999962
  0
LINE
  8
0
 10
-137.577438
 20
2.999962
 11
-137.577438
 21
-24.800041
  0
LINE
  8
0
 10
-168.577469
 20
2.000011
 11
-170.577469
 21
2.000011
  0
LINE
  8
0
 10
-168.577484
 20
8.000011
 11
-170.577484
 21
8.000011
  0
LINE
  8
0
 10
-168.911713
 20
-1.800007
 11
-170.577469
 21
-1.800007
  0
LINE
  8
0
 10
-137.577530
 20
30.750011
 11
-140.577545
 21
30.750011
  0
LINE
  8
0
 10
-137.577530
 20
28.750011
 11
-140.577545
 21
28.750011
  0
LINE
  8
0
 10
-137.577515
 20
24.650005
 11
-140.577530
 21
24.650005
  0
LINE
  8
0
 10
-137.577515
 20
22.650005
 11
-140.577530
 21
22.650005
  0
LINE
  8
0
 10
-140.577438
 20
22.449974
 11
-140.577438
 21
30.949974
  0
LINE
  8
0
 10
-140.577545
 20
30.950024
 11
-142.577545
 21
30.950024
  0
LINE
  8
0
 10
-142.577438
 20
22.449959
 11
-142.577438
 21
30.949959
  0
LINE
  8
0
 10
-140.577515
 20
22.450024
 11
-142.577515
 21
22.450024
  0
LINE
  8
0
 62
     4
 10
-154.577438
 20
10.999947
 11
-154.577438
 21
3.999947
  0
LINE
  8
0
 10
25.251205
 20
-25.199974
 11
25.251205
 21
34.800026
  0
LINE
  8
0
  6
CENTER
 62
     2
 10
20.000381
 20
5.000011
 11
75.598038
 21
5.000011
  0
LINE
  8
0
 10
56.251221
 20
-25.199898
 11
56.251221
 21
-17.199898
  0
LINE
  8
0
 10
62.251205
 20
-25.199883
 11
62.251205
 21
9.061043
  0
LINE
  8
0
 10
64.251205
 20
-25.199883
 11
64.251205
 21
34.800117
  0
LINE
  8
0
 10
70.251205
 20
-25.199867
 11
70.251205
 21
34.800133
  0
LINE
  8
0
 10
25.251328
 20
-25.199959
 11
62.251328
 21
-25.199959
  0
LINE
  8
0
 10
25.251160
 20
34.800030
 11
62.251160
 21
34.800030
  0
LINE
  8
0
 10
64.251328
 20
-25.199959
 11
70.251328
 21
-25.199959
  0
LINE
  8
0
 10
64.251160
 20
34.800030
 11
70.251160
 21
34.800030
  0
LINE
  8
0
 10
56.251221
 20
-25.199898
 11
56.251221
 21
-8.999901
  0
LINE
  8
0
 62
     4
 10
40.251236
 20
6.000011
 11
62.251236
 21
6.000011
  0
LINE
  8
0
 62
     4
 10
40.251221
 20
-0.999947
 11
40.251221
 21
6.000053
  0
LINE
  8
0
 10
56.251266
 20
-8.999989
 11
62.251266
 21
-8.999989
  0
LINE
  8
0
 62
     4
 10
46.751221
 20
-9.499931
 11
46.751221
 21
-0.999931
  0
LINE
  8
0
 62
     4
 10
55.751221
 20
-9.499901
 11
55.751221
 21
-0.999901
  0
LINE
  8
0
 62
     4
 10
46.751266
 20
-9.499989
 11
55.751266
 21
-9.499989
  0
LINE
  8
0
 10
55.751266
 20
-8.999989
 11
62.251266
 21
-8.999989
  0
LINE
  8
0
 10
25.251251
 20
-3.299976
 11
26.326385
 21
-3.299976
  0
LINE
  8
0
 10
25.251266
 20
-6.699970
 11
26.326401
 21
-6.699970
  0
LINE
  8
0
 10
55.751266
 20
-6.699970
 11
56.726395
 21
-6.699970
  0
LINE
  8
0
 10
55.751251
 20
-3.299976
 11
56.726395
 21
-3.299976
  0
LINE
  8
0
 10
61.176132
 20
-6.699970
 11
62.251266
 21
-6.699970
  0
LINE
  8
0
 10
61.176117
 20
-3.299976
 11
62.251251
 21
-3.299976
  0
LINE
  8
0
 10
36.251297
 20
-18.699959
 11
53.051300
 21
-18.699959
  0
LINE
  8
0
 10
36.251282
 20
-14.699974
 11
56.251282
 21
-14.699974
  0
LINE
  8
0
 62
     2
 10
36.251297
 20
-18.199974
 11
53.051300
 21
-18.199974
  0
LINE
  8
0
 62
     2
 10
36.251282
 20
-15.199974
 11
56.251282
 21
-15.199974
  0
LINE
  8
0
 10
62.251297
 20
-18.749947
 11
63.251297
 21
-18.749947
  0
LINE
  8
0
 10
32.351181
 20
25.700024
 11
42.351181
 21
25.700024
  0
LINE
  8
0
 10
52.851181
 20
25.700024
 11
62.651184
 21
25.700024
  0
LINE
  8
0
 10
53.501221
 20
13.438835
 11
53.501221
 21
23.200081
  0
LINE
  8
0
 10
62.001205
 20
13.438850
 11
62.001205
 21
23.200111
  0
LINE
  8
0
 10
33.001205
 20
13.438789
 11
33.001205
 21
23.200035
  0
LINE
  8
0
 10
41.501221
 20
13.438820
 11
41.501221
 21
23.200050
  0
LINE
  8
0
 10
52.851212
 20
24.200081
 11
52.851212
 21
25.700081
  0
LINE
  8
0
 10
62.651199
 20
24.200111
 11
62.651199
 21
25.700111
  0
LINE
  8
0
 10
32.351181
 20
24.200024
 11
42.351181
 21
24.200024
  0
LINE
  8
0
 10
52.851181
 20
24.200024
 11
62.651184
 21
24.200024
  0
LINE
  8
0
 10
33.001190
 20
23.200024
 11
41.501190
 21
23.200024
  0
LINE
  8
0
 10
32.351212
 20
24.200035
 11
32.351212
 21
25.700035
  0
LINE
  8
0
 10
33.001190
 20
22.200024
 11
41.501190
 21
22.200024
  0
LINE
  8
0
 10
34.001205
 20
23.200035
 11
34.001205
 21
24.200035
  0
LINE
  8
0
 10
40.501221
 20
23.200050
 11
40.501221
 21
24.200050
  0
LINE
  8
0
 10
53.501190
 20
23.200024
 11
62.001190
 21
23.200024
  0
LINE
  8
0
 10
53.501190
 20
22.200024
 11
62.001190
 21
22.200024
  0
LINE
  8
0
 10
54.501221
 20
23.200081
 11
54.501221
 21
24.200081
  0
LINE
  8
0
 10
61.001205
 20
23.200096
 11
61.001205
 21
24.200096
  0
LINE
  8
0
 10
62.251175
 20
29.300030
 11
64.251175
 21
29.300030
  0
LINE
  8
0
 10
62.251175
 20
32.300030
 11
64.251175
 21
32.300030
  0
LINE
  8
0
 10
25.251266
 20
-8.999989
 11
46.751266
 21
-8.999989
  0
LINE
  8
0
 10
30.813461
 20
-6.649982
 11
46.751266
 21
-6.649982
  0
LINE
  8
0
 10
30.813446
 20
-3.349995
 11
46.751251
 21
-3.349995
  0
LINE
  8
0
 10
25.251251
 20
-0.999989
 11
62.251251
 21
-0.999989
  0
LINE
  8
0
 10
25.251236
 20
7.000011
 11
34.421036
 21
7.000011
  0
LINE
  8
0
 10
43.251221
 20
-23.199928
 11
43.251221
 21
-19.199928
  0
LINE
  8
0
 10
53.051224
 20
-17.649895
 11
53.051224
 21
-24.749901
  0
LINE
  8
0
 10
53.051159
 20
-24.750044
 11
53.339840
 21
-25.250055
  0
LINE
  8
0
 10
53.339996
 20
-25.249977
 11
55.962646
 21
-25.249977
  0
LINE
  8
0
 10
53.339996
 20
-23.249977
 11
55.962646
 21
-23.249977
  0
LINE
  8
0
 10
43.251297
 20
-19.199959
 11
53.051300
 21
-19.199959
  0
LINE
  8
0
 10
43.251328
 20
-23.199959
 11
53.051315
 21
-23.199959
  0
LINE
  8
0
 62
     2
 10
43.251297
 20
-19.699959
 11
53.051285
 21
-19.699959
  0
LINE
  8
0
 62
     2
 10
43.251328
 20
-22.699959
 11
53.051315
 21
-22.699959
  0
LINE
  8
0
 10
53.339966
 20
-19.149971
 11
55.962616
 21
-19.149971
  0
LINE
  8
0
 10
53.340199
 20
-17.150036
 11
53.051517
 21
-17.650045
  0
LINE
  8
0
 10
53.339966
 20
-17.149986
 11
55.962616
 21
-17.149986
  0
LINE
  8
0
 10
55.962475
 20
-17.149971
 11
56.251156
 21
-17.649981
  0
LINE
  8
0
 10
56.251537
 20
-24.750029
 11
55.962864
 21
-25.250025
  0
LINE
  8
0
 10
31.251205
 20
-25.199959
 11
31.251205
 21
-8.999962
  0
LINE
  8
0
 10
31.251205
 20
7.000038
 11
31.251205
 21
34.800041
  0
LINE
  8
0
 10
62.251221
 20
8.000011
 11
64.251221
 21
8.000011
  0
LINE
  8
0
 10
62.251236
 20
2.000011
 11
64.251236
 21
2.000011
  0
LINE
  8
0
 10
40.081421
 20
7.000011
 11
54.921036
 21
7.000011
  0
LINE
  8
0
 10
60.581421
 20
7.000011
 11
62.251236
 21
7.000011
  0
LINE
  8
0
 10
62.251205
 20
12.939186
 11
62.251205
 21
24.200111
  0
LINE
  8
0
 10
62.251205
 20
25.700111
 11
62.251205
 21
34.800117
  0
LINE
  8
0
 10
62.585464
 20
11.800030
 11
64.251221
 21
11.800030
  0
LINE
  8
0
 10
31.251297
 20
-20.749977
 11
34.251312
 21
-20.749977
  0
LINE
  8
0
 10
31.251282
 20
-18.749977
 11
34.251297
 21
-18.749977
  0
LINE
  8
0
 10
31.251266
 20
-14.649986
 11
34.251282
 21
-14.649986
  0
LINE
  8
0
 10
31.251266
 20
-12.649986
 11
34.251266
 21
-12.649986
  0
LINE
  8
0
 10
34.251205
 20
-12.449974
 11
34.251205
 21
-20.949974
  0
LINE
  8
0
 10
34.251312
 20
-20.949989
 11
36.251312
 21
-20.949989
  0
LINE
  8
0
 10
36.251221
 20
-12.449959
 11
36.251221
 21
-20.949959
  0
LINE
  8
0
 10
34.251266
 20
-12.450005
 11
36.251266
 21
-12.450005
  0
LINE
  8
0
 10
63.251328
 20
-24.199959
 11
64.251328
 21
-24.199959
  0
LINE
  8
0
 10
63.251297
 20
-18.199974
 11
64.251297
 21
-18.199974
  0
LINE
  8
0
 10
63.251205
 20
-24.199883
 11
63.251205
 21
-18.199883
  0
LINE
  8
0
 10
62.251328
 20
-23.199959
 11
63.251328
 21
-23.199959
  0
LINE
  8
0
 62
     4
 10
50.522934
 20
-6.249989
 11
51.979568
 21
-6.249989
  0
LINE
  8
0
 62
     4
 10
50.522934
 20
-3.749989
 11
51.979568
 21
-3.749989
  0
LINE
  8
0
 62
     4
 10
49.801479
 20
-5.000011
 11
50.523151
 21
-3.750038
  0
LINE
  8
0
 62
     4
 10
51.979778
 20
-6.250055
 11
52.701466
 21
-5.000055
  0
LINE
  8
0
 62
     4
 10
52.701118
 20
-5.000042
 11
51.979424
 21
-3.750030
  0
LINE
  8
0
 62
     4
 10
50.522804
 20
-6.249983
 11
49.801117
 21
-4.999984
  0
LINE
  8
0
 10
42.351212
 20
24.200050
 11
42.351212
 21
25.700050
  0
LINE
  8
0
 10
31.251175
 20
30.800030
 11
62.251175
 21
30.800030
  0
LINE
  8
0
 10
60.223984
 20
-6.272782
 11
57.678394
 21
-3.727194
  0
LINE
  8
0
 10
57.678574
 20
-6.272799
 11
60.224163
 21
-3.727210
  0
LINE
  8
0
 10
29.823961
 20
-6.272830
 11
27.278381
 21
-3.727252
  0
LINE
  8
0
 10
27.278490
 20
-6.272815
 11
29.824080
 21
-3.727225
  0
LINE
  8
0
 62
     2
 10
62.251282
 20
-15.199974
 11
64.251282
 21
-15.199974
  0
LINE
  8
0
 10
62.251282
 20
-14.699974
 11
64.251282
 21
-14.699974
  0
LINE
  8
0
  6
CENTER
 62
     2
 10
20.000320
 20
30.000011
 11
34.304352
 21
30.000011
  0
LINE
  8
0
  6
CENTER
 62
     2
 10
20.000443
 20
-19.999977
 11
33.136658
 21
-19.999977
  0
LINE
  8
0
  6
CENTER
 62
     2
 10
61.293961
 20
-19.999977
 11
75.598099
 21
-19.999977
  0
LINE
  8
0
  6
CENTER
 62
     2
 10
59.477234
 20
30.000011
 11
75.597977
 21
30.000011
  0
LINE
  8
0
  6
CENTER
 62
     2
 10
-55.000008
 20
69.622452
 11
-55.000008
 21
128.498016
  0
LINE
  8
0
 10
-35.000008
 20
113.999985
 11
-76.000092
 21
113.999985
  0
LINE
  8
0
 10
-25.000015
 20
77.000061
 11
-25.000015
 21
83.000061
  0
LINE
  8
0
 10
-85.000008
 20
76.999924
 11
-85.000008
 21
82.999924
  0
LINE
  8
0
 10
-25.000031
 20
82.999985
 11
-39.000031
 21
82.999985
  0
LINE
  8
0
 10
-58.500008
 20
82.999985
 11
-58.500008
 21
107.999985
  0
LINE
  8
0
 10
-58.500023
 20
82.999985
 11
-85.000023
 21
82.999985
  0
LINE
  8
0
 10
-66.500008
 20
87.999962
 11
-66.500008
 21
107.999962
  0
LINE
  8
0
 10
-62.500008
 20
87.999969
 11
-62.500008
 21
107.999969
  0
LINE
  8
0
 62
     2
 10
-66.000008
 20
87.999962
 11
-66.000008
 21
107.999962
  0
LINE
  8
0
 62
     2
 10
-63.000008
 20
87.999969
 11
-63.000008
 21
107.999969
  0
LINE
  8
0
 10
-35.000008
 20
83.000031
 11
-35.000008
 21
114.000031
  0
LINE
  8
0
 10
-58.500076
 20
107.999985
 11
-75.000076
 21
107.999985
  0
LINE
  8
0
 62
     4
 10
-82.000008
 20
82.999924
 11
-82.000008
 21
86.249924
  0
LINE
  8
0
 10
-75.000008
 20
107.999939
 11
-75.000008
 21
113.999939
  0
LINE
  8
0
 10
-25.000015
 20
76.999985
 11
-85.000008
 21
76.999985
  0
LINE
  8
0
 10
-33.300034
 20
84.999985
 11
-35.000031
 21
84.999985
  0
LINE
  8
0
 10
-33.300056
 20
92.999985
 11
-35.000053
 21
92.999985
  0
LINE
  8
0
 10
-33.300011
 20
84.100037
 11
-33.300011
 21
93.900040
  0
LINE
  8
0
 62
     4
 10
-76.000061
 20
99.999985
 11
-82.000061
 21
99.999985
  0
LINE
  8
0
 10
-71.000008
 20
82.999954
 11
-71.000008
 21
94.999954
  0
LINE
  8
0
 62
     4
 10
-82.000046
 20
92.499985
 11
-84.000046
 21
92.499985
  0
LINE
  8
0
 62
     4
 10
-82.000053
 20
97.499985
 11
-84.000053
 21
97.499985
  0
LINE
  8
0
 62
     4
 10
-84.000046
 20
93.299988
 11
-90.983322
 21
93.299988
  0
LINE
  8
0
 62
     4
 10
-84.000053
 20
96.699997
 11
-92.946320
 21
96.699997
  0
LINE
  8
0
 62
     4
 10
-84.000008
 20
92.499924
 11
-84.000008
 21
97.499924
  0
LINE
  8
0
 10
-76.000008
 20
82.999939
 11
-76.000008
 21
105.059784
  0
LINE
  8
0
 62
     4
 10
-76.000023
 20
84.499985
 11
-81.000023
 21
84.499985
  0
LINE
  8
0
 62
     4
 10
-76.000046
 20
93.499985
 11
-81.000046
 21
93.499985
  0
LINE
  8
0
 62
     4
 10
-81.000008
 20
84.499924
 11
-81.000008
 21
93.499924
  0
LINE
  8
0
 62
     4
 10
-81.000031
 20
86.249985
 11
-84.500031
 21
86.249985
  0
LINE
  8
0
 62
     4
 10
-81.000046
 20
91.749985
 11
-84.500046
 21
91.749985
  0
LINE
  8
0
 62
     4
 10
-81.500008
 20
86.249924
 11
-81.500008
 21
91.749924
  0
LINE
  8
0
 62
     4
 10
-82.000008
 20
91.749924
 11
-82.000008
 21
99.999924
  0
LINE
  8
0
 10
-70.000008
 20
113.999954
 11
-70.000008
 21
114.999954
  0
LINE
  8
0
 10
-74.000008
 20
113.999947
 11
-74.000008
 21
114.999947
  0
LINE
  8
0
 10
-60.450005
 20
82.999977
 11
-60.450005
 21
85.999977
  0
LINE
  8
0
 10
-62.450005
 20
82.999969
 11
-62.450005
 21
85.999969
  0
LINE
  8
0
 10
-66.550011
 20
82.999962
 11
-66.550011
 21
85.999962
  0
LINE
  8
0
 10
-68.550011
 20
82.999954
 11
-68.550011
 21
85.999954
  0
LINE
  8
0
 10
-68.750031
 20
85.999985
 11
-60.250031
 21
85.999985
  0
LINE
  8
0
 10
-60.250008
 20
85.999977
 11
-60.250008
 21
87.999977
  0
LINE
  8
0
 10
-68.750031
 20
87.999985
 11
-60.250031
 21
87.999985
  0
LINE
  8
0
 10
-68.750008
 20
85.999954
 11
-68.750008
 21
87.999954
  0
LINE
  8
0
 10
-68.000076
 20
107.999985
 11
-76.000076
 21
107.999985
  0
LINE
  8
0
 10
-74.000008
 20
94.999947
 11
-74.000008
 21
104.799942
  0
LINE
  8
0
 10
-70.000008
 20
94.999954
 11
-70.000008
 21
104.799957
  0
LINE
  8
0
 62
     2
 10
-73.500008
 20
94.999947
 11
-73.500008
 21
104.799950
  0
LINE
  8
0
 62
     2
 10
-70.500008
 20
94.999954
 11
-70.500008
 21
104.799957
  0
LINE
  8
0
 10
-39.000008
 20
83.000031
 11
-39.000008
 21
114.000031
  0
LINE
  8
0
 62
     4
 10
-84.500008
 20
86.249924
 11
-84.500008
 21
91.749924
  0
LINE
  8
0
 10
-25.000107
 20
115.999985
 11
-38.500107
 21
115.999985
  0
LINE
  8
0
 10
-25.000122
 20
121.999985
 11
-85.000107
 21
121.999985
  0
LINE
  8
0
 10
-25.000015
 20
116.000061
 11
-25.000015
 21
122.000069
  0
LINE
  8
0
 10
-85.000008
 20
115.999924
 11
-85.000008
 21
121.999916
  0
LINE
  8
0
 10
-58.000008
 20
113.999985
 11
-58.000008
 21
116.499985
  0
LINE
  8
0
 10
-69.000008
 20
114.999954
 11
-69.000008
 21
115.999954
  0
LINE
  8
0
 10
-75.000008
 20
114.999939
 11
-75.000008
 21
115.999939
  0
LINE
  8
0
 10
-69.000092
 20
114.999985
 11
-75.000092
 21
114.999985
  0
LINE
  8
0
 10
-67.950005
 20
105.088638
 11
-67.950005
 21
107.711288
  0
LINE
  8
0
 10
-68.450073
 20
104.799919
 11
-67.950073
 21
105.088593
  0
LINE
  8
0
 10
-75.550079
 20
104.799988
 11
-68.450073
 21
104.799988
  0
LINE
  8
0
 10
-69.950005
 20
105.088631
 11
-69.950005
 21
107.711281
  0
LINE
  8
0
 10
-74.050011
 20
105.088623
 11
-74.050011
 21
107.711273
  0
LINE
  8
0
 10
-76.050049
 20
105.088707
 11
-75.550056
 21
104.800034
  0
LINE
  8
0
 10
-76.050011
 20
105.088615
 11
-76.050011
 21
107.711266
  0
LINE
  8
0
 10
-76.050095
 20
107.711250
 11
-75.550079
 21
107.999931
  0
LINE
  8
0
 10
-68.450020
 20
108.000076
 11
-67.950020
 21
107.711403
  0
LINE
  8
0
 10
-21.700027
 20
84.099991
 11
-33.300034
 21
84.099991
  0
LINE
  8
0
 10
-21.700058
 20
93.899994
 11
-33.300056
 21
93.899994
  0
LINE
  8
0
 10
-21.700012
 20
84.100067
 11
-21.700012
 21
93.900070
  0
LINE
  8
0
 10
-17.700012
 20
85.000076
 11
-17.700012
 21
93.000076
  0
LINE
  8
0
 10
-17.700027
 20
84.999985
 11
-21.700027
 21
84.999985
  0
LINE
  8
0
 10
-17.700058
 20
92.999985
 11
-21.700058
 21
92.999985
  0
LINE
  8
0
 10
-16.700012
 20
85.000084
 11
-16.700012
 21
93.000084
  0
LINE
  8
0
 10
-14.700012
 20
85.000092
 11
-14.700012
 21
93.000092
  0
LINE
  8
0
 10
-14.700058
 20
92.999985
 11
-16.700058
 21
92.999985
  0
LINE
  8
0
 10
-14.700027
 20
84.999985
 11
-16.700027
 21
84.999985
  0
LINE
  8
0
 10
-16.700043
 20
91.499985
 11
-17.700043
 21
91.499985
  0
LINE
  8
0
 10
-16.700027
 20
86.499985
 11
-17.700027
 21
86.499985
  0
LINE
  8
0
 10
-12.300034
 20
87.499985
 11
-14.700027
 21
87.499985
  0
LINE
  8
0
 10
-12.300049
 20
90.499985
 11
-14.700043
 21
90.499985
  0
LINE
  8
0
 10
-12.300003
 20
86.500092
 11
-12.300003
 21
91.500092
  0
LINE
  8
0
 10
-7.300049
 20
91.499985
 11
-12.300049
 21
91.499985
  0
LINE
  8
0
 10
-7.300034
 20
86.499985
 11
-12.300034
 21
86.499985
  0
LINE
  8
0
 10
-7.300018
 20
86.500107
 11
-7.300018
 21
91.500107
  0
LINE
  8
0
 10
-33.300102
 20
113.499985
 11
-35.000099
 21
113.499985
  0
LINE
  8
0
 10
-33.300079
 20
105.499985
 11
-35.000076
 21
105.499985
  0
LINE
  8
0
 10
-21.700089
 20
114.399994
 11
-33.300102
 21
114.399994
  0
LINE
  8
0
 10
-21.700073
 20
104.599991
 11
-33.300079
 21
104.599991
  0
LINE
  8
0
 10
-21.700012
 20
104.600067
 11
-21.700012
 21
114.400070
  0
LINE
  8
0
 10
-33.300011
 20
104.600037
 11
-33.300011
 21
114.400040
  0
LINE
  8
0
 10
-17.700012
 20
105.500076
 11
-17.700012
 21
113.500076
  0
LINE
  8
0
 10
-17.700073
 20
105.499985
 11
-21.700073
 21
105.499985
  0
LINE
  8
0
 10
-17.700089
 20
113.499985
 11
-21.700089
 21
113.499985
  0
LINE
  8
0
 10
-16.700012
 20
105.500084
 11
-16.700012
 21
113.500084
  0
LINE
  8
0
 10
-14.700012
 20
105.500092
 11
-14.700012
 21
113.500092
  0
LINE
  8
0
 10
-14.700073
 20
105.499985
 11
-16.700073
 21
105.499985
  0
LINE
  8
0
 10
-14.700089
 20
113.499985
 11
-16.700089
 21
113.499985
  0
LINE
  8
0
 10
-16.700089
 20
111.999985
 11
-17.700089
 21
111.999985
  0
LINE
  8
0
 10
-16.700089
 20
106.999985
 11
-17.700089
 21
106.999985
  0
LINE
  8
0
 10
-12.300095
 20
107.999985
 11
-14.700089
 21
107.999985
  0
LINE
  8
0
 10
-12.300095
 20
110.999985
 11
-14.700089
 21
110.999985
  0
LINE
  8
0
 10
-12.300003
 20
107.000092
 11
-12.300003
 21
112.000092
  0
LINE
  8
0
 10
-7.300095
 20
111.999985
 11
-12.300095
 21
111.999985
  0
LINE
  8
0
 10
-7.300095
 20
106.999985
 11
-12.300095
 21
106.999985
  0
LINE
  8
0
 10
-7.300018
 20
107.000107
 11
-7.300018
 21
112.000107
  0
LINE
  8
0
 10
-70.000046
 20
94.999985
 11
-74.000046
 21
94.999985
  0
LINE
  8
0
 10
-59.500008
 20
115.999977
 11
-59.500008
 21
116.499977
  0
LINE
  8
0
 10
-37.500008
 20
116.000031
 11
-37.500008
 21
116.500031
  0
LINE
  8
0
 10
-37.500107
 20
116.499985
 11
-59.500099
 21
116.499985
  0
LINE
  8
0
 10
-58.000092
 20
115.999985
 11
-85.000092
 21
115.999985
  0
LINE
  8
0
 10
-38.500008
 20
114.000031
 11
-38.500008
 21
116.500031
  0
LINE
  8
0
 10
-58.000008
 20
76.999985
 11
-58.000008
 21
80.999985
  0
LINE
  8
0
 10
-52.000008
 20
77.000000
 11
-52.000008
 21
81.000000
  0
LINE
  8
0
 10
-52.000015
 20
80.999985
 11
-58.000015
 21
80.999985
  0
LINE
  8
0
 10
-62.500008
 20
113.999969
 11
-62.500008
 21
115.999969
  0
LINE
  8
0
 62
     2
 10
-63.000008
 20
113.999969
 11
-63.000008
 21
115.999969
  0
LINE
  8
0
 62
     2
 10
-66.000008
 20
113.999962
 11
-66.000008
 21
115.999962
  0
LINE
  8
0
 10
-66.500008
 20
113.999962
 11
-66.500008
 21
115.999962
  0
LINE
  8
0
 62
     1
 10
-93.468536
 20
97.604561
 11
-90.454445
 21
92.384018
  0
LINE
  8
0
  6
CENTER
 62
     2
 10
-30.000015
 20
69.622513
 11
-30.000015
 21
85.528366
  0
LINE
  8
0
  6
CENTER
 62
     2
 10
-80.000008
 20
69.622398
 11
-80.000008
 21
86.262367
  0
LINE
  8
0
  6
CENTER
 62
     2
 10
-30.000015
 20
110.121429
 11
-30.000015
 21
124.532150
  0
LINE
  8
0
  6
CENTER
 62
     2
 10
-80.000008
 20
111.406036
 11
-80.000008
 21
124.091499
  0
LINE
  8
0
 62
     4
 10
-35.000008
 20
113.999985
 11
-33.300011
 21
113.999985
  0
LINE
  8
0
 62
     4
 10
-28.000076
 20
100.249985
 11
-25.500046
 21
100.249985
  0
LINE
  8
0
 62
     4
 10
-28.000076
 20
93.899994
 11
-28.000076
 21
104.599991
  0
LINE
  8
0
 62
     4
 10
-25.500076
 20
100.249924
 11
-25.500076
 21
104.599991
  0
LINE
  8
0
 10
-76.000008
 20
107.740166
 11
-76.000008
 21
113.999939
  0
LINE
  8
0
  6
CENTER
 62
     2
 10
-55.000008
 20
-48.622452
 11
-55.000008
 21
-127.613617
  0
LINE
  8
0
 10
-75.999992
 20
-92.999977
 11
-33.999916
 21
-92.999977
  0
LINE
  8
0
 10
-85.000008
 20
-56.000069
 11
-85.000008
 21
-62.000069
  0
LINE
  8
0
 10
-25.000015
 20
-55.999916
 11
-25.000015
 21
-61.999916
  0
LINE
  8
0
 10
-84.999977
 20
-61.999977
 11
-70.999977
 21
-61.999977
  0
LINE
  8
0
  6
PHANTOM
 62
     2
 10
-84.999840
 20
-121.000000
 11
-24.999863
 21
-121.000000
  0
LINE
  8
0
  6
PHANTOM
 62
     2
 10
-85.000008
 20
-115.000061
 11
-85.000008
 21
-121.000061
  0
LINE
  8
0
  6
PHANTOM
 62
     2
 10
-25.000015
 20
-114.999908
 11
-25.000015
 21
-120.999908
  0
LINE
  8
0
 10
-51.500008
 20
-61.999977
 11
-51.500008
 21
-86.999977
  0
LINE
  8
0
 10
-51.499992
 20
-61.999977
 11
-24.999985
 21
-61.999977
  0
LINE
  8
0
 10
-43.500008
 20
-66.999947
 11
-43.500008
 21
-86.999947
  0
LINE
  8
0
 10
-47.500008
 20
-66.999977
 11
-47.500008
 21
-86.999977
  0
LINE
  8
0
 62
     2
 10
-44.000008
 20
-66.999947
 11
-44.000008
 21
-86.999947
  0
LINE
  8
0
 62
     2
 10
-47.000008
 20
-66.999977
 11
-47.000008
 21
-86.999977
  0
LINE
  8
0
 10
-51.499931
 20
-86.999977
 11
-34.999931
 21
-86.999977
  0
LINE
  8
0
 10
-35.000015
 20
-86.999947
 11
-35.000015
 21
-92.999947
  0
LINE
  8
0
 10
-84.999992
 20
-55.999977
 11
-25.000000
 21
-55.999977
  0
LINE
  8
0
 10
-33.300011
 20
-63.999977
 11
-34.000000
 21
-63.999977
  0
LINE
  8
0
 10
-33.299995
 20
-63.100044
 11
-33.299995
 21
-70.999977
  0
LINE
  8
0
 10
-39.000008
 20
-61.999947
 11
-39.000008
 21
-73.999947
  0
LINE
  8
0
 10
-34.000015
 20
-61.999947
 11
-34.000015
 21
-92.999947
  0
LINE
  8
0
 10
-40.000008
 20
-92.999947
 11
-40.000008
 21
-93.999947
  0
LINE
  8
0
 10
-36.000015
 20
-92.999947
 11
-36.000015
 21
-93.999947
  0
LINE
  8
0
 10
-49.550026
 20
-61.999977
 11
-49.550026
 21
-64.999977
  0
LINE
  8
0
 10
-47.550026
 20
-61.999977
 11
-47.550026
 21
-64.999977
  0
LINE
  8
0
 10
-43.450020
 20
-61.999947
 11
-43.450020
 21
-64.999947
  0
LINE
  8
0
 10
-41.450020
 20
-61.999947
 11
-41.450020
 21
-64.999947
  0
LINE
  8
0
 10
-41.249977
 20
-64.999977
 11
-49.749977
 21
-64.999977
  0
LINE
  8
0
 10
-49.750008
 20
-64.999977
 11
-49.750008
 21
-66.999977
  0
LINE
  8
0
 10
-41.249977
 20
-66.999977
 11
-49.749977
 21
-66.999977
  0
LINE
  8
0
 10
-41.250008
 20
-64.999947
 11
-41.250008
 21
-66.999947
  0
LINE
  8
0
 10
-41.999931
 20
-86.999977
 11
-33.999931
 21
-86.999977
  0
LINE
  8
0
 10
-36.000015
 20
-73.999947
 11
-36.000015
 21
-83.799934
  0
LINE
  8
0
 10
-40.000008
 20
-73.999947
 11
-40.000008
 21
-83.799965
  0
LINE
  8
0
 62
     2
 10
-36.500008
 20
-73.999947
 11
-36.500008
 21
-83.799934
  0
LINE
  8
0
 62
     2
 10
-39.500008
 20
-73.999947
 11
-39.500008
 21
-83.799965
  0
LINE
  8
0
 10
-71.000008
 20
-62.000038
 11
-71.000008
 21
-93.000038
  0
LINE
  8
0
 10
-84.999901
 20
-94.999977
 11
-71.499901
 21
-94.999977
  0
LINE
  8
0
 10
-84.999886
 20
-100.999969
 11
-24.999893
 21
-100.999969
  0
LINE
  8
0
 10
-85.000008
 20
-95.000069
 11
-85.000008
 21
-101.000061
  0
LINE
  8
0
 10
-25.000015
 20
-94.999916
 11
-25.000015
 21
-100.999908
  0
LINE
  8
0
 10
-52.000008
 20
-92.999977
 11
-52.000008
 21
-95.499977
  0
LINE
  8
0
 10
-41.000008
 20
-93.999947
 11
-41.000008
 21
-94.999947
  0
LINE
  8
0
 10
-35.000015
 20
-93.999947
 11
-35.000015
 21
-94.999947
  0
LINE
  8
0
 10
-40.999916
 20
-93.999977
 11
-34.999916
 21
-93.999977
  0
LINE
  8
0
 10
-42.050026
 20
-84.088631
 11
-42.050026
 21
-86.711281
  0
LINE
  8
0
 10
-41.550011
 20
-83.799850
 11
-42.049995
 21
-84.088516
  0
LINE
  8
0
 10
-34.449928
 20
-83.799995
 11
-41.549934
 21
-83.799995
  0
LINE
  8
0
 10
-40.050026
 20
-84.088631
 11
-40.050026
 21
-86.711281
  0
LINE
  8
0
 10
-35.950012
 20
-84.088631
 11
-35.950012
 21
-86.711281
  0
LINE
  8
0
 10
-33.949951
 20
-84.088623
 11
-34.449951
 21
-83.799957
  0
LINE
  8
0
 10
-33.950012
 20
-84.088600
 11
-33.950012
 21
-86.711250
  0
LINE
  8
0
 10
-33.949898
 20
-86.711296
 11
-34.449909
 21
-86.999977
  0
LINE
  8
0
 10
-41.549961
 20
-86.999985
 11
-42.049938
 21
-86.711304
  0
LINE
  8
0
 10
-21.699997
 20
-63.099983
 11
-33.300011
 21
-63.099983
  0
LINE
  8
0
 10
-21.700027
 20
-72.900002
 11
-28.000000
 21
-72.900002
  0
LINE
  8
0
 10
-21.699997
 20
-63.100075
 11
-21.699997
 21
-72.900063
  0
LINE
  8
0
 10
-17.699997
 20
-64.000069
 11
-17.699997
 21
-72.000069
  0
LINE
  8
0
 10
-17.699997
 20
-63.999977
 11
-21.699997
 21
-63.999977
  0
LINE
  8
0
 10
-17.700027
 20
-71.999977
 11
-21.700027
 21
-71.999977
  0
LINE
  8
0
 10
-16.699997
 20
-64.000069
 11
-16.699997
 21
-72.000069
  0
LINE
  8
0
 10
-14.699997
 20
-64.000099
 11
-14.699997
 21
-72.000099
  0
LINE
  8
0
 10
-14.700027
 20
-71.999977
 11
-16.700027
 21
-71.999977
  0
LINE
  8
0
 10
-14.699997
 20
-63.999977
 11
-16.699997
 21
-63.999977
  0
LINE
  8
0
 10
-16.700027
 20
-70.499977
 11
-17.700027
 21
-70.499977
  0
LINE
  8
0
 10
-16.699997
 20
-65.499977
 11
-17.699997
 21
-65.499977
  0
LINE
  8
0
 10
-12.300003
 20
-66.499977
 11
-14.699997
 21
-66.499977
  0
LINE
  8
0
 10
-12.300034
 20
-69.499977
 11
-14.700027
 21
-69.499977
  0
LINE
  8
0
 10
-12.300003
 20
-65.500099
 11
-12.300003
 21
-70.500099
  0
LINE
  8
0
 10
-7.300034
 20
-70.499977
 11
-12.300034
 21
-70.499977
  0
LINE
  8
0
 10
-7.300003
 20
-65.499977
 11
-12.300003
 21
-65.499977
  0
LINE
  8
0
 10
-7.300003
 20
-65.500099
 11
-7.300003
 21
-70.500099
  0
LINE
  8
0
 10
-21.700058
 20
-93.400002
 11
-33.300072
 21
-93.400002
  0
LINE
  8
0
 10
-21.700058
 20
-83.599983
 11
-25.500000
 21
-83.599983
  0
LINE
  8
0
 10
-21.699997
 20
-83.600075
 11
-21.699997
 21
-86.299995
  0
LINE
  8
0
 10
-33.299995
 20
-92.999977
 11
-33.299995
 21
-93.400032
  0
LINE
  8
0
 10
-17.699997
 20
-84.500069
 11
-17.699997
 21
-88.580605
  0
LINE
  8
0
 10
-17.700058
 20
-84.499977
 11
-21.700058
 21
-84.499977
  0
LINE
  8
0
 10
-17.700058
 20
-92.499977
 11
-21.700058
 21
-92.499977
  0
LINE
  8
0
 10
-16.699997
 20
-84.500069
 11
-16.699997
 21
-92.500069
  0
LINE
  8
0
 10
-14.699997
 20
-84.500099
 11
-14.699997
 21
-92.500099
  0
LINE
  8
0
 10
-14.700058
 20
-84.499977
 11
-16.700058
 21
-84.499977
  0
LINE
  8
0
 10
-14.700058
 20
-92.499977
 11
-16.700058
 21
-92.499977
  0
LINE
  8
0
 10
-16.700058
 20
-90.999977
 11
-17.700058
 21
-90.999977
  0
LINE
  8
0
 10
-16.700058
 20
-85.999977
 11
-17.700058
 21
-85.999977
  0
LINE
  8
0
 10
-12.300064
 20
-86.999977
 11
-14.700058
 21
-86.999977
  0
LINE
  8
0
 10
-12.300064
 20
-89.999977
 11
-14.700058
 21
-89.999977
  0
LINE
  8
0
 10
-12.300003
 20
-86.000099
 11
-12.300003
 21
-91.000099
  0
LINE
  8
0
 10
-7.300064
 20
-90.999977
 11
-12.300064
 21
-90.999977
  0
LINE
  8
0
 10
-7.300064
 20
-85.999977
 11
-12.300064
 21
-85.999977
  0
LINE
  8
0
 10
-7.300003
 20
-86.000099
 11
-7.300003
 21
-91.000099
  0
LINE
  8
0
 10
-39.999962
 20
-73.999977
 11
-35.999962
 21
-73.999977
  0
LINE
  8
0
 10
-50.500008
 20
-94.999977
 11
-50.500008
 21
-95.499977
  0
LINE
  8
0
 10
-72.500008
 20
-95.000038
 11
-72.500008
 21
-95.500038
  0
LINE
  8
0
 10
-72.499901
 20
-95.499977
 11
-50.499901
 21
-95.499977
  0
LINE
  8
0
 10
-51.999916
 20
-94.999977
 11
-24.999924
 21
-94.999977
  0
LINE
  8
0
 10
-71.500008
 20
-93.000038
 11
-71.500008
 21
-95.500038
  0
LINE
  8
0
  6
PHANTOM
 62
     2
 10
-84.999855
 20
-114.999969
 11
-24.999863
 21
-114.999969
  0
LINE
  8
0
 10
-47.500008
 20
-92.999977
 11
-47.500008
 21
-94.999977
  0
LINE
  8
0
 62
     2
 10
-47.000008
 20
-92.999977
 11
-47.000008
 21
-94.999977
  0
LINE
  8
0
 62
     2
 10
-44.000008
 20
-92.999947
 11
-44.000008
 21
-94.999947
  0
LINE
  8
0
 10
-43.500008
 20
-92.999947
 11
-43.500008
 21
-94.999947
  0
LINE
  8
0
  6
CENTER
 62
     2
 10
-80.000008
 20
-48.622513
 11
-80.000008
 21
-64.528358
  0
LINE
  8
0
  6
CENTER
 62
     2
 10
-30.000015
 20
-48.622391
 11
-30.000015
 21
-65.262367
  0
LINE
  8
0
  6
CENTER
 62
     2
 10
-80.000008
 20
-89.121437
 11
-80.000008
 21
-127.613678
  0
LINE
  8
0
  6
CENTER
 62
     2
 10
-30.000015
 20
-90.406044
 11
-30.000015
 21
-127.613586
  0
LINE
  8
0
 62
     4
 10
-82.000008
 20
-65.249977
 11
-84.500008
 21
-65.249977
  0
LINE
  8
0
 62
     4
 10
-84.000023
 20
-72.299965
 11
-92.946297
 21
-72.299965
  0
LINE
  8
0
 62
     4
 10
-82.000008
 20
-70.749977
 11
-84.500023
 21
-70.749977
  0
LINE
  8
0
 62
     4
 10
-82.000008
 20
-61.999916
 11
-82.000008
 21
-78.999916
  0
LINE
  8
0
 62
     1
 10
-93.468430
 20
-71.395370
 11
-90.454353
 21
-76.615929
  0
LINE
  8
0
 62
     4
 10
-84.000008
 20
-71.499916
 11
-84.000008
 21
-76.499916
  0
LINE
  8
0
 62
     4
 10
-76.000038
 20
-78.999977
 11
-82.000038
 21
-78.999977
  0
LINE
  8
0
 62
     4
 10
-84.500008
 20
-65.249916
 11
-84.500008
 21
-70.749916
  0
LINE
  8
0
 62
     4
 10
-82.000023
 20
-71.499977
 11
-84.000023
 21
-71.499977
  0
LINE
  8
0
 62
     4
 10
-82.000023
 20
-76.499977
 11
-84.000023
 21
-76.499977
  0
LINE
  8
0
 62
     4
 10
-84.000023
 20
-75.699989
 11
-90.983299
 21
-75.699989
  0
LINE
  8
0
 10
-76.000008
 20
-61.999977
 11
-76.000008
 21
-92.999977
  0
LINE
  8
0
 10
-21.699997
 20
-89.699989
 11
-21.699997
 21
-93.400063
  0
LINE
  8
0
 10
-17.699997
 20
-89.699989
 11
-17.699997
 21
-92.500069
  0
LINE
  8
0
 62
     4
 10
-28.999954
 20
-84.749977
 11
-25.499954
 21
-84.749977
  0
LINE
  8
0
 62
     4
 10
-28.500015
 20
-79.249916
 11
-28.500015
 21
-84.749916
  0
LINE
  8
0
 62
     4
 10
-28.000015
 20
-70.999977
 11
-28.000015
 21
-79.249916
  0
LINE
  8
0
 62
     4
 10
-33.999947
 20
-70.999977
 11
-27.999954
 21
-70.999977
  0
LINE
  8
0
 62
     4
 10
-28.000015
 20
-84.749916
 11
-28.000015
 21
-92.999916
  0
LINE
  8
0
 62
     4
 10
-33.999947
 20
-92.999977
 11
-27.999954
 21
-92.999977
  0
LINE
  8
0
 62
     4
 10
-25.500015
 20
-79.249916
 11
-25.500015
 21
-84.749916
  0
LINE
  8
0
 62
     4
 10
-27.999954
 20
-85.499977
 11
-25.999954
 21
-85.499977
  0
LINE
  8
0
 62
     4
 10
-27.999954
 20
-90.499977
 11
-25.999954
 21
-90.499977
  0
LINE
  8
0
 62
     4
 10
-25.999954
 20
-86.299995
 11
-19.016678
 21
-86.299995
  0
LINE
  8
0
 62
     4
 10
-25.999954
 20
-89.699989
 11
-17.053696
 21
-89.699989
  0
LINE
  8
0
 62
     4
 10
-26.000015
 20
-85.499916
 11
-26.000015
 21
-90.499916
  0
LINE
  8
0
 62
     1
 10
-16.531475
 20
-90.604515
 11
-19.545553
 21
-85.383965
  0
LINE
  8
0
 62
     4
 10
-33.999985
 20
-77.499977
 11
-28.999985
 21
-77.499977
  0
LINE
  8
0
 62
     4
 10
-33.999962
 20
-86.499977
 11
-28.999954
 21
-86.499977
  0
LINE
  8
0
 62
     4
 10
-29.000015
 20
-77.499916
 11
-29.000015
 21
-86.499916
  0
LINE
  8
0
 62
     4
 10
-28.999985
 20
-79.249977
 11
-25.499985
 21
-79.249977
  0
LINE
  8
0
 10
103.585342
 20
35.000019
 11
163.585342
 21
35.000019
  0
LINE
  8
0
  6
CENTER
 62
     2
 10
133.585327
 20
38.492313
 11
133.585327
 21
-28.636700
  0
LINE
  8
0
 10
103.585335
 20
-24.999996
 11
163.585342
 21
-24.999996
  0
LINE
  8
0
 10
163.585327
 20
35.000015
 11
163.585327
 21
-24.999983
  0
LINE
  8
0
 10
103.585327
 20
35.000008
 11
103.585327
 21
-24.999994
  0
LINE
  8
0
  6
CENTER
 62
     2
 10
99.180267
 20
5.000004
 11
167.471054
 21
5.000004
  0
LINE
  8
0
 10
100.285355
 20
7.100002
 11
103.585342
 21
7.100002
  0
LINE
  8
0
 10
100.285355
 20
16.900005
 11
103.585342
 21
16.900005
  0
LINE
  8
0
 10
100.285339
 20
16.900009
 11
100.285339
 21
7.100005
  0
LINE
  8
0
 10
96.285339
 20
16.000008
 11
96.285339
 21
8.000007
  0
LINE
  8
0
 10
96.285355
 20
16.000004
 11
100.285355
 21
16.000004
  0
LINE
  8
0
 10
96.285355
 20
8.000004
 11
100.285355
 21
8.000004
  0
LINE
  8
0
 10
95.285339
 20
16.000008
 11
95.285339
 21
8.000007
  0
LINE
  8
0
 10
93.285339
 20
16.000008
 11
93.285339
 21
8.000007
  0
LINE
  8
0
 10
93.285355
 20
16.000004
 11
95.285355
 21
16.000004
  0
LINE
  8
0
 10
93.285355
 20
8.000004
 11
95.285355
 21
8.000004
  0
LINE
  8
0
 10
95.285355
 20
9.500004
 11
96.285355
 21
9.500004
  0
LINE
  8
0
 10
95.285355
 20
14.500004
 11
96.285355
 21
14.500004
  0
LINE
  8
0
 10
90.885345
 20
13.500004
 11
93.285355
 21
13.500004
  0
LINE
  8
0
 10
90.885345
 20
10.500004
 11
93.285355
 21
10.500004
  0
LINE
  8
0
 10
90.885330
 20
14.500007
 11
90.885330
 21
9.500008
  0
LINE
  8
0
 10
85.885361
 20
9.500004
 11
90.885345
 21
9.500004
  0
LINE
  8
0
 10
85.885361
 20
14.500004
 11
90.885345
 21
14.500004
  0
LINE
  8
0
 10
85.885345
 20
14.500008
 11
85.885345
 21
9.500008
  0
LINE
  8
0
  6
CENTER
 62
     2
 10
153.410110
 20
30.000019
 11
164.655731
 21
30.000019
  0
LINE
  8
0
  6
CENTER
 62
     2
 10
130.085342
 20
-19.999996
 11
137.085342
 21
-19.999996
  0
LINE
  8
0
  6
CENTER
 62
     2
 10
130.085342
 20
30.000019
 11
137.085342
 21
30.000019
  0
LINE
  8
0
  6
CENTER
 62
     2
 10
108.585342
 20
1.500006
 11
108.585342
 21
8.500006
  0
LINE
  8
0
  6
CENTER
 62
     2
 10
158.585342
 20
1.500010
 11
158.585342
 21
8.500010
  0
LINE
  8
0
  6
CENTER
 62
     2
 10
158.585342
 20
24.548916
 11
158.585342
 21
35.794537
  0
LINE
  8
0
  6
CENTER
 62
     2
 10
153.410110
 20
-20.000011
 11
164.655731
 21
-20.000011
  0
LINE
  8
0
  6
CENTER
 62
     2
 10
158.585342
 20
-14.548912
 11
158.585342
 21
-25.794533
  0
LINE
  8
0
  6
CENTER
 62
     2
 10
113.760551
 20
30.000019
 11
102.514931
 21
30.000019
  0
LINE
  8
0
  6
CENTER
 62
     2
 10
108.585327
 20
24.548920
 11
108.585327
 21
35.794540
  0
LINE
  8
0
  6
CENTER
 62
     2
 10
113.760544
 20
-20.000011
 11
102.514923
 21
-20.000011
  0
LINE
  8
0
  6
CENTER
 62
     2
 10
108.585327
 20
-14.548908
 11
108.585327
 21
-25.794529
  0
ARC
  8
0
 62
     4
 10
-39.620003
 20
-3.999985
 40
4.420009
 50
320.692413
 51
39.307449
  0
CIRCLE
  8
0
 10
-29.999985
 20
-19.999985
 40
1.500000
  0
CIRCLE
  8
0
 10
-30.000000
 20
30.000017
 40
1.500000
  0
CIRCLE
  8
0
 10
-79.999992
 20
30.000013
 40
1.500000
  0
CIRCLE
  8
0
 10
-79.999992
 20
-19.999985
 40
1.500000
  0
CIRCLE
  8
0
 62
     2
 10
-29.999985
 20
-19.999985
 40
2.000000
  0
CIRCLE
  8
0
 62
     2
 10
-30.000000
 20
30.000017
 40
2.000000
  0
CIRCLE
  8
0
 62
     2
 10
-79.999992
 20
30.000013
 40
2.000000
  0
CIRCLE
  8
0
 62
     2
 10
-79.999992
 20
-19.999985
 40
2.000000
  0
CIRCLE
  8
0
 10
-54.999985
 20
-19.999985
 40
3.000000
  0
ARC
  8
0
 62
     4
 10
-70.379982
 20
14.000015
 40
4.420011
 50
140.692444
 51
219.307709
  0
ARC
  8
0
 10
-55.000000
 20
29.000015
 40
3.000000
 50
180.000000
 51
359.999969
  0
CIRCLE
  8
0
 62
     4
 10
-143.577484
 20
14.999931
 40
3.300000
  0
CIRCLE
  8
0
 10
-165.277466
 20
14.999912
 40
2.800000
  0
CIRCLE
  8
0
 62
     4
 10
-149.577454
 20
7.499916
 40
1.700000
  0
CIRCLE
  8
0
 62
     4
 10
-149.577454
 20
7.499916
 40
2.500000
  0
CIRCLE
  8
0
 62
     4
 10
-137.077454
 20
7.999947
 40
1.000000
  0
ARC
  8
0
 10
-155.154175
 20
31.199911
 40
7.423350
 50
163.969009
 51
196.030869
  0
ARC
  8
0
 10
-160.701111
 20
34.249916
 40
1.876396
 50
147.795929
 51
212.204071
  0
ARC
  8
0
 10
-161.253906
 20
28.149908
 40
1.876396
 50
327.795929
 51
32.204071
  0
ARC
  8
0
 10
-160.701111
 20
28.149908
 40
1.876397
 50
147.795883
 51
212.204025
  0
ARC
  8
0
 10
-161.253937
 20
34.249916
 40
1.876396
 50
327.795929
 51
32.204071
  0
CIRCLE
  8
0
 10
-134.877441
 20
15.000053
 40
2.800000
  0
CIRCLE
  8
0
 62
     4
 10
51.251266
 20
-4.999931
 40
3.300000
  0
CIRCLE
  8
0
 10
58.951263
 20
-4.999916
 40
2.800000
  0
CIRCLE
  8
0
 62
     4
 10
57.251236
 20
2.500084
 40
1.700000
  0
CIRCLE
  8
0
 62
     4
 10
57.251236
 20
2.500084
 40
2.500000
  0
CIRCLE
  8
0
 62
     4
 10
44.751236
 20
2.000053
 40
1.000000
  0
CIRCLE
  8
0
 10
37.251221
 20
11.000038
 40
2.500000
  0
CIRCLE
  8
0
 10
57.751221
 20
11.000084
 40
2.500000
  0
CIRCLE
  8
0
 10
37.251221
 20
11.000038
 40
4.900000
  0
CIRCLE
  8
0
 10
57.751221
 20
11.000084
 40
4.900000
  0
ARC
  8
0
 10
48.827957
 20
-21.199913
 40
7.423347
 50
343.968994
 51
16.030882
  0
ARC
  8
0
 10
54.374893
 20
-24.249916
 40
1.876396
 50
327.795929
 51
32.204010
  0
ARC
  8
0
 10
54.927689
 20
-18.149910
 40
1.876400
 50
147.795990
 51
212.204010
  0
ARC
  8
0
 10
54.374893
 20
-18.149910
 40
1.876397
 50
327.795868
 51
32.203960
  0
ARC
  8
0
 10
54.927719
 20
-24.249916
 40
1.876397
 50
147.795883
 51
212.203964
  0
CIRCLE
  8
0
 10
28.551224
 20
-5.000053
 40
2.800000
  0
CIRCLE
  8
0
 10
-26.700089
 20
109.500061
 40
2.000000
  0
CIRCLE
  8
0
 10
-26.700089
 20
109.500061
 40
4.900000
  0
CIRCLE
  8
0
 10
-26.700043
 20
89.000061
 40
2.000000
  0
ARC
  8
0
 10
-68.950073
 20
106.676353
 40
1.876396
 50
237.795929
 51
302.204071
  0
ARC
  8
0
 10
-72.000092
 20
112.223297
 40
7.423347
 50
253.969070
 51
286.030914
  0
ARC
  8
0
 10
-75.050079
 20
106.676346
 40
1.876396
 50
237.795929
 51
302.204071
  0
ARC
  8
0
 10
-75.050079
 20
106.123550
 40
1.876396
 50
57.795929
 51
122.204071
  0
ARC
  8
0
 10
-72.000061
 20
100.576599
 40
7.423342
 50
73.969002
 51
106.030869
  0
ARC
  8
0
 10
-68.950073
 20
106.123558
 40
1.876396
 50
57.795929
 51
122.204071
  0
CIRCLE
  8
0
 10
-26.700043
 20
89.000061
 40
4.900000
  0
ARC
  8
0
 10
-41.049934
 20
-85.676338
 40
1.876398
 50
57.795830
 51
122.203850
  0
ARC
  8
0
 10
-37.999916
 20
-91.223305
 40
7.423343
 50
73.968971
 51
106.030869
  0
ARC
  8
0
 10
-34.949928
 20
-85.676338
 40
1.876398
 50
57.795830
 51
122.203972
  0
ARC
  8
0
 10
-34.949928
 20
-85.123543
 40
1.876398
 50
237.795822
 51
302.203857
  0
ARC
  8
0
 10
-37.999947
 20
-79.576607
 40
7.423346
 50
253.968918
 51
286.030823
  0
ARC
  8
0
 10
-41.049934
 20
-85.123543
 40
1.876398
 50
237.795822
 51
302.203979
  0
CIRCLE
  8
0
 10
133.585342
 20
30.000019
 40
2.000000
  0
CIRCLE
  8
0
 10
133.585342
 20
-19.999996
 40
2.000000
  0
CIRCLE
  8
0
 10
108.585342
 20
30.000013
 40
2.250000
  0
CIRCLE
  8
0
 10
108.585335
 20
-19.999994
 40
2.250000
  0
CIRCLE
  8
0
 10
158.585342
 20
30.000017
 40
2.250000
  0
CIRCLE
  8
0
 10
158.585342
 20
-19.999983
 40
2.250000
  0
CIRCLE
  8
0
 10
108.585342
 20
5.000006
 40
2.000000
  0
CIRCLE
  8
0
 10
158.585342
 20
5.000010
 40
2.000000
  0
CIRCLE
  8
0
  6
DASHED
 62
     2
 10
158.585342
 20
30.000017
 40
4.000000
  0
CIRCLE
  8
0
  6
DASHED
 62
     2
 10
158.585342
 20
-20.000013
 40
4.000000
  0
CIRCLE
  8
0
  6
DASHED
 62
     2
 10
108.585327
 20
30.000021
 40
4.000000
  0
CIRCLE
  8
0
  6
DASHED
 62
     2
 10
108.585320
 20
-20.000010
 40
4.000000
  0
TEXT
  8
0
 10
115.907150
 20
122.050003
 40
4.500000
  1
DATE : MAY ,1993
 50
0.000000
 41
1.052631
 51
0.000000
  7
STANDARD
  0
TEXT
  8
0
 10
113.700279
 20
-130.669998
 40
6.300000
  1
KOGANEI CORP.
 50
0.000000
 41
1.052632
 51
0.000000
  7
STANDARD
  0
TEXT
  8
0
 10
-185.892654
 20
122.050003
 40
4.500000
  1
HANDLING MODULE
 50
0.000000
 41
1.052632
 51
0.000000
  7
STANDARD
  0
TEXT
  8
0
 10
-186.892654
 20
104.550003
 40
4.500000
  1
MODEL:SHM41S-LS
 50
0.000000
 41
1.052632
 51
0.000000
  7
STANDARD
  0
ENDSEC
  0
EOF
