  0
SECTION
  2
HEADER
  0
ENDSEC
  0
SECTION
  2
TABLES
  0
TABLE
  2
LTYPE
 70
     4
  0
LTYPE
  2
CONTINUOUS
 70
    64
  3
Solid line
 72
    65
 73
     0
 40
0.000000
  0
LTYPE
  2
DASHED
 70
    64
  3
__ __ __ __ __ __ __ __ __ __ __ __ __ __ __
 72
    65
 73
     2
 40
3.500000
 49
2.000000
 49
-1.500000
  0
LTYPE
  2
CENTER
 70
    64
  3
____ _ ____ _ ____ _ ____ _ ____ _ ____ _ ____
 72
    65
 73
     4
 40
17.500000
 49
13.000000
 49
-1.500000
 49
1.500000
 49
-1.500000
  0
LTYPE
  2
PHANTOM
 70
    64
  3
_____ _ _ _____ _ _ _____ _ _ _____ _ _ ____  
 72
    65
 73
     6
 40
15.500000
 49
8.000000
 49
-1.500000
 49
1.500000
 49
-1.500000
 49
1.500000
 49
-1.500000
  0
LTYPE
  2
DASHED1
 70
    64
  3
__ __ __ __ __ __ __ __ __ __ __ __ __ __ __
 72
    65
 73
     2
 40
1.500000
 49
1.000000
 49
-0.500000
  0
LTYPE
  2
DASHED2
 70
    64
  3
__ __ __ __ __ __ __ __ __ __ __ __ __ __ __
 72
    65
 73
     2
 40
3.500000
 49
2.500000
 49
-1.000000
  0
LTYPE
  2
DASHED3
 70
    64
  3
__ __ __ __ __ __ __ __ __ __ __ __ __ __ __
 72
    65
 73
     2
 40
6.000000
 49
4.000000
 49
-2.000000
  0
LTYPE
  2
DASHED4
 70
    64
  3
__ __ __ __ __ __ __ __ __ __ __ __ __ __ __
 72
    65
 73
     2
 40
12.000000
 49
10.000000
 49
-2.000000
  0
LTYPE
  2
DASHED5
 70
    64
  3
__ __ __ __ __ __ __ __ __ __ __ __ __ __ __
 72
    65
 73
     2
 40
17.000000
 49
15.000000
 49
-2.000000
  0
LTYPE
  2
DASHED6
 70
    64
  3
__ __ __ __ __ __ __ __ __ __ __ __ __ __ __
 72
    65
 73
     2
 40
29.000000
 49
27.000000
 49
-2.000000
  0
LTYPE
  2
PHANTOM1
 70
    64
  3
_____ _ _ _____ _ _ _____ _ _ _____ _ _ ____  
 72
    65
 73
     6
 40
31.000000
 49
25.000000
 49
-1.500000
 49
1.000000
 49
-1.000000
 49
1.000000
 49
-1.500000
  0
LTYPE
  2
PHANTOM2
 70
    64
  3
_____ _ _ _____ _ _ _____ _ _ _____ _ _ ____  
 72
    65
 73
     6
 40
36.000000
 49
27.000000
 49
-1.500000
 49
2.500000
 49
-1.000000
 49
2.500000
 49
-1.500000
  0
LTYPE
  2
PHANTOM3
 70
    64
  3
_____ _ _ _____ _ _ _____ _ _ _____ _ _ ____  
 72
    65
 73
     6
 40
78.000000
 49
64.000000
 49
-2.000000
 49
4.000000
 49
-2.000000
 49
4.000000
 49
-2.000000
  0
LTYPE
  2
CENTER1
 70
    64
  3
____ _ ____ _ ____ _ ____ _ ____ _ ____ _ ____
 72
    65
 73
     4
 40
19.000000
 49
14.000000
 49
-1.000000
 49
3.000000
 49
-1.000000
  0
LTYPE
  2
CENTER2
 70
    64
  3
____ _ ____ _ ____ _ ____ _ ____ _ ____ _ ____
 72
    65
 73
     4
 40
28.500000
 49
25.000000
 49
-1.000000
 49
1.500000
 49
-1.000000
  0
LTYPE
  2
CENTER3
 70
    64
  3
____ _ ____ _ ____ _ ____ _ ____ _ ____ _ ____
 72
    65
 73
     4
 40
31.500000
 49
27.000000
 49
-1.000000
 49
2.500000
 49
-1.000000
  0
LTYPE
  2
CENTER4
 70
    64
  3
____ _ ____ _ ____ _ ____ _ ____ _ ____ _ ____
 72
    65
 73
     4
 40
50.000000
 49
45.000000
 49
-1.000000
 49
3.000000
 49
-1.000000
  0
LTYPE
  2
CENTER5
 70
    64
  3
____ _ ____ _ ____ _ ____ _ ____ _ ____ _ ____
 72
    65
 73
     4
 40
100.000000
 49
92.000000
 49
-2.000000
 49
4.000000
 49
-2.000000
  0
LTYPE
  2
SBK1
 70
    64
  3
______ _ _ _ ______ _ _ _ ______ _ _ _ _____  
 72
    65
 73
     8
 40
60.500000
 49
45.000000
 49
-2.000000
 49
2.500000
 49
-2.000000
 49
2.500000
 49
-2.000000
 49
2.500000
 49
-2.000000
  0
LTYPE
  2
SBK2
 70
    64
  3
______ _ _ _ ______ _ _ _ ______ _ _ _ _____  
 72
    65
 73
     8
 40
84.000000
 49
64.000000
 49
-2.000000
 49
4.000000
 49
-2.000000
 49
4.000000
 49
-2.000000
 49
4.000000
 49
-2.000000
  0
LTYPE
  2
STCH
 70
    64
  3
__ __ __ __ __ __ __ __ __ __ __ __ __ __ __
 72
    65
 73
     2
 40
3.000000
 49
1.000000
 49
-2.000000
  0
LTYPE
  2
MTCH
 70
    64
  3
_____ _ _ _____ _ _ _____ _ _ _____ _ _ ____  
 72
    65
 73
     6
 40
80.000000
 49
66.000000
 49
-2.000000
 49
4.000000
 49
-2.000000
 49
4.000000
 49
-2.000000
  0
ENDTAB
  0
TABLE
  2
LAYER
 70
     1
  0
LAYER
  2
0
 70
     0
 62
     7
  6
CONTINUOUS
  0
ENDTAB
  0
TABLE
  2
STYLE
 70
     1
  0
STYLE
  2
STANDARD
 70
     0
 40
0.000000
 41
1.000000
 50
0.000000
 71
     0
 42
0.200000
  3
txt
  4
BIGFONT
  0
ENDTAB
  0
TABLE
  2
VIEW
 70
     0
  0
ENDTAB
  0
ENDSEC
  0
SECTION
  2
BLOCKS
  0
ENDSEC
  0
SECTION
  2
ENTITIES
  0
LINE
  8
0
 10
-281.250000
 20
195.500000
 11
282.099976
 21
195.500000
  0
LINE
  8
0
 10
-281.250000
 20
195.500000
 11
-281.250000
 21
-195.000000
  0
LINE
  8
0
 10
282.099976
 20
195.500000
 11
282.099976
 21
-195.000000
  0
LINE
  8
0
 10
-281.250000
 20
-195.000000
 11
282.099976
 21
-195.000000
  0
LINE
  8
0
 10
162.099976
 20
-175.000000
 11
162.099976
 21
-195.000000
  0
LINE
  8
0
 10
162.099976
 20
-175.000000
 11
282.099976
 21
-175.000000
  0
LINE
  8
0
 10
162.099976
 20
175.500000
 11
282.099976
 21
175.500000
  0
LINE
  8
0
 10
-281.250000
 20
175.500000
 11
-161.250000
 21
175.500000
  0
LINE
  8
0
 10
162.099976
 20
195.500000
 11
162.099976
 21
175.500000
  0
LINE
  8
0
 10
-161.250000
 20
195.500000
 11
-161.250000
 21
175.500000
  0
LINE
  8
0
 10
-39.999992
 20
40.000011
 11
-39.999992
 21
4.000003
  0
LINE
  8
0
 10
-120.000000
 20
40.000004
 11
-120.000000
 21
11.999997
  0
LINE
  8
0
 10
-119.999969
 20
39.999985
 11
-39.999969
 21
39.999985
  0
LINE
  8
0
 10
-60.000000
 20
4.000001
 11
-60.000000
 21
-11.999998
  0
LINE
  8
0
 10
-100.000000
 20
11.999998
 11
-100.000000
 21
-4.000001
  0
LINE
  8
0
 62
     4
 10
-106.499985
 20
-4.000000
 11
-99.999985
 21
-4.000000
  0
LINE
  8
0
  6
DASHED
 10
-59.999977
 20
4.000000
 11
-53.499977
 21
4.000000
  0
LINE
  8
0
 62
     4
 10
-110.999985
 20
-3.000000
 11
-99.999985
 21
-3.000000
  0
LINE
  8
0
 62
     4
 10
-110.999985
 20
4.000000
 11
-105.000000
 21
4.000000
  0
LINE
  8
0
 62
     4
 10
-106.499985
 20
12.000000
 11
-99.999985
 21
12.000000
  0
LINE
  8
0
 10
-105.000000
 20
11.999998
 11
-105.000000
 21
9.499998
  0
LINE
  8
0
 62
     4
 10
-111.000000
 20
3.999998
 11
-111.000000
 21
-3.000002
  0
LINE
  8
0
 10
-59.999977
 20
-12.000000
 11
-53.499977
 21
-12.000000
  0
LINE
  8
0
 10
-59.999977
 20
4.000000
 11
-39.999977
 21
4.000000
  0
LINE
  8
0
 10
-59.999977
 20
-12.000000
 11
-39.999977
 21
-12.000000
  0
LINE
  8
0
 10
-119.999985
 20
12.000000
 11
-99.999985
 21
12.000000
  0
LINE
  8
0
 10
-119.999985
 20
-4.000000
 11
-99.999985
 21
-4.000000
  0
LINE
  8
0
 62
     4
 10
-113.000000
 20
2.999998
 11
-113.000000
 21
-2.000002
  0
LINE
  8
0
 62
     4
 10
-112.999985
 20
-2.000000
 11
-110.999985
 21
-2.000000
  0
LINE
  8
0
 62
     4
 10
-112.999985
 20
3.000000
 11
-110.999985
 21
3.000000
  0
LINE
  8
0
 62
     4
 10
-125.083572
 20
2.199982
 11
-112.999985
 21
2.199982
  0
LINE
  8
0
 62
     4
 10
-126.862030
 20
-1.200012
 11
-113.000000
 21
-1.200012
  0
LINE
  8
0
 62
     4
 10
-110.000000
 20
11.999998
 11
-110.000000
 21
3.999998
  0
LINE
  8
0
 10
-104.999985
 20
9.500000
 11
-103.929306
 21
9.500000
  0
LINE
  8
0
 10
-104.999985
 20
6.500000
 11
-103.900009
 21
6.500000
  0
LINE
  8
0
 10
-103.900009
 20
10.899992
 11
-103.900009
 21
9.499998
  0
LINE
  8
0
 10
-101.100006
 20
10.899992
 11
-101.100006
 21
5.100005
  0
LINE
  8
0
 10
-103.899979
 20
10.899994
 11
-101.099976
 21
10.899994
  0
LINE
  8
0
 10
-103.899979
 20
5.099991
 11
-101.099976
 21
5.099991
  0
LINE
  8
0
 62
     4
 10
-59.999977
 20
3.000000
 11
-48.999977
 21
3.000000
  0
LINE
  8
0
 10
-59.999977
 20
-4.000000
 11
-55.000000
 21
-4.000000
  0
LINE
  8
0
 10
-55.000000
 20
-3.999998
 11
-55.000000
 21
-6.499998
  0
LINE
  8
0
 62
     4
 10
-50.000000
 20
-3.999998
 11
-50.000000
 21
-11.999998
  0
LINE
  8
0
 62
     4
 10
-49.000000
 20
3.000002
 11
-49.000000
 21
-3.999998
  0
LINE
  8
0
 10
-103.900009
 20
6.499998
 11
-103.900009
 21
5.100004
  0
LINE
  8
0
 10
-58.900002
 20
-5.100005
 11
-58.900002
 21
-10.899992
  0
LINE
  8
0
 10
-56.099998
 20
-5.100004
 11
-56.099998
 21
-6.499998
  0
LINE
  8
0
 10
-58.899979
 20
-5.100006
 11
-56.099976
 21
-5.100006
  0
LINE
  8
0
 10
-58.899979
 20
-10.900009
 11
-56.099976
 21
-10.900009
  0
LINE
  8
0
 62
     4
 10
-113.800003
 20
5.199982
 11
-109.999985
 21
5.199982
  0
LINE
  8
0
 62
     4
 10
-113.800003
 20
10.799988
 11
-109.999985
 21
10.799988
  0
LINE
  8
0
 62
     4
 10
-49.999977
 20
-5.200012
 11
-46.199989
 21
-5.200012
  0
LINE
  8
0
 62
     4
 10
-49.999977
 20
-10.800018
 11
-46.199989
 21
-10.800018
  0
LINE
  8
0
 10
-55.000000
 20
-9.499998
 11
-55.000000
 21
-11.999998
  0
LINE
  8
0
 62
     4
 10
-58.200005
 20
-5.100005
 11
-58.200005
 21
-10.899992
  0
LINE
  8
0
 62
     4
 10
-58.899979
 20
-10.800018
 11
-57.199982
 21
-10.800018
  0
LINE
  8
0
 62
     4
 10
-58.899979
 20
-5.200012
 11
-57.199982
 21
-5.200012
  0
LINE
  8
0
 62
     4
 10
-101.800003
 20
10.899992
 11
-101.800003
 21
5.100005
  0
LINE
  8
0
 62
     4
 10
-48.999977
 20
-3.000000
 11
-46.999977
 21
-3.000000
  0
LINE
  8
0
 62
     4
 10
-48.999977
 20
2.000000
 11
-46.999977
 21
2.000000
  0
LINE
  8
0
 62
     4
 10
-46.999992
 20
1.199982
 11
-33.137981
 21
1.199982
  0
LINE
  8
0
 62
     4
 10
-46.999992
 20
-2.200012
 11
-34.916439
 21
-2.200012
  0
LINE
  8
0
 62
     4
 10
-47.000000
 20
2.000002
 11
-47.000000
 21
-2.999998
  0
LINE
  8
0
  6
CENTER
 62
     2
 10
-116.108521
 20
32.499985
 11
-109.072144
 21
32.499985
  0
LINE
  8
0
  6
CENTER
 62
     2
 10
-116.108513
 20
-32.500031
 11
-109.164040
 21
-32.500031
  0
LINE
  8
0
  6
CENTER
 62
     2
 10
-47.500000
 20
35.787411
 11
-47.500000
 21
29.055780
  0
LINE
  8
0
  6
CENTER
 62
     2
 10
-112.500000
 20
36.191303
 11
-112.500000
 21
29.382849
  0
LINE
  8
0
  6
CENTER
 62
     2
 10
-51.002655
 20
32.499985
 11
-44.136383
 21
32.499985
  0
LINE
  8
0
  6
CENTER
 62
     2
 10
-50.464142
 20
-32.500031
 11
-44.540283
 21
-32.500031
  0
LINE
  8
0
  6
CENTER
 62
     2
 10
-83.853073
 20
-32.500031
 11
-76.313629
 21
-32.500031
  0
LINE
  8
0
  6
CENTER
 62
     2
 10
-80.000000
 20
42.216896
 11
-80.000000
 21
-41.541168
  0
LINE
  8
0
  6
CENTER
 62
     2
 10
-130.826965
 20
0.000000
 11
-25.436508
 21
0.000000
  0
LINE
  8
0
 10
-120.000000
 20
-4.000003
 11
-120.000000
 21
-40.000019
  0
LINE
  8
0
 10
-39.999992
 20
-11.999997
 11
-39.999992
 21
-39.999996
  0
LINE
  8
0
 10
-39.699982
 20
12.000000
 11
-39.999992
 21
12.000000
  0
LINE
  8
0
 10
-39.699982
 20
4.000000
 11
-39.999992
 21
4.000000
  0
LINE
  8
0
 10
-37.299980
 20
9.500000
 11
-39.699982
 21
9.500000
  0
LINE
  8
0
 10
-37.299980
 20
6.500000
 11
-39.699982
 21
6.500000
  0
LINE
  8
0
 10
-37.299995
 20
10.500010
 11
-37.299995
 21
5.500011
  0
LINE
  8
0
 10
-32.299988
 20
5.500000
 11
-37.299980
 21
5.500000
  0
LINE
  8
0
 10
-32.299988
 20
10.500000
 11
-37.299980
 21
10.500000
  0
LINE
  8
0
 10
-32.299995
 20
10.500011
 11
-32.299995
 21
5.500011
  0
LINE
  8
0
 62
     4
 10
-46.199997
 20
-5.200010
 11
-46.199997
 21
-10.800015
  0
LINE
  8
0
 62
     4
 10
-113.800003
 20
10.799985
 11
-113.800003
 21
5.199979
  0
LINE
  8
0
 62
     4
 10
-49.199997
 20
-5.200010
 11
-49.199997
 21
-10.800016
  0
LINE
  8
0
 62
     4
 10
-110.800003
 20
10.799986
 11
-110.800003
 21
5.199979
  0
LINE
  8
0
 10
-77.000000
 20
39.999992
 11
-77.000000
 21
31.500008
  0
LINE
  8
0
 10
-83.000000
 20
39.999992
 11
-83.000000
 21
31.499992
  0
LINE
  8
0
  6
CENTER
 62
     2
 10
-112.500000
 20
-36.500019
 11
-112.500000
 21
-28.500002
  0
LINE
  8
0
  6
CENTER
 62
     2
 10
-47.499992
 20
-36.499996
 11
-47.499992
 21
-28.499983
  0
LINE
  8
0
 10
-119.999992
 20
-40.000031
 11
-39.999985
 21
-40.000031
  0
LINE
  8
0
 10
-39.699982
 20
12.000010
 11
-39.699982
 21
4.000010
  0
LINE
  8
0
 62
     1
 10
-32.414143
 20
2.583758
 11
-35.933559
 21
-4.144545
  0
LINE
  8
0
 62
     1
 10
-128.139740
 20
-3.642617
 11
-124.091362
 21
4.096940
  0
LINE
  8
0
 62
     4
 10
-55.000000
 20
-4.000000
 11
-48.999977
 21
-4.000000
  0
LINE
  8
0
 10
-56.099998
 20
-6.500000
 11
-54.999977
 21
-6.500000
  0
LINE
  8
0
 62
     4
 10
-56.099998
 20
-9.500000
 11
-54.999977
 21
-9.500000
  0
LINE
  8
0
 10
-105.000000
 20
4.000000
 11
-99.999985
 21
4.000000
  0
LINE
  8
0
 10
-105.000000
 20
6.499998
 11
-105.000000
 21
3.999998
  0
LINE
  8
0
 10
-56.099998
 20
-9.499998
 11
-56.099998
 21
-10.899992
  0
LINE
  8
0
 10
-248.216736
 20
39.999920
 11
-248.216736
 21
-40.000080
  0
LINE
  8
0
 10
-203.216690
 20
-40.000008
 11
-240.416687
 21
-40.000008
  0
LINE
  8
0
  6
CENTER
 62
     2
 10
-201.659973
 20
0.000001
 11
-249.373047
 21
0.000001
  0
LINE
  8
0
 10
-203.216812
 20
39.999985
 11
-240.416824
 21
39.999985
  0
LINE
  8
0
 10
-225.816818
 20
35.499985
 11
-231.216812
 21
35.499985
  0
LINE
  8
0
 62
     2
 10
-225.316818
 20
34.999985
 11
-231.216812
 21
34.999985
  0
LINE
  8
0
 62
     2
 10
-225.316803
 20
30.999985
 11
-231.216812
 21
30.999985
  0
LINE
  8
0
 10
-225.816757
 20
30.499985
 11
-231.216812
 21
30.499985
  0
LINE
  8
0
 10
-225.316742
 20
34.999966
 11
-225.316742
 21
30.999968
  0
LINE
  8
0
 10
-241.813049
 20
26.600060
 11
-242.217194
 21
25.900061
  0
LINE
  8
0
 10
-242.216614
 20
18.100010
 11
-241.812469
 21
17.400011
  0
LINE
  8
0
 10
-240.416779
 20
17.399994
 11
-241.812637
 21
17.399994
  0
LINE
  8
0
 10
-240.416794
 20
19.700012
 11
-241.812637
 21
19.700012
  0
LINE
  8
0
 10
-240.416794
 20
24.299973
 11
-241.812653
 21
24.299973
  0
LINE
  8
0
 10
-240.416794
 20
26.599960
 11
-241.812653
 21
26.599960
  0
LINE
  8
0
 10
-242.216690
 20
-40.000008
 11
-248.216690
 21
-40.000008
  0
LINE
  8
0
 10
-242.216812
 20
39.999985
 11
-248.216812
 21
39.999985
  0
LINE
  8
0
 10
-234.416718
 20
39.999950
 11
-234.416718
 21
11.999952
  0
LINE
  8
0
 62
     4
 10
-225.216751
 20
3.999953
 11
-225.216751
 21
-3.000047
  0
LINE
  8
0
 62
     4
 10
-203.216751
 20
3.999985
 11
-203.216751
 21
-3.000015
  0
LINE
  8
0
 62
     4
 10
-208.716797
 20
12.500001
 11
-218.716797
 21
12.500001
  0
LINE
  8
0
 10
-218.716751
 20
9.649995
 11
-234.154572
 21
9.649995
  0
LINE
  8
0
 10
-218.716751
 20
6.350007
 11
-234.154556
 21
6.350007
  0
LINE
  8
0
 62
     4
 10
-218.716751
 20
12.499953
 11
-218.716751
 21
3.999953
  0
LINE
  8
0
 10
-219.716782
 20
19.500000
 11
-234.416794
 21
19.500000
  0
LINE
  8
0
 62
     2
 10
-219.716782
 20
20.000000
 11
-234.416794
 21
20.000000
  0
LINE
  8
0
 62
     2
 10
-219.716797
 20
23.999985
 11
-234.416794
 21
23.999985
  0
LINE
  8
0
 10
-219.716797
 20
24.499985
 11
-234.416794
 21
24.499985
  0
LINE
  8
0
 10
-242.216736
 20
39.999935
 11
-242.216736
 21
-40.000065
  0
LINE
  8
0
 10
-231.620956
 20
37.599960
 11
-234.012665
 21
37.599960
  0
LINE
  8
0
 10
-234.013077
 20
37.600101
 11
-234.417221
 21
36.900101
  0
LINE
  8
0
 10
-231.620956
 20
35.299973
 11
-234.012665
 21
35.299973
  0
LINE
  8
0
 10
-231.620956
 20
30.699997
 11
-234.012665
 21
30.699997
  0
LINE
  8
0
 10
-234.416641
 20
29.100016
 11
-234.012497
 21
28.400017
  0
LINE
  8
0
 10
-231.620956
 20
28.399979
 11
-234.012650
 21
28.399979
  0
LINE
  8
0
 10
-231.217102
 20
29.100035
 11
-231.621246
 21
28.400036
  0
LINE
  8
0
 10
-231.216736
 20
36.899944
 11
-231.216736
 21
29.099928
  0
LINE
  8
0
 10
-231.620758
 20
37.600018
 11
-231.216614
 21
36.900017
  0
LINE
  8
0
 10
-240.416718
 20
39.999950
 11
-240.416718
 21
-40.000050
  0
LINE
  8
0
 10
-203.216766
 20
9.649995
 11
-203.954575
 21
9.649995
  0
LINE
  8
0
 10
-203.216751
 20
6.350007
 11
-203.954575
 21
6.350007
  0
LINE
  8
0
 10
-203.216751
 20
-3.999999
 11
-209.216751
 21
-3.999999
  0
LINE
  8
0
 10
-240.416748
 20
-2.999999
 11
-242.216751
 21
-2.999999
  0
LINE
  8
0
 10
-240.416763
 20
3.000001
 11
-242.216751
 21
3.000001
  0
LINE
  8
0
 10
-217.716782
 20
16.500000
 11
-219.716782
 21
16.500000
  0
LINE
  8
0
 10
-217.716797
 20
27.499985
 11
-219.716797
 21
27.499985
  0
LINE
  8
0
 10
-219.716736
 20
27.499983
 11
-219.716736
 21
16.499983
  0
LINE
  8
0
 10
-225.316727
 20
30.999895
 11
-225.816727
 21
30.499905
  0
LINE
  8
0
 10
-203.216751
 20
4.000000
 11
-217.616745
 21
4.000000
  0
LINE
  8
0
 62
     4
 10
-203.216766
 20
-2.999999
 11
-225.216766
 21
-2.999999
  0
LINE
  8
0
 10
-203.216766
 20
12.000001
 11
-208.716751
 21
12.000001
  0
LINE
  8
0
 10
-203.216736
 20
40.000000
 11
-203.216736
 21
-40.000000
  0
LINE
  8
0
 10
-209.216736
 20
-4.000000
 11
-209.216736
 21
-40.000015
  0
LINE
  8
0
 10
-208.478958
 20
9.649995
 11
-208.716751
 21
9.649995
  0
LINE
  8
0
 10
-208.478958
 20
6.350007
 11
-208.716751
 21
6.350007
  0
LINE
  8
0
 10
-214.920944
 20
26.599960
 11
-217.716797
 21
26.599960
  0
LINE
  8
0
 10
-214.920731
 20
26.600096
 11
-214.516586
 21
25.900097
  0
LINE
  8
0
 10
-214.920944
 20
24.299973
 11
-217.716797
 21
24.299973
  0
LINE
  8
0
 10
-214.920929
 20
19.699982
 11
-217.716782
 21
19.699982
  0
LINE
  8
0
 10
-214.920929
 20
17.399994
 11
-217.716782
 21
17.399994
  0
LINE
  8
0
 10
-214.517075
 20
18.100031
 11
-214.921219
 21
17.400032
  0
LINE
  8
0
 10
-214.516739
 20
25.899977
 11
-214.516739
 21
18.099958
  0
LINE
  8
0
 10
-209.716782
 20
20.000000
 11
-210.716782
 21
20.000000
  0
LINE
  8
0
 10
-209.716782
 20
23.999985
 11
-210.716782
 21
23.999985
  0
LINE
  8
0
 10
-209.216736
 20
39.999985
 11
-209.216736
 21
12.500000
  0
LINE
  8
0
 62
     4
 10
-208.716751
 20
12.499985
 11
-208.716751
 21
3.999985
  0
LINE
  8
0
 10
-218.716751
 20
12.000001
 11
-240.416763
 21
12.000001
  0
LINE
  8
0
 10
-238.678955
 20
6.350007
 11
-240.416763
 21
6.350007
  0
LINE
  8
0
 10
-238.678955
 20
9.649995
 11
-240.416763
 21
9.649995
  0
LINE
  8
0
 10
-217.716736
 20
27.499983
 11
-217.716736
 21
16.499983
  0
LINE
  8
0
 10
-214.112900
 20
26.600115
 11
-214.517044
 21
25.900116
  0
LINE
  8
0
 10
-211.720932
 20
26.599960
 11
-214.112656
 21
26.599960
  0
LINE
  8
0
 10
-211.720734
 20
26.600052
 11
-211.316589
 21
25.900053
  0
LINE
  8
0
 10
-211.316727
 20
25.899977
 11
-211.316727
 21
18.099958
  0
LINE
  8
0
 10
-211.720932
 20
24.299973
 11
-214.112656
 21
24.299973
  0
LINE
  8
0
 10
-211.720932
 20
19.699982
 11
-214.112656
 21
19.699982
  0
LINE
  8
0
 10
-211.317062
 20
18.100061
 11
-211.721191
 21
17.400063
  0
LINE
  8
0
 10
-211.720932
 20
17.399994
 11
-214.112640
 21
17.399994
  0
LINE
  8
0
 10
-214.516602
 20
18.100071
 11
-214.112457
 21
17.400074
  0
LINE
  8
0
 10
-210.716736
 20
25.499983
 11
-210.716736
 21
18.499983
  0
LINE
  8
0
 10
-210.716797
 20
25.499985
 11
-211.316788
 21
25.499985
  0
LINE
  8
0
 10
-210.716782
 20
18.500000
 11
-211.316788
 21
18.500000
  0
LINE
  8
0
 10
-209.716736
 20
23.999983
 11
-209.716736
 21
19.999983
  0
LINE
  8
0
 10
-240.416733
 20
-14.999999
 11
-242.216736
 21
-14.999999
  0
LINE
  8
0
 10
-240.416702
 20
-35.000008
 11
-242.216690
 21
-35.000008
  0
LINE
  8
0
 10
-241.316803
 20
29.999985
 11
-242.216812
 21
29.999985
  0
LINE
  8
0
 10
-241.316818
 20
35.999985
 11
-242.216812
 21
35.999985
  0
LINE
  8
0
 10
-241.316742
 20
35.999935
 11
-241.316742
 21
29.999935
  0
LINE
  8
0
 10
-240.416794
 20
30.499985
 11
-241.316803
 21
30.499985
  0
LINE
  8
0
 10
-240.416809
 20
35.499985
 11
-241.316818
 21
35.499985
  0
LINE
  8
0
 62
     2
 10
-240.416794
 20
30.999985
 11
-241.316803
 21
30.999985
  0
LINE
  8
0
 62
     2
 10
-240.416809
 20
34.999985
 11
-241.316818
 21
34.999985
  0
LINE
  8
0
 62
     4
 10
-213.538467
 20
9.250001
 11
-214.995102
 21
9.250001
  0
LINE
  8
0
 62
     4
 10
-213.538467
 20
6.750000
 11
-214.995102
 21
6.750000
  0
LINE
  8
0
 62
     4
 10
-213.538330
 20
9.250009
 11
-212.816650
 21
8.000023
  0
LINE
  8
0
 62
     4
 10
-215.716644
 20
8.000039
 11
-214.994965
 21
6.750054
  0
LINE
  8
0
 62
     4
 10
-214.995392
 20
9.250043
 11
-215.717072
 21
8.000056
  0
LINE
  8
0
 62
     4
 10
-212.817047
 20
8.000033
 11
-213.538742
 21
6.750020
  0
LINE
  8
0
 10
-209.216690
 20
-35.000008
 11
-240.416702
 21
-35.000008
  0
LINE
  8
0
  6
CENTER
 62
     2
 10
-241.210358
 20
-25.000008
 11
-249.635025
 21
-25.000008
  0
LINE
  8
0
  6
CENTER
 62
     2
 10
-241.059982
 20
24.999985
 11
-249.484665
 21
24.999985
  0
LINE
  8
0
  6
CENTER
 62
     2
 10
-201.193283
 20
32.499985
 11
-211.122360
 21
32.499985
  0
LINE
  8
0
  6
CENTER
 62
     2
 10
-241.210342
 20
-32.500008
 11
-249.635010
 21
-32.500008
  0
LINE
  8
0
  6
CENTER
 62
     2
 10
-201.193176
 20
-32.500008
 11
-210.670929
 21
-32.500008
  0
LINE
  8
0
  6
CENTER
 62
     2
 10
-241.059998
 20
32.499985
 11
-249.484665
 21
32.499985
  0
LINE
  8
0
 10
-207.631027
 20
6.585788
 11
-204.802597
 21
9.414216
  0
LINE
  8
0
 10
-207.630981
 20
9.414176
 11
-204.802551
 21
6.585750
  0
LINE
  8
0
 10
-237.831039
 20
6.585768
 11
-235.002609
 21
9.414196
  0
LINE
  8
0
 10
-237.830978
 20
9.414110
 11
-235.002548
 21
6.585684
  0
LINE
  8
0
 62
     4
 10
-203.216766
 20
4.000000
 11
-225.216766
 21
4.000000
  0
LINE
  8
0
 10
-218.716751
 20
4.000000
 11
-240.416763
 21
4.000000
  0
LINE
  8
0
 10
78.972229
 20
-39.999905
 11
78.972229
 21
40.000088
  0
LINE
  8
0
 10
33.972183
 20
40.000015
 11
71.172180
 21
40.000015
  0
LINE
  8
0
  6
CENTER
 62
     2
 10
32.415466
 20
0.000016
 11
80.128540
 21
0.000016
  0
LINE
  8
0
 10
33.972321
 20
-39.999977
 11
71.172318
 21
-39.999977
  0
LINE
  8
0
 10
56.572311
 20
-35.499977
 11
61.972305
 21
-35.499977
  0
LINE
  8
0
 62
     2
 10
56.072311
 20
-34.999977
 11
61.972305
 21
-34.999977
  0
LINE
  8
0
 62
     2
 10
56.072296
 20
-30.999977
 11
61.972305
 21
-30.999977
  0
LINE
  8
0
 10
56.572250
 20
-30.499977
 11
61.972305
 21
-30.499977
  0
LINE
  8
0
 10
56.072235
 20
-34.999954
 11
56.072235
 21
-30.999952
  0
LINE
  8
0
 10
72.568390
 20
-26.600029
 11
72.972534
 21
-25.900030
  0
LINE
  8
0
 10
72.972206
 20
-18.099972
 11
72.568062
 21
-17.399973
  0
LINE
  8
0
 10
71.172272
 20
-17.399979
 11
72.568130
 21
-17.399979
  0
LINE
  8
0
 10
71.172287
 20
-19.699997
 11
72.568146
 21
-19.699997
  0
LINE
  8
0
 10
71.172287
 20
-24.299965
 11
72.568146
 21
-24.299965
  0
LINE
  8
0
 10
71.172287
 20
-26.599953
 11
72.568146
 21
-26.599953
  0
LINE
  8
0
 10
72.972183
 20
40.000015
 11
78.972183
 21
40.000015
  0
LINE
  8
0
 10
72.972321
 20
-39.999977
 11
78.972321
 21
-39.999977
  0
LINE
  8
0
 10
65.172226
 20
-39.999935
 11
65.172226
 21
-11.999943
  0
LINE
  8
0
 62
     4
 10
70.372223
 20
-3.999936
 11
70.372223
 21
3.000064
  0
LINE
  8
0
 62
     4
 10
48.372223
 20
-3.999968
 11
48.372223
 21
3.000032
  0
LINE
  8
0
 62
     4
 10
53.872269
 20
-12.499984
 11
63.872269
 21
-12.499984
  0
LINE
  8
0
 10
63.872253
 20
-9.649978
 11
64.910065
 21
-9.649978
  0
LINE
  8
0
 10
63.872253
 20
-6.349990
 11
64.910065
 21
-6.349990
  0
LINE
  8
0
 62
     4
 10
63.872223
 20
-12.499943
 11
63.872223
 21
-3.999944
  0
LINE
  8
0
 10
50.472290
 20
-19.499985
 11
65.172287
 21
-19.499985
  0
LINE
  8
0
 62
     2
 10
50.472290
 20
-19.999985
 11
65.172287
 21
-19.999985
  0
LINE
  8
0
 62
     2
 10
50.472290
 20
-23.999977
 11
65.172287
 21
-23.999977
  0
LINE
  8
0
 10
50.472290
 20
-24.499977
 11
65.172287
 21
-24.499977
  0
LINE
  8
0
 10
72.972229
 20
-39.999920
 11
72.972229
 21
40.000080
  0
LINE
  8
0
 10
62.376450
 20
-37.599953
 11
64.768158
 21
-37.599953
  0
LINE
  8
0
 10
64.768440
 20
-37.600018
 11
65.172585
 21
-36.900017
  0
LINE
  8
0
 10
62.376450
 20
-35.299965
 11
64.768158
 21
-35.299965
  0
LINE
  8
0
 10
62.376450
 20
-30.699989
 11
64.768158
 21
-30.699989
  0
LINE
  8
0
 10
65.172218
 20
-29.099987
 11
64.768074
 21
-28.399988
  0
LINE
  8
0
 10
62.376450
 20
-28.399971
 11
64.768158
 21
-28.399971
  0
LINE
  8
0
 10
61.972485
 20
-29.100000
 11
62.376629
 21
-28.400002
  0
LINE
  8
0
 10
61.972229
 20
-36.899929
 11
61.972229
 21
-29.099913
  0
LINE
  8
0
 10
62.376362
 20
-37.600025
 11
61.972218
 21
-36.900024
  0
LINE
  8
0
 10
71.172226
 20
-39.999935
 11
71.172226
 21
40.000072
  0
LINE
  8
0
 10
33.972260
 20
-9.649978
 11
34.710068
 21
-9.649978
  0
LINE
  8
0
 10
33.972260
 20
-6.349990
 11
34.710068
 21
-6.349990
  0
LINE
  8
0
 10
33.972244
 20
4.000016
 11
39.972244
 21
4.000016
  0
LINE
  8
0
 10
71.172241
 20
3.000016
 11
72.972244
 21
3.000016
  0
LINE
  8
0
 10
71.172256
 20
-2.999984
 11
72.972260
 21
-2.999984
  0
LINE
  8
0
 10
48.472275
 20
-16.499985
 11
50.472275
 21
-16.499985
  0
LINE
  8
0
 10
48.472290
 20
-27.499977
 11
50.472290
 21
-27.499977
  0
LINE
  8
0
 10
50.472229
 20
-27.499968
 11
50.472229
 21
-16.499960
  0
LINE
  8
0
 10
56.072216
 20
-30.999895
 11
56.572205
 21
-30.499907
  0
LINE
  8
0
 10
33.972260
 20
-3.999984
 11
48.372238
 21
-3.999984
  0
LINE
  8
0
 62
     4
 10
48.372238
 20
3.000016
 11
70.372238
 21
3.000016
  0
LINE
  8
0
 10
33.972260
 20
-11.999984
 11
53.872269
 21
-11.999984
  0
LINE
  8
0
 10
33.972229
 20
-39.999985
 11
33.972229
 21
40.000015
  0
LINE
  8
0
 10
39.972229
 20
4.000016
 11
39.972229
 21
40.000023
  0
LINE
  8
0
 10
39.234451
 20
-9.649978
 11
53.872253
 21
-9.649978
  0
LINE
  8
0
 10
39.234451
 20
-6.349990
 11
53.872253
 21
-6.349990
  0
LINE
  8
0
 10
45.676437
 20
-26.599953
 11
48.472290
 21
-26.599953
  0
LINE
  8
0
 10
45.676289
 20
-26.599997
 11
45.272144
 21
-25.900000
  0
LINE
  8
0
 10
45.676437
 20
-24.299965
 11
48.472290
 21
-24.299965
  0
LINE
  8
0
 10
45.676422
 20
-19.699966
 11
48.472290
 21
-19.699966
  0
LINE
  8
0
 10
45.676422
 20
-17.399979
 11
48.472275
 21
-17.399979
  0
LINE
  8
0
 10
45.272480
 20
-18.100002
 11
45.676624
 21
-17.400003
  0
LINE
  8
0
 10
45.272232
 20
-25.899961
 11
45.272232
 21
-18.099943
  0
LINE
  8
0
 10
40.472275
 20
-19.999985
 11
41.472275
 21
-19.999985
  0
LINE
  8
0
 10
40.472290
 20
-23.999977
 11
41.472290
 21
-23.999977
  0
LINE
  8
0
 10
39.972229
 20
-39.999969
 11
39.972229
 21
-11.999983
  0
LINE
  8
0
 10
41.072220
 20
22.700012
 11
50.872223
 21
22.700012
  0
LINE
  8
0
 10
41.722229
 20
10.438776
 11
41.722229
 21
20.200027
  0
LINE
  8
0
 10
50.222229
 20
10.438784
 11
50.222229
 21
20.200037
  0
LINE
  8
0
 10
41.072220
 20
21.200012
 11
50.872223
 21
21.200012
  0
LINE
  8
0
 10
41.722214
 20
20.200012
 11
50.222214
 21
20.200012
  0
LINE
  8
0
 10
41.072220
 20
21.200020
 11
41.072220
 21
22.700020
  0
LINE
  8
0
 10
50.872238
 20
21.200037
 11
50.872238
 21
22.700037
  0
LINE
  8
0
 10
41.722229
 20
19.200012
 11
50.222229
 21
19.200012
  0
LINE
  8
0
 10
42.722229
 20
20.200027
 11
42.722229
 21
21.200027
  0
LINE
  8
0
 10
49.222229
 20
20.200037
 11
49.222229
 21
21.200037
  0
LINE
  8
0
 10
59.772217
 20
22.700012
 11
69.572220
 21
22.700012
  0
LINE
  8
0
 10
60.422226
 20
10.438800
 11
60.422226
 21
20.200052
  0
LINE
  8
0
 10
68.922226
 20
10.438816
 11
68.922226
 21
20.200068
  0
LINE
  8
0
 10
59.772217
 20
21.200012
 11
69.572220
 21
21.200012
  0
LINE
  8
0
 10
60.422211
 20
20.200012
 11
68.922211
 21
20.200012
  0
LINE
  8
0
 10
59.772232
 20
21.200052
 11
59.772232
 21
22.700052
  0
LINE
  8
0
 10
69.572235
 20
21.200069
 11
69.572235
 21
22.700069
  0
LINE
  8
0
 10
60.422226
 20
19.200012
 11
68.922226
 21
19.200012
  0
LINE
  8
0
 10
61.422226
 20
20.200052
 11
61.422226
 21
21.200052
  0
LINE
  8
0
 10
67.922226
 20
20.200068
 11
67.922226
 21
21.200068
  0
LINE
  8
0
 62
     4
 10
53.872223
 20
-12.499959
 11
53.872223
 21
-3.999960
  0
LINE
  8
0
 10
63.872269
 20
-11.999984
 11
71.172272
 21
-11.999984
  0
LINE
  8
0
 10
69.434448
 20
-6.349990
 11
71.172256
 21
-6.349990
  0
LINE
  8
0
 10
69.434448
 20
-9.649978
 11
71.172256
 21
-9.649978
  0
LINE
  8
0
 10
48.472229
 20
-27.499968
 11
48.472229
 21
-16.499960
  0
LINE
  8
0
 10
44.868324
 20
-26.600082
 11
45.272469
 21
-25.900084
  0
LINE
  8
0
 10
42.476440
 20
-26.599953
 11
44.868149
 21
-26.599953
  0
LINE
  8
0
 10
42.476288
 20
-26.600000
 11
42.072144
 21
-25.900002
  0
LINE
  8
0
 10
42.072220
 20
-25.899963
 11
42.072220
 21
-18.099945
  0
LINE
  8
0
 10
42.476440
 20
-24.299965
 11
44.868149
 21
-24.299965
  0
LINE
  8
0
 10
42.476425
 20
-19.699966
 11
44.868149
 21
-19.699966
  0
LINE
  8
0
 10
42.072430
 20
-18.100039
 11
42.476574
 21
-17.400040
  0
LINE
  8
0
 10
42.476425
 20
-17.399979
 11
44.868134
 21
-17.399979
  0
LINE
  8
0
 10
45.272194
 20
-18.100014
 11
44.868050
 21
-17.400015
  0
LINE
  8
0
 10
41.472229
 20
-25.499969
 11
41.472229
 21
-18.499969
  0
LINE
  8
0
 10
41.472290
 20
-25.499977
 11
42.072296
 21
-25.499977
  0
LINE
  8
0
 10
41.472275
 20
-18.499985
 11
42.072281
 21
-18.499985
  0
LINE
  8
0
 10
40.472229
 20
-23.999969
 11
40.472229
 21
-19.999977
  0
LINE
  8
0
 10
71.172226
 20
15.000016
 11
72.972229
 21
15.000016
  0
LINE
  8
0
 10
71.172195
 20
35.000015
 11
72.972198
 21
35.000015
  0
LINE
  8
0
 10
72.072296
 20
-29.999977
 11
72.972305
 21
-29.999977
  0
LINE
  8
0
 10
72.072311
 20
-35.999977
 11
72.972305
 21
-35.999977
  0
LINE
  8
0
 10
72.072235
 20
-35.999920
 11
72.072235
 21
-29.999920
  0
LINE
  8
0
 10
71.172302
 20
-30.499977
 11
72.072296
 21
-30.499977
  0
LINE
  8
0
 10
71.172302
 20
-35.499977
 11
72.072311
 21
-35.499977
  0
LINE
  8
0
 62
     2
 10
71.172302
 20
-30.999977
 11
72.072296
 21
-30.999977
  0
LINE
  8
0
 62
     2
 10
71.172302
 20
-34.999977
 11
72.072311
 21
-34.999977
  0
LINE
  8
0
 62
     4
 10
58.693939
 20
-9.249984
 11
60.150574
 21
-9.249984
  0
LINE
  8
0
 62
     4
 10
58.693954
 20
-6.749984
 11
60.150574
 21
-6.749984
  0
LINE
  8
0
 62
     4
 10
58.693878
 20
-9.249999
 11
57.972191
 21
-8.000000
  0
LINE
  8
0
 62
     4
 10
60.872185
 20
-8.000001
 11
60.150497
 21
-6.750001
  0
LINE
  8
0
 62
     4
 10
60.150757
 20
-9.250031
 11
60.872444
 21
-8.000032
  0
LINE
  8
0
 62
     4
 10
57.972443
 20
-8.000008
 11
58.694130
 21
-6.750008
  0
LINE
  8
0
 10
39.972198
 20
35.000015
 11
71.172195
 21
35.000015
  0
LINE
  8
0
  6
CENTER
 62
     2
 10
71.965851
 20
25.000015
 11
80.390518
 21
25.000015
  0
LINE
  8
0
  6
CENTER
 62
     2
 10
71.815491
 20
-24.999977
 11
80.240158
 21
-24.999977
  0
LINE
  8
0
  6
CENTER
 62
     2
 10
31.948776
 20
-32.499977
 11
41.877853
 21
-32.499977
  0
LINE
  8
0
  6
CENTER
 62
     2
 10
71.965836
 20
32.500015
 11
80.390503
 21
32.500015
  0
LINE
  8
0
  6
CENTER
 62
     2
 10
31.948669
 20
32.500015
 11
41.426422
 21
32.500015
  0
LINE
  8
0
  6
CENTER
 62
     2
 10
71.815491
 20
-32.499977
 11
80.240158
 21
-32.499977
  0
LINE
  8
0
 10
38.386486
 20
-6.585775
 11
35.558048
 21
-9.414214
  0
LINE
  8
0
 10
38.386471
 20
-9.414194
 11
35.558044
 21
-6.585768
  0
LINE
  8
0
 10
68.586525
 20
-6.585760
 11
65.758095
 21
-9.414192
  0
LINE
  8
0
 10
68.586441
 20
-9.414173
 11
65.758011
 21
-6.585746
  0
LINE
  8
0
 62
     4
 10
48.372238
 20
-3.999984
 11
70.372238
 21
-3.999984
  0
LINE
  8
0
 10
70.372238
 20
-3.999984
 11
71.172256
 21
-3.999984
  0
LINE
  8
0
 10
-39.999977
 20
99.959999
 11
-39.999977
 21
105.959999
  0
LINE
  8
0
 10
-119.999985
 20
99.959938
 11
-119.999985
 21
105.959938
  0
LINE
  8
0
 10
-39.999985
 20
99.959953
 11
-119.999985
 21
99.959953
  0
LINE
  8
0
 10
-39.999989
 20
105.959953
 11
-64.999985
 21
105.959953
  0
LINE
  8
0
 10
-104.999985
 20
105.959938
 11
-104.999985
 21
137.159943
  0
LINE
  8
0
 10
-84.500015
 20
131.159943
 11
-100.000015
 21
131.159943
  0
LINE
  8
0
 10
-84.499985
 20
105.959953
 11
-84.499985
 21
131.159943
  0
LINE
  8
0
 62
     4
 10
-110.999985
 20
105.959938
 11
-110.999985
 21
108.159950
  0
LINE
  8
0
  6
CENTER
 62
     2
 10
-79.999985
 20
98.419975
 11
-79.999985
 21
150.157288
  0
LINE
  8
0
 10
-54.999985
 20
105.959984
 11
-54.999985
 21
108.060005
  0
LINE
  8
0
 10
-89.500008
 20
122.059975
 11
-93.500000
 21
122.059975
  0
LINE
  8
0
 10
-88.999985
 20
116.459953
 11
-88.999985
 21
127.959953
  0
LINE
  8
0
 10
-93.999985
 20
116.459953
 11
-93.999985
 21
127.959953
  0
LINE
  8
0
 10
-86.899986
 20
137.159943
 11
-86.899986
 21
138.555817
  0
LINE
  8
0
 10
-86.900017
 20
138.555862
 11
-87.600014
 21
138.960022
  0
LINE
  8
0
 10
-95.400040
 20
138.960022
 11
-96.100037
 21
138.555878
  0
LINE
  8
0
 10
-96.099983
 20
137.159943
 11
-96.099983
 21
138.555817
  0
LINE
  8
0
 62
     4
 10
-111.000000
 20
121.959969
 11
-105.000000
 21
121.959969
  0
LINE
  8
0
 62
     4
 10
-113.000000
 20
119.459953
 11
-111.000000
 21
119.459953
  0
LINE
  8
0
 62
     4
 10
-113.000000
 20
114.459953
 11
-111.000000
 21
114.459953
  0
LINE
  8
0
 62
     4
 10
-125.150017
 20
115.259956
 11
-113.000000
 21
115.259956
  0
LINE
  8
0
 62
     4
 10
-123.413849
 20
118.659966
 11
-113.000000
 21
118.659966
  0
LINE
  8
0
 62
     4
 10
-112.999985
 20
114.459938
 11
-112.999985
 21
119.459938
  0
LINE
  8
0
 10
-59.999985
 20
105.959984
 11
-59.999985
 21
137.159973
  0
LINE
  8
0
 10
-49.000023
 20
137.159943
 11
-105.000015
 21
137.159943
  0
LINE
  8
0
 10
-89.000015
 20
122.559975
 11
-94.000008
 21
122.559975
  0
LINE
  8
0
 10
-89.499992
 20
122.059952
 11
-88.999992
 21
122.559952
  0
LINE
  8
0
 10
-93.499977
 20
122.059952
 11
-93.999977
 21
122.559952
  0
LINE
  8
0
 62
     2
 10
-89.499985
 20
116.459953
 11
-89.499985
 21
127.959953
  0
LINE
  8
0
 62
     2
 10
-93.499985
 20
116.459953
 11
-93.499985
 21
127.959953
  0
LINE
  8
0
 10
-84.499985
 20
105.959953
 11
-119.999985
 21
105.959953
  0
LINE
  8
0
 10
-46.700012
 20
117.859978
 11
-58.200020
 21
117.859978
  0
LINE
  8
0
 10
-46.699997
 20
134.359985
 11
-46.699997
 21
124.559990
  0
LINE
  8
0
 10
-42.699989
 20
133.459991
 11
-42.699989
 21
125.459999
  0
LINE
  8
0
 10
-42.700024
 20
133.459961
 11
-46.700024
 21
133.459961
  0
LINE
  8
0
 10
-42.700016
 20
125.459969
 11
-46.700016
 21
125.459969
  0
LINE
  8
0
 10
-46.700016
 20
124.559975
 11
-58.200024
 21
124.559975
  0
LINE
  8
0
 10
-99.999985
 20
105.959938
 11
-99.999985
 21
137.159943
  0
LINE
  8
0
 62
     4
 10
-110.000000
 20
115.959953
 11
-105.000000
 21
115.959953
  0
LINE
  8
0
 62
     4
 10
-109.999985
 20
105.959938
 11
-109.999985
 21
115.959938
  0
LINE
  8
0
 62
     4
 10
-113.800003
 20
113.759956
 11
-110.115219
 21
113.759956
  0
LINE
  8
0
 62
     4
 10
-113.799995
 20
108.159950
 11
-110.115211
 21
108.159950
  0
LINE
  8
0
 62
     4
 10
-110.999985
 20
113.759941
 11
-110.999985
 21
121.959938
  0
LINE
  8
0
 62
     4
 10
-110.799988
 20
108.159950
 11
-110.799988
 21
113.759941
  0
LINE
  8
0
 62
     4
 10
-113.799988
 20
108.159935
 11
-113.799988
 21
113.759926
  0
LINE
  8
0
 10
-58.199997
 20
134.359985
 11
-58.199997
 21
124.559975
  0
LINE
  8
0
 10
-58.200035
 20
133.459961
 11
-60.000023
 21
133.459961
  0
LINE
  8
0
 10
-58.200024
 20
125.459969
 11
-60.000011
 21
125.459969
  0
LINE
  8
0
 10
-58.200005
 20
108.959969
 11
-59.999992
 21
108.959969
  0
LINE
  8
0
 10
-58.199997
 20
117.859993
 11
-58.199997
 21
108.059990
  0
LINE
  8
0
 10
-58.200016
 20
116.959969
 11
-60.000004
 21
116.959969
  0
LINE
  8
0
 10
-46.699997
 20
117.859993
 11
-46.699997
 21
108.060005
  0
LINE
  8
0
 10
-46.700005
 20
108.059975
 11
-58.200005
 21
108.059975
  0
LINE
  8
0
 10
-46.700031
 20
134.359955
 11
-58.200035
 21
134.359955
  0
LINE
  8
0
 10
-48.999985
 20
117.860008
 11
-48.999985
 21
124.560005
  0
LINE
  8
0
 10
-48.999985
 20
134.359985
 11
-48.999985
 21
137.159973
  0
LINE
  8
0
 10
-96.999985
 20
114.459938
 11
-96.999985
 21
116.459938
  0
LINE
  8
0
 10
-85.999985
 20
114.459953
 11
-85.999985
 21
116.459953
  0
LINE
  8
0
 10
-86.000000
 20
116.459953
 11
-97.000000
 21
116.459953
  0
LINE
  8
0
 10
-86.899994
 20
111.664101
 11
-86.899994
 21
114.459953
  0
LINE
  8
0
 10
-86.900024
 20
111.664101
 11
-87.600021
 21
111.259956
  0
LINE
  8
0
 10
-89.199997
 20
111.664101
 11
-89.199997
 21
114.459953
  0
LINE
  8
0
 10
-93.799988
 20
111.664101
 11
-93.799988
 21
114.459938
  0
LINE
  8
0
 10
-96.099991
 20
111.664101
 11
-96.099991
 21
114.459938
  0
LINE
  8
0
 10
-95.400040
 20
111.260017
 11
-96.100037
 21
111.664162
  0
LINE
  8
0
 10
-87.600006
 20
111.259956
 11
-95.400002
 21
111.259956
  0
LINE
  8
0
 10
-93.499985
 20
106.459938
 11
-93.499985
 21
107.459938
  0
LINE
  8
0
 10
-89.499985
 20
106.459953
 11
-89.499985
 21
107.459953
  0
LINE
  8
0
 10
-86.000000
 20
114.459953
 11
-97.000000
 21
114.459953
  0
LINE
  8
0
 10
-86.900017
 20
110.855896
 11
-87.600021
 21
111.260040
  0
LINE
  8
0
 10
-86.899994
 20
108.464088
 11
-86.899994
 21
110.855812
  0
LINE
  8
0
 10
-86.900009
 20
108.464104
 11
-87.600006
 21
108.059959
  0
LINE
  8
0
 10
-87.599998
 20
108.059944
 11
-95.400002
 21
108.059944
  0
LINE
  8
0
 10
-89.199997
 20
108.464088
 11
-89.199997
 21
110.855812
  0
LINE
  8
0
 10
-93.799988
 20
108.464088
 11
-93.799988
 21
110.855812
  0
LINE
  8
0
 10
-95.400032
 20
108.060020
 11
-96.100029
 21
108.464165
  0
LINE
  8
0
 10
-96.099991
 20
108.464088
 11
-96.099991
 21
110.855812
  0
LINE
  8
0
 10
-95.399979
 20
111.259857
 11
-96.099976
 21
110.855705
  0
LINE
  8
0
 10
-87.999985
 20
107.459953
 11
-94.999985
 21
107.459953
  0
LINE
  8
0
 10
-87.999985
 20
107.459953
 11
-87.999985
 21
108.059944
  0
LINE
  8
0
 10
-94.999985
 20
107.459938
 11
-94.999985
 21
108.059944
  0
LINE
  8
0
 10
-89.499992
 20
106.459953
 11
-93.499985
 21
106.459953
  0
LINE
  8
0
 10
-42.699989
 20
116.959999
 11
-42.699989
 21
108.959999
  0
LINE
  8
0
 10
-42.700008
 20
116.959969
 11
-46.700008
 21
116.959969
  0
LINE
  8
0
 10
-42.700005
 20
108.959969
 11
-46.700005
 21
108.959969
  0
LINE
  8
0
 10
-41.699989
 20
116.959999
 11
-41.699989
 21
108.959999
  0
LINE
  8
0
 10
-39.699989
 20
116.959999
 11
-39.699989
 21
108.959999
  0
LINE
  8
0
 10
-39.700008
 20
116.959969
 11
-41.700008
 21
116.959969
  0
LINE
  8
0
 10
-39.700005
 20
108.959969
 11
-41.700005
 21
108.959969
  0
LINE
  8
0
 10
-41.700005
 20
110.459969
 11
-42.700005
 21
110.459969
  0
LINE
  8
0
 10
-41.700008
 20
115.459969
 11
-42.700008
 21
115.459969
  0
LINE
  8
0
 10
-37.300003
 20
114.459969
 11
-39.700008
 21
114.459969
  0
LINE
  8
0
 10
-37.299999
 20
111.459969
 11
-39.700005
 21
111.459969
  0
LINE
  8
0
 10
-37.299992
 20
115.459999
 11
-37.299992
 21
110.459999
  0
LINE
  8
0
 10
-32.300007
 20
110.459969
 11
-37.299999
 21
110.459969
  0
LINE
  8
0
 10
-32.300011
 20
115.459969
 11
-37.300003
 21
115.459969
  0
LINE
  8
0
 10
-32.299992
 20
115.459999
 11
-32.299992
 21
110.459999
  0
LINE
  8
0
 10
-41.699989
 20
133.459991
 11
-41.699989
 21
125.459999
  0
LINE
  8
0
 10
-39.699989
 20
133.459991
 11
-39.699989
 21
125.459999
  0
LINE
  8
0
 10
-39.700024
 20
133.459961
 11
-41.700024
 21
133.459961
  0
LINE
  8
0
 10
-39.700016
 20
125.459969
 11
-41.700016
 21
125.459969
  0
LINE
  8
0
 10
-41.700016
 20
126.959969
 11
-42.700016
 21
126.959969
  0
LINE
  8
0
 10
-41.700020
 20
131.959961
 11
-42.700020
 21
131.959961
  0
LINE
  8
0
 10
-37.300014
 20
130.959961
 11
-39.700020
 21
130.959961
  0
LINE
  8
0
 10
-37.300014
 20
127.959969
 11
-39.700020
 21
127.959969
  0
LINE
  8
0
 10
-37.299992
 20
131.959991
 11
-37.299992
 21
126.959999
  0
LINE
  8
0
 10
-32.300018
 20
126.959969
 11
-37.300011
 21
126.959969
  0
LINE
  8
0
 10
-32.300022
 20
131.959961
 11
-37.300014
 21
131.959961
  0
LINE
  8
0
 10
-32.299992
 20
131.959991
 11
-32.299992
 21
126.959999
  0
LINE
  8
0
 10
-40.000023
 20
138.959961
 11
-60.500023
 21
138.959961
  0
LINE
  8
0
 10
-82.999985
 20
137.159943
 11
-82.999985
 21
138.959961
  0
LINE
  8
0
 10
-39.999977
 20
138.959991
 11
-39.999977
 21
144.959991
  0
LINE
  8
0
 10
-40.000031
 20
144.959961
 11
-120.000031
 21
144.959961
  0
LINE
  8
0
 10
-119.999985
 20
138.959930
 11
-119.999985
 21
144.959930
  0
LINE
  8
0
 10
-60.499985
 20
137.159973
 11
-60.499985
 21
139.459991
  0
LINE
  8
0
 10
-80.499985
 20
137.159973
 11
-80.499985
 21
139.459961
  0
LINE
  8
0
 10
-86.900009
 20
130.755829
 11
-87.600006
 21
131.159973
  0
LINE
  8
0
 10
-95.399986
 20
131.159897
 11
-96.099991
 21
130.755753
  0
LINE
  8
0
 10
-96.099983
 20
128.364075
 11
-96.099983
 21
130.755798
  0
LINE
  8
0
 10
-93.799988
 20
128.364075
 11
-93.799988
 21
130.755798
  0
LINE
  8
0
 10
-89.199989
 20
128.364105
 11
-89.199989
 21
130.755798
  0
LINE
  8
0
 10
-86.899986
 20
128.364105
 11
-86.899986
 21
130.755798
  0
LINE
  8
0
 10
-86.900017
 20
128.364136
 11
-87.600014
 21
127.959999
  0
LINE
  8
0
 10
-87.600014
 20
127.959969
 11
-95.400017
 21
127.959969
  0
LINE
  8
0
 10
-95.399986
 20
127.959953
 11
-96.099983
 21
128.364090
  0
LINE
  8
0
 10
-64.999985
 20
105.959969
 11
-64.999985
 21
137.159973
  0
LINE
  8
0
 10
-59.500023
 20
139.459961
 11
-81.500023
 21
139.459961
  0
LINE
  8
0
 10
-59.499985
 20
138.959991
 11
-59.499985
 21
139.459991
  0
LINE
  8
0
 10
-81.499985
 20
138.959961
 11
-81.499985
 21
139.459961
  0
LINE
  8
0
 10
-80.500023
 20
138.959961
 11
-120.000023
 21
138.959961
  0
LINE
  8
0
 10
-82.999985
 20
100.060860
 11
-82.999985
 21
103.959969
  0
LINE
  8
0
 10
-76.999985
 20
99.959969
 11
-76.999985
 21
103.959969
  0
LINE
  8
0
 10
-77.456223
 20
103.959953
 11
-82.999985
 21
103.959953
  0
LINE
  8
0
 10
-46.000011
 20
122.609962
 11
-49.000011
 21
122.609962
  0
LINE
  8
0
 10
-45.999985
 20
122.609993
 11
-45.999985
 21
125.459999
  0
LINE
  8
0
 62
     1
 10
-122.138290
 20
121.158073
 11
-126.284492
 21
113.038414
  0
LINE
  8
0
  6
CENTER
 62
     2
 10
-112.499985
 20
97.904594
 11
-112.499985
 21
107.060799
  0
LINE
  8
0
  6
CENTER
 62
     2
 10
-47.499977
 20
97.904640
 11
-47.499977
 21
107.233620
  0
LINE
  8
0
  6
CENTER
 62
     2
 10
-47.499977
 20
137.639099
 11
-47.499977
 21
145.931519
  0
LINE
  8
0
  6
CENTER
 62
     2
 10
-54.999977
 20
137.639099
 11
-54.999977
 21
145.931519
  0
LINE
  8
0
  6
CENTER
 62
     2
 10
-112.499985
 20
137.639069
 11
-112.499985
 21
145.931488
  0
LINE
  8
0
  6
CENTER
 62
     2
 10
-104.999985
 20
137.639069
 11
-104.999985
 21
145.931488
  0
LINE
  8
0
 10
-120.000000
 20
-100.959976
 11
-120.000000
 21
-106.959976
  0
LINE
  8
0
 10
-39.999992
 20
-100.959915
 11
-39.999992
 21
-106.959915
  0
LINE
  8
0
 10
-119.999992
 20
-100.959930
 11
-39.999992
 21
-100.959930
  0
LINE
  8
0
 10
-119.999992
 20
-106.959930
 11
-94.999992
 21
-106.959930
  0
LINE
  8
0
 10
-55.000000
 20
-106.959915
 11
-55.000000
 21
-138.159912
  0
LINE
  8
0
 10
-75.499962
 20
-132.159927
 11
-59.999962
 21
-132.159927
  0
LINE
  8
0
 10
-75.500000
 20
-106.959930
 11
-75.500000
 21
-132.159927
  0
LINE
  8
0
 62
     4
 10
-49.000004
 20
-115.359924
 11
-49.000004
 21
-123.559875
  0
LINE
  8
0
  6
CENTER
 62
     2
 10
-80.000000
 20
-99.419952
 11
-80.000000
 21
-164.034576
  0
LINE
  8
0
 10
-105.000000
 20
-106.959961
 11
-105.000000
 21
-138.159927
  0
LINE
  8
0
  6
PHANTOM
 62
     2
 10
-73.099998
 20
-154.555908
 11
-72.399979
 21
-154.960068
  0
LINE
  8
0
  6
PHANTOM
 62
     2
 10
-64.599869
 20
-154.960007
 11
-63.899899
 21
-154.555878
  0
LINE
  8
0
  6
PHANTOM
 62
     2
 10
-63.899994
 20
-152.164062
 11
-63.899994
 21
-154.555786
  0
LINE
  8
0
  6
PHANTOM
 62
     2
 10
-66.199982
 20
-152.164062
 11
-66.199982
 21
-154.555786
  0
LINE
  8
0
  6
PHANTOM
 62
     2
 10
-70.799988
 20
-152.164078
 11
-70.799988
 21
-154.555786
  0
LINE
  8
0
  6
PHANTOM
 62
     2
 10
-73.099991
 20
-152.164078
 11
-73.099991
 21
-154.555786
  0
LINE
  8
0
  6
PHANTOM
 62
     2
 10
-73.099915
 20
-152.164093
 11
-72.399910
 21
-151.759949
  0
LINE
  8
0
  6
PHANTOM
 62
     2
 10
-72.399956
 20
-151.759933
 11
-64.599937
 21
-151.759933
  0
LINE
  8
0
  6
PHANTOM
 62
     2
 10
-64.599998
 20
-151.760071
 11
-63.900002
 21
-152.164230
  0
LINE
  8
0
 10
-70.499977
 20
-123.059952
 11
-66.499977
 21
-123.059952
  0
LINE
  8
0
 10
-71.000000
 20
-117.459930
 11
-71.000000
 21
-122.059952
  0
LINE
  8
0
 10
-66.000000
 20
-117.459930
 11
-66.000000
 21
-122.059952
  0
LINE
  8
0
 10
-73.099991
 20
-138.159927
 11
-73.099991
 21
-139.555786
  0
LINE
  8
0
 10
-73.099945
 20
-139.555786
 11
-72.399963
 21
-139.959930
  0
LINE
  8
0
 10
-64.599930
 20
-139.960007
 11
-63.899937
 21
-139.555862
  0
LINE
  8
0
 10
-63.899994
 20
-138.159927
 11
-63.899994
 21
-139.555786
  0
LINE
  8
0
 62
     4
 10
-48.999931
 20
-137.359924
 11
-54.999931
 21
-137.359924
  0
LINE
  8
0
 62
     4
 10
-46.999935
 20
-134.859894
 11
-48.999931
 21
-134.859894
  0
LINE
  8
0
 62
     4
 10
-46.999935
 20
-129.859894
 11
-48.999931
 21
-129.859894
  0
LINE
  8
0
 62
     4
 10
-34.849926
 20
-130.659912
 11
-46.999935
 21
-130.659912
  0
LINE
  8
0
 62
     4
 10
-36.586086
 20
-134.059906
 11
-46.999935
 21
-134.059906
  0
LINE
  8
0
 62
     4
 10
-47.000004
 20
-129.859863
 11
-47.000004
 21
-134.859863
  0
LINE
  8
0
 10
-100.000000
 20
-106.959961
 11
-100.000000
 21
-138.159958
  0
LINE
  8
0
 10
-104.999992
 20
-138.159927
 11
-54.999962
 21
-138.159927
  0
LINE
  8
0
  6
PHANTOM
 62
     2
 10
-77.000000
 20
-139.959946
 11
-77.000000
 21
-154.959930
  0
LINE
  8
0
  6
PHANTOM
 62
     2
 10
-119.999939
 20
-154.959930
 11
-39.999943
 21
-154.959930
  0
LINE
  8
0
  6
PHANTOM
 62
     2
 10
-120.000000
 20
-154.959976
 11
-120.000000
 21
-160.959976
  0
LINE
  8
0
  6
PHANTOM
 62
     2
 10
-119.999924
 20
-160.959930
 11
-39.999935
 21
-160.959930
  0
LINE
  8
0
  6
PHANTOM
 62
     2
 10
-39.999992
 20
-154.959915
 11
-39.999992
 21
-160.959915
  0
LINE
  8
0
 10
-70.999962
 20
-123.559952
 11
-65.999977
 21
-123.559952
  0
LINE
  8
0
 10
-70.499977
 20
-123.059921
 11
-70.999977
 21
-123.559921
  0
LINE
  8
0
 10
-66.499977
 20
-123.059914
 11
-65.999992
 21
-123.559906
  0
LINE
  8
0
 62
     2
 10
-70.500000
 20
-117.459930
 11
-70.500000
 21
-122.059952
  0
LINE
  8
0
 62
     2
 10
-66.500000
 20
-117.459930
 11
-66.500000
 21
-122.059952
  0
LINE
  8
0
 10
-75.499992
 20
-106.959930
 11
-39.999992
 21
-106.959930
  0
LINE
  8
0
 10
-46.700020
 20
-118.859955
 11
-48.999996
 21
-118.859955
  0
LINE
  8
0
 10
-46.700012
 20
-135.359970
 11
-46.700012
 21
-134.059906
  0
LINE
  8
0
 10
-42.700012
 20
-134.459976
 11
-42.700012
 21
-134.059906
  0
LINE
  8
0
 10
-42.700035
 20
-134.459946
 11
-46.700035
 21
-134.459946
  0
LINE
  8
0
 10
-42.700020
 20
-126.459946
 11
-46.199978
 21
-126.459946
  0
LINE
  8
0
 10
-60.000000
 20
-106.959915
 11
-60.000000
 21
-138.159927
  0
LINE
  8
0
 62
     4
 10
-49.999931
 20
-131.359894
 11
-54.999931
 21
-131.359894
  0
LINE
  8
0
 62
     4
 10
-50.000004
 20
-121.359863
 11
-50.000004
 21
-131.359863
  0
LINE
  8
0
 62
     4
 10
-46.199932
 20
-129.159912
 11
-49.884712
 21
-129.159912
  0
LINE
  8
0
 62
     4
 10
-46.199932
 20
-123.559906
 11
-49.884716
 21
-123.559906
  0
LINE
  8
0
 62
     4
 10
-49.000004
 20
-129.159851
 11
-49.000004
 21
-137.359863
  0
LINE
  8
0
 62
     4
 10
-49.199986
 20
-123.559875
 11
-49.199986
 21
-129.159851
  0
LINE
  8
0
 62
     4
 10
-46.199986
 20
-123.559875
 11
-46.199986
 21
-129.159851
  0
LINE
  8
0
 10
-46.700012
 20
-118.859970
 11
-46.700012
 21
-109.059982
  0
LINE
  8
0
 10
-46.700005
 20
-109.059952
 11
-54.999992
 21
-109.059952
  0
LINE
  8
0
 10
-46.700035
 20
-135.359940
 11
-48.999992
 21
-135.359940
  0
LINE
  8
0
 10
-63.000000
 20
-115.459915
 11
-63.000000
 21
-117.459915
  0
LINE
  8
0
 10
-74.000000
 20
-115.459930
 11
-74.000000
 21
-117.459930
  0
LINE
  8
0
 10
-73.999977
 20
-117.459930
 11
-62.999977
 21
-117.459930
  0
LINE
  8
0
 10
-73.099976
 20
-112.664078
 11
-73.099976
 21
-115.459930
  0
LINE
  8
0
 10
-73.099960
 20
-112.664078
 11
-72.399963
 21
-112.259933
  0
LINE
  8
0
 10
-70.799988
 20
-112.664078
 11
-70.799988
 21
-115.459930
  0
LINE
  8
0
 10
-66.199982
 20
-112.664078
 11
-66.199982
 21
-115.459915
  0
LINE
  8
0
 10
-63.899994
 20
-112.664078
 11
-63.899994
 21
-115.459915
  0
LINE
  8
0
 10
-64.599991
 20
-112.260040
 11
-63.899998
 21
-112.664185
  0
LINE
  8
0
 10
-72.399971
 20
-112.259933
 11
-64.599968
 21
-112.259933
  0
LINE
  8
0
 10
-66.500000
 20
-107.459915
 11
-66.500000
 21
-108.459915
  0
LINE
  8
0
 10
-70.500000
 20
-107.459930
 11
-70.500000
 21
-108.459930
  0
LINE
  8
0
 10
-73.999977
 20
-115.459930
 11
-62.999977
 21
-115.459930
  0
LINE
  8
0
 10
-73.099998
 20
-111.855865
 11
-72.399986
 21
-112.260010
  0
LINE
  8
0
 10
-73.099976
 20
-109.464066
 11
-73.099976
 21
-111.855789
  0
LINE
  8
0
 10
-73.099960
 20
-109.464088
 11
-72.399963
 21
-109.059944
  0
LINE
  8
0
 10
-72.399986
 20
-109.059921
 11
-64.599968
 21
-109.059921
  0
LINE
  8
0
 10
-70.799988
 20
-109.464066
 11
-70.799988
 21
-111.855789
  0
LINE
  8
0
 10
-66.199982
 20
-109.464066
 11
-66.199982
 21
-111.855789
  0
LINE
  8
0
 10
-64.599968
 20
-109.060036
 11
-63.899971
 21
-109.464180
  0
LINE
  8
0
 10
-63.899994
 20
-109.464066
 11
-63.899994
 21
-111.855789
  0
LINE
  8
0
 10
-64.599937
 20
-112.259926
 11
-63.899937
 21
-111.855774
  0
LINE
  8
0
 10
-71.999992
 20
-108.459930
 11
-64.999992
 21
-108.459930
  0
LINE
  8
0
 10
-72.000000
 20
-108.459930
 11
-72.000000
 21
-109.059921
  0
LINE
  8
0
 10
-65.000000
 20
-108.459915
 11
-65.000000
 21
-109.059921
  0
LINE
  8
0
 10
-70.499992
 20
-107.459930
 11
-66.499992
 21
-107.459930
  0
LINE
  8
0
 10
-42.700012
 20
-117.959976
 11
-42.700012
 21
-109.959976
  0
LINE
  8
0
 10
-42.700020
 20
-117.959946
 11
-46.700020
 21
-117.959946
  0
LINE
  8
0
 10
-42.700005
 20
-109.959946
 11
-46.700005
 21
-109.959946
  0
LINE
  8
0
 10
-41.700012
 20
-117.959976
 11
-41.700012
 21
-109.959976
  0
LINE
  8
0
 10
-39.700012
 20
-117.959976
 11
-39.700012
 21
-109.959976
  0
LINE
  8
0
 10
-39.700020
 20
-117.959946
 11
-41.700020
 21
-117.959946
  0
LINE
  8
0
 10
-39.700005
 20
-109.959946
 11
-41.700005
 21
-109.959946
  0
LINE
  8
0
 10
-41.700005
 20
-111.459946
 11
-42.700005
 21
-111.459946
  0
LINE
  8
0
 10
-41.700020
 20
-116.459946
 11
-42.700020
 21
-116.459946
  0
LINE
  8
0
 10
-37.300011
 20
-115.459946
 11
-39.700020
 21
-115.459946
  0
LINE
  8
0
 10
-37.300011
 20
-112.459946
 11
-39.700005
 21
-112.459946
  0
LINE
  8
0
 10
-37.300018
 20
-116.459976
 11
-37.300018
 21
-111.459976
  0
LINE
  8
0
 10
-32.300011
 20
-111.459946
 11
-37.300011
 21
-111.459946
  0
LINE
  8
0
 10
-32.300011
 20
-116.459946
 11
-37.300011
 21
-116.459946
  0
LINE
  8
0
 10
-32.300018
 20
-116.459976
 11
-32.300018
 21
-111.459976
  0
LINE
  8
0
 10
-41.700012
 20
-134.459976
 11
-41.700012
 21
-134.059906
  0
LINE
  8
0
 10
-39.700012
 20
-134.459976
 11
-39.700012
 21
-134.059906
  0
LINE
  8
0
 10
-39.700035
 20
-134.459946
 11
-41.700035
 21
-134.459946
  0
LINE
  8
0
 10
-39.700020
 20
-126.459946
 11
-41.700020
 21
-126.459946
  0
LINE
  8
0
 10
-41.700020
 20
-127.959946
 11
-42.700020
 21
-127.959946
  0
LINE
  8
0
 10
-37.300026
 20
-128.959946
 11
-39.700035
 21
-128.959946
  0
LINE
  8
0
 10
-37.300018
 20
-130.659912
 11
-37.300018
 21
-127.959976
  0
LINE
  8
0
 10
-32.300026
 20
-127.959946
 11
-37.300011
 21
-127.959946
  0
LINE
  8
0
 10
-32.300026
 20
-132.959946
 11
-36.024414
 21
-132.959946
  0
LINE
  8
0
 10
-32.300018
 20
-132.959976
 11
-32.300018
 21
-127.959976
  0
LINE
  8
0
 10
-119.999962
 20
-139.959946
 11
-99.499962
 21
-139.959946
  0
LINE
  8
0
 10
-83.000000
 20
-145.959946
 11
-83.000000
 21
-146.959946
  0
LINE
  8
0
 10
-77.000000
 20
-138.159927
 11
-77.000000
 21
-139.959946
  0
LINE
  8
0
 10
-120.000000
 20
-139.959976
 11
-120.000000
 21
-145.959976
  0
LINE
  8
0
 10
-119.999939
 20
-145.959930
 11
-39.999943
 21
-145.959930
  0
LINE
  8
0
 10
-39.999992
 20
-139.959915
 11
-39.999992
 21
-145.959915
  0
LINE
  8
0
 10
-77.000000
 20
-145.959946
 11
-77.000000
 21
-146.959946
  0
LINE
  8
0
 10
-99.500000
 20
-138.159958
 11
-99.500000
 21
-140.459961
  0
LINE
  8
0
 10
-79.500000
 20
-138.159943
 11
-79.500000
 21
-140.459946
  0
LINE
  8
0
  6
PHANTOM
 62
     2
 10
-99.500000
 20
-151.959961
 11
-99.500000
 21
-154.959961
  0
LINE
  8
0
  6
PHANTOM
 62
     2
 10
-99.499947
 20
-151.959930
 11
-82.999992
 21
-151.959930
  0
LINE
  8
0
  6
PHANTOM
 62
     2
 10
-83.000000
 20
-139.959946
 11
-83.000000
 21
-154.959930
  0
LINE
  8
0
 10
-73.100029
 20
-131.755905
 11
-72.400024
 21
-132.160049
  0
LINE
  8
0
 10
-64.599960
 20
-132.159958
 11
-63.899960
 21
-131.755814
  0
LINE
  8
0
 10
-63.899994
 20
-129.364059
 11
-63.899994
 21
-131.755783
  0
LINE
  8
0
 10
-66.199982
 20
-129.364059
 11
-66.199982
 21
-131.755783
  0
LINE
  8
0
 10
-70.799988
 20
-129.364075
 11
-70.799988
 21
-131.755783
  0
LINE
  8
0
 10
-73.099991
 20
-129.364075
 11
-73.099991
 21
-131.755783
  0
LINE
  8
0
 10
-73.099998
 20
-129.364014
 11
-72.400002
 21
-128.959869
  0
LINE
  8
0
 10
-72.399956
 20
-128.959946
 11
-64.599968
 21
-128.959946
  0
LINE
  8
0
 10
-64.600021
 20
-128.959976
 11
-63.900009
 21
-129.364120
  0
LINE
  8
0
  6
PHANTOM
 62
     2
 10
-71.000000
 20
-138.159927
 11
-71.000000
 21
-151.759933
  0
LINE
  8
0
  6
PHANTOM
 62
     2
 10
-66.000000
 20
-138.159927
 11
-66.000000
 21
-151.759918
  0
LINE
  8
0
  6
PHANTOM
 62
     2
 10
-85.500000
 20
-138.159943
 11
-85.500000
 21
-151.959946
  0
LINE
  8
0
  6
PHANTOM
 62
     2
 10
-93.500000
 20
-138.159958
 11
-93.500000
 21
-151.959961
  0
LINE
  8
0
 10
-95.000000
 20
-106.959946
 11
-95.000000
 21
-138.159958
  0
LINE
  8
0
 10
-100.499962
 20
-140.459930
 11
-78.499962
 21
-140.459930
  0
LINE
  8
0
 10
-100.500000
 20
-139.959961
 11
-100.500000
 21
-140.459961
  0
LINE
  8
0
 10
-78.500000
 20
-139.959946
 11
-78.500000
 21
-140.459946
  0
LINE
  8
0
 10
-79.499962
 20
-139.959946
 11
-39.999954
 21
-139.959946
  0
LINE
  8
0
 62
     1
 10
-37.861664
 20
-136.558044
 11
-33.715458
 21
-128.438400
  0
LINE
  8
0
  6
CENTER
 62
     2
 10
-47.499992
 20
-98.904572
 11
-47.499992
 21
-108.060776
  0
LINE
  8
0
  6
CENTER
 62
     2
 10
-112.500000
 20
-98.904617
 11
-112.500000
 21
-108.233597
  0
LINE
  8
0
  6
CENTER
 62
     2
 10
-112.500000
 20
-138.639084
 11
-112.500000
 21
-146.931503
  0
LINE
  8
0
  6
CENTER
 62
     2
 10
-105.000000
 20
-138.639084
 11
-105.000000
 21
-146.931503
  0
LINE
  8
0
  6
CENTER
 62
     2
 10
-47.499992
 20
-138.639053
 11
-47.499992
 21
-146.931458
  0
LINE
  8
0
  6
CENTER
 62
     2
 10
-55.000000
 20
-138.639053
 11
-55.000000
 21
-146.931458
  0
LINE
  8
0
 62
     4
 10
-111.000008
 20
-122.959946
 11
-105.000008
 21
-122.959946
  0
LINE
  8
0
 62
     4
 10
-113.000008
 20
-120.459930
 11
-111.000008
 21
-120.459930
  0
LINE
  8
0
 62
     4
 10
-113.000008
 20
-115.459930
 11
-111.000008
 21
-115.459930
  0
LINE
  8
0
 62
     4
 10
-125.150017
 20
-116.259933
 11
-113.000008
 21
-116.259933
  0
LINE
  8
0
 62
     4
 10
-123.413857
 20
-119.659943
 11
-113.000008
 21
-119.659943
  0
LINE
  8
0
 62
     4
 10
-113.000000
 20
-115.459915
 11
-113.000000
 21
-120.459915
  0
LINE
  8
0
 62
     4
 10
-113.800011
 20
-114.759933
 11
-111.000000
 21
-114.759933
  0
LINE
  8
0
 62
     4
 10
-113.800011
 20
-109.159927
 11
-111.000000
 21
-109.159927
  0
LINE
  8
0
 62
     4
 10
-111.000000
 20
-106.959930
 11
-111.000000
 21
-122.959915
  0
LINE
  8
0
 62
     4
 10
-113.800018
 20
-109.159912
 11
-113.800018
 21
-114.759903
  0
LINE
  8
0
 62
     1
 10
-122.138206
 20
-122.158043
 11
-126.284416
 21
-114.038361
  0
LINE
  8
0
 62
     4
 10
-48.999996
 20
-115.359924
 11
-54.999935
 21
-115.359924
  0
LINE
  8
0
 62
     4
 10
-49.999935
 20
-121.359894
 11
-54.999935
 21
-121.359894
  0
LINE
  8
0
 10
-46.700012
 20
-130.659912
 11
-46.700012
 21
-129.159912
  0
LINE
  8
0
 10
-42.700012
 20
-130.659912
 11
-42.700012
 21
-126.459976
  0
LINE
  8
0
 10
-41.700012
 20
-130.659912
 11
-41.700012
 21
-126.459976
  0
LINE
  8
0
 10
-39.700012
 20
-130.659912
 11
-39.700012
 21
-126.459976
  0
LINE
  8
0
 62
     2
 10
-66.500000
 20
-123.059952
 11
-66.500000
 21
-128.959930
  0
LINE
  8
0
 10
-66.000000
 20
-123.559952
 11
-66.000000
 21
-128.959930
  0
LINE
  8
0
 62
     2
 10
-70.500000
 20
-123.059952
 11
-70.500000
 21
-128.959930
  0
LINE
  8
0
 10
-71.000000
 20
-123.559952
 11
-71.000000
 21
-128.959930
  0
LINE
  8
0
 10
141.023712
 20
40.000004
 11
141.023712
 21
-39.999981
  0
LINE
  8
0
 10
221.023727
 20
39.999996
 11
221.023727
 21
-39.999989
  0
LINE
  8
0
 10
141.023743
 20
40.000015
 11
221.023743
 21
40.000015
  0
LINE
  8
0
 10
141.023727
 20
-40.000000
 11
221.023727
 21
-40.000000
  0
LINE
  8
0
  6
CENTER
 62
     2
 10
136.879898
 20
0.000016
 11
224.886063
 21
0.000016
  0
LINE
  8
0
  6
CENTER
 62
     2
 10
181.023727
 20
44.259155
 11
181.023727
 21
-43.365768
  0
LINE
  8
0
  6
CENTER
 62
     2
 10
148.523727
 20
37.696514
 11
148.523727
 21
27.409380
  0
LINE
  8
0
  6
CENTER
 62
     2
 10
213.523727
 20
37.696507
 11
213.523727
 21
27.073097
  0
LINE
  8
0
  6
CENTER
 62
     2
 10
142.872192
 20
32.500015
 11
154.032928
 21
32.500015
  0
LINE
  8
0
  6
CENTER
 62
     2
 10
143.261017
 20
-32.500000
 11
153.846848
 21
-32.500000
  0
LINE
  8
0
  6
CENTER
 62
     2
 10
150.283997
 20
-24.999985
 11
160.928146
 21
-24.999985
  0
LINE
  8
0
  6
CENTER
 62
     2
 10
150.283997
 20
25.000015
 11
161.463165
 21
25.000015
  0
LINE
  8
0
  6
CENTER
 62
     2
 10
206.023727
 20
29.885178
 11
206.023727
 21
19.730446
  0
LINE
  8
0
  6
CENTER
 62
     2
 10
156.023727
 20
30.041409
 11
156.023727
 21
19.574223
  0
LINE
  8
0
  6
CENTER
 62
     2
 10
156.023727
 20
-20.194334
 11
156.023727
 21
-30.776472
  0
LINE
  8
0
  6
CENTER
 62
     2
 10
156.023727
 20
3.507967
 11
156.023727
 21
-4.310148
  0
LINE
  8
0
  6
CENTER
 62
     2
 10
213.523727
 20
-27.367388
 11
213.523727
 21
-38.073410
  0
LINE
  8
0
  6
CENTER
 62
     2
 10
206.023727
 20
-19.462801
 11
206.023727
 21
-30.776476
  0
LINE
  8
0
  6
CENTER
 62
     2
 10
200.363586
 20
-24.999985
 11
211.455688
 21
-24.999985
  0
LINE
  8
0
  6
CENTER
 62
     2
 10
207.825348
 20
-32.500000
 11
218.798340
 21
-32.500000
  0
LINE
  8
0
  6
CENTER
 62
     2
 10
177.554504
 20
-24.999985
 11
184.740921
 21
-24.999985
  0
LINE
  8
0
  6
CENTER
 62
     2
 10
206.023743
 20
3.326649
 11
206.023743
 21
-3.234869
  0
LINE
  8
0
  6
CENTER
 62
     2
 10
213.523743
 20
3.326649
 11
213.523743
 21
-3.703550
  0
LINE
  8
0
  6
CENTER
 62
     2
 10
177.459488
 20
32.500031
 11
184.288422
 21
32.500031
  0
LINE
  8
0
  6
CENTER
 62
     2
 10
177.459488
 20
-32.500000
 11
184.272247
 21
-32.500000
  0
LINE
  8
0
 10
140.723724
 20
4.000004
 11
140.723724
 21
12.000004
  0
LINE
  8
0
 10
140.723740
 20
4.000000
 11
141.023743
 21
4.000000
  0
LINE
  8
0
 10
140.723740
 20
12.000001
 11
141.023743
 21
12.000001
  0
LINE
  8
0
 10
138.323730
 20
6.500000
 11
140.723740
 21
6.500000
  0
LINE
  8
0
 10
138.323730
 20
9.500001
 11
140.723740
 21
9.500001
  0
LINE
  8
0
 10
138.323730
 20
5.500004
 11
138.323730
 21
10.500004
  0
LINE
  8
0
 10
133.323746
 20
10.500001
 11
138.323730
 21
10.500001
  0
LINE
  8
0
 10
133.323746
 20
5.500000
 11
138.323730
 21
5.500000
  0
LINE
  8
0
 10
133.323730
 20
5.500004
 11
133.323730
 21
10.500005
  0
LINE
  8
0
  6
CENTER
 62
     2
 10
148.523727
 20
3.507968
 11
148.523727
 21
-3.591855
  0
LINE
  8
0
  6
CENTER
 62
     2
 10
177.398285
 20
25.000031
 11
184.740936
 21
25.000031
  0
LINE
  8
0
  6
CENTER
 62
     2
 10
148.523727
 20
-27.811689
 11
148.523727
 21
-38.030956
  0
LINE
  8
0
  6
CENTER
 62
     2
 10
200.207367
 20
25.000015
 11
211.299454
 21
25.000015
  0
LINE
  8
0
  6
CENTER
 62
     2
 10
207.393799
 20
32.500015
 11
218.954559
 21
32.500015
  0
ARC
  8
0
 62
     4
 10
-60.619987
 20
-7.999999
 40
4.420009
 50
320.692413
 51
39.307362
  0
ARC
  8
0
 62
     4
 10
-99.094986
 20
7.999999
 40
4.704991
 50
141.948822
 51
218.051392
  0
CIRCLE
  8
0
 10
-112.499985
 20
32.499996
 40
1.500000
  0
CIRCLE
  8
0
 62
     2
 10
-112.499985
 20
32.499996
 40
2.000000
  0
CIRCLE
  8
0
 10
-47.499977
 20
32.500019
 40
1.500000
  0
CIRCLE
  8
0
 62
     2
 10
-47.499977
 20
32.500019
 40
2.000000
  0
CIRCLE
  8
0
 10
-112.499977
 20
-32.500004
 40
1.500000
  0
CIRCLE
  8
0
 62
     2
 10
-112.499977
 20
-32.500004
 40
2.000000
  0
CIRCLE
  8
0
 10
-47.499977
 20
-32.499996
 40
1.500000
  0
CIRCLE
  8
0
 62
     2
 10
-47.499977
 20
-32.499996
 40
2.000000
  0
ARC
  8
0
 10
-79.999977
 20
31.500008
 40
3.000000
 50
180.000000
 51
359.999969
  0
CIRCLE
  8
0
 10
-79.999977
 20
-32.500000
 40
3.000000
  0
ARC
  8
0
 10
-79.999977
 20
-0.500000
 40
7.500000
 50
0.000014
 51
211.051971
  0
ARC
  8
0
 10
-85.656830
 20
-5.656861
 40
1.500000
 50
300.522614
 51
120.814674
  0
ARC
  8
0
 10
-74.343124
 20
-5.656845
 40
1.500002
 50
59.185017
 51
239.477402
  0
ARC
  8
0
 10
-85.656830
 20
-5.656861
 40
0.600000
 50
259.727814
 51
190.272095
  0
ARC
  8
0
 10
-74.343124
 20
-5.656845
 40
0.599997
 50
349.726349
 51
280.273651
  0
ARC
  8
0
 10
-79.999977
 20
-0.500000
 40
7.499997
 50
328.948059
 51
0.000014
  0
CIRCLE
  8
0
 10
-79.999977
 20
0.000000
 40
8.500000
  0
ARC
  8
0
 10
-213.155029
 20
18.549971
 40
1.838242
 50
0.000000
 51
38.726051
  0
CIRCLE
  8
0
 62
     4
 10
-214.266785
 20
7.999953
 40
3.300000
  0
ARC
  8
0
 10
-240.378555
 20
25.449917
 40
1.838242
 50
180.000000
 51
218.726013
  0
ARC
  8
0
 10
-235.470016
 20
21.999950
 40
6.746766
 50
160.068008
 51
199.931946
  0
ARC
  8
0
 10
-240.378540
 20
18.549923
 40
1.838253
 50
141.274292
 51
180.000000
  0
CIRCLE
  8
0
 10
-236.416763
 20
7.999951
 40
2.800000
  0
CIRCLE
  8
0
 62
     4
 10
-220.216782
 20
0.499953
 40
1.700000
  0
CIRCLE
  8
0
 62
     4
 10
-220.216782
 20
0.499953
 40
2.500000
  0
ARC
  8
0
 10
-232.578568
 20
36.449932
 40
1.838242
 50
180.000000
 51
218.726013
  0
ARC
  8
0
 10
-227.670044
 20
32.999950
 40
6.746766
 50
160.068008
 51
199.931946
  0
ARC
  8
0
 10
-232.578552
 20
29.549940
 40
1.838253
 50
141.274292
 51
180.000000
  0
ARC
  8
0
 10
-233.055038
 20
29.549938
 40
1.838242
 50
0.000000
 51
38.726051
  0
ARC
  8
0
 10
-237.963593
 20
32.999950
 40
6.746779
 50
340.068085
 51
19.931948
  0
ARC
  8
0
 10
-233.055069
 20
36.449963
 40
1.838255
 50
321.274200
 51
359.999878
  0
ARC
  8
0
 10
-206.216766
 20
7.999984
 40
2.799994
 50
206.765976
 51
153.234070
  0
ARC
  8
0
 10
-216.355057
 20
25.449965
 40
1.838255
 50
321.274200
 51
359.999878
  0
ARC
  8
0
 10
-221.263565
 20
21.999968
 40
6.746779
 50
340.068085
 51
19.931932
  0
ARC
  8
0
 10
-216.355042
 20
18.549971
 40
1.838242
 50
0.000000
 51
38.726051
  0
ARC
  8
0
 10
-212.678558
 20
25.449965
 40
1.838242
 50
180.000000
 51
218.726013
  0
ARC
  8
0
 10
-213.155045
 20
25.449965
 40
1.838255
 50
321.274200
 51
359.999878
  0
ARC
  8
0
 10
-218.063568
 20
21.999983
 40
6.746779
 50
340.068085
 51
19.931932
  0
ARC
  8
0
 10
-207.770020
 20
21.999983
 40
6.746766
 50
160.068008
 51
199.931946
  0
ARC
  8
0
 10
-212.678543
 20
18.549971
 40
1.838253
 50
141.274292
 51
180.000000
  0
ARC
  8
0
 10
43.910522
 20
-18.549957
 40
1.838249
 50
180.000000
 51
218.725906
  0
CIRCLE
  8
0
 62
     4
 10
59.422256
 20
-7.999944
 40
3.300000
  0
ARC
  8
0
 10
71.134048
 20
-25.449902
 40
1.838242
 50
0.000000
 51
38.725857
  0
ARC
  8
0
 10
66.225525
 20
-21.999937
 40
6.746766
 50
340.067993
 51
19.931946
  0
ARC
  8
0
 10
71.134033
 20
-18.549908
 40
1.838247
 50
321.274139
 51
0.000000
  0
CIRCLE
  8
0
 10
67.172256
 20
-7.999928
 40
2.800000
  0
CIRCLE
  8
0
 62
     4
 10
65.372238
 20
-0.499936
 40
1.700000
  0
CIRCLE
  8
0
 62
     4
 10
65.372238
 20
-0.499936
 40
2.500000
  0
ARC
  8
0
 10
63.334061
 20
-36.449917
 40
1.838242
 50
0.000000
 51
38.725857
  0
ARC
  8
0
 10
58.425537
 20
-32.999935
 40
6.746766
 50
340.067993
 51
19.931946
  0
ARC
  8
0
 10
63.334045
 20
-29.549925
 40
1.838247
 50
321.274139
 51
0.000000
  0
ARC
  8
0
 10
63.810532
 20
-29.549925
 40
1.838249
 50
180.000000
 51
218.725906
  0
ARC
  8
0
 10
68.719086
 20
-32.999920
 40
6.746776
 50
160.068069
 51
199.931961
  0
ARC
  8
0
 10
63.810562
 20
-36.449947
 40
1.838252
 50
141.274124
 51
179.999878
  0
CIRCLE
  8
0
 10
36.972260
 20
-7.999976
 40
2.800000
  0
ARC
  8
0
 10
47.110550
 20
-25.449934
 40
1.838252
 50
141.274124
 51
179.999878
  0
ARC
  8
0
 10
52.019058
 20
-21.999952
 40
6.746776
 50
160.068069
 51
199.931946
  0
ARC
  8
0
 10
47.110535
 20
-18.549948
 40
1.838249
 50
180.000000
 51
218.725906
  0
CIRCLE
  8
0
 10
45.972229
 20
8.000032
 40
2.500000
  0
CIRCLE
  8
0
 10
45.972229
 20
8.000032
 40
4.900000
  0
CIRCLE
  8
0
 10
64.672241
 20
8.000065
 40
2.500000
  0
CIRCLE
  8
0
 10
64.672241
 20
8.000065
 40
4.900000
  0
ARC
  8
0
 10
43.434052
 20
-25.449951
 40
1.838245
 50
0.000000
 51
38.725933
  0
ARC
  8
0
 10
43.910538
 20
-25.449951
 40
1.838252
 50
141.274124
 51
179.999878
  0
ARC
  8
0
 10
48.819061
 20
-21.999960
 40
6.746776
 50
160.068069
 51
199.931946
  0
ARC
  8
0
 10
38.525513
 20
-21.999977
 40
6.746770
 50
340.068024
 51
19.931934
  0
ARC
  8
0
 10
43.434036
 20
-18.549957
 40
1.838247
 50
321.274139
 51
0.000000
  0
ARC
  8
0
 10
-88.050018
 20
129.798218
 40
1.838255
 50
231.274200
 51
270.000000
  0
ARC
  8
0
 10
-91.500015
 20
124.413185
 40
6.746773
 50
70.068031
 51
109.931908
  0
CIRCLE
  8
0
 10
-51.700020
 20
129.459991
 40
4.900000
  0
CIRCLE
  8
0
 10
-51.700020
 20
129.459991
 40
2.000000
  0
CIRCLE
  8
0
 10
-51.700005
 20
112.959999
 40
2.000000
  0
CIRCLE
  8
0
 10
-51.700005
 20
112.959999
 40
4.900000
  0
ARC
  8
0
 10
-91.499992
 20
104.513191
 40
6.746766
 50
70.068008
 51
109.931931
  0
ARC
  8
0
 10
-94.950012
 20
109.898201
 40
1.838249
 50
270.000000
 51
308.725952
  0
ARC
  8
0
 10
-94.950012
 20
109.421700
 40
1.838249
 50
51.274048
 51
90.000000
  0
ARC
  8
0
 10
-91.500000
 20
114.806725
 40
6.746771
 50
250.068085
 51
289.931976
  0
ARC
  8
0
 10
-88.050003
 20
109.898201
 40
1.838249
 50
231.274048
 51
270.000000
  0
ARC
  8
0
 10
-88.050003
 20
113.098213
 40
1.838249
 50
231.274048
 51
270.000000
  0
ARC
  8
0
 10
-91.500008
 20
118.006721
 40
6.746771
 50
250.068085
 51
289.931976
  0
ARC
  8
0
 10
-94.950012
 20
113.098198
 40
1.838249
 50
270.000000
 51
308.725952
  0
ARC
  8
0
 10
-88.050018
 20
109.421700
 40
1.838242
 50
90.000000
 51
128.725769
  0
ARC
  8
0
 10
-94.950012
 20
129.798187
 40
1.838249
 50
270.000000
 51
308.726105
  0
ARC
  8
0
 10
-94.950012
 20
129.321716
 40
1.838255
 50
51.274197
 51
90.000000
  0
ARC
  8
0
 10
-91.500023
 20
134.706726
 40
6.746778
 50
250.068115
 51
289.931946
  0
ARC
  8
0
 10
-88.050018
 20
129.321716
 40
1.838242
 50
90.000000
 51
128.725906
  0
ARC
  8
0
 10
-71.949959
 20
-130.798187
 40
1.838255
 50
51.274197
 51
89.999763
  0
ARC
  8
0
 10
-68.499962
 20
-125.413162
 40
6.746769
 50
250.067947
 51
289.931885
  0
ARC
  8
0
  6
PHANTOM
 62
     2
 10
-71.949944
 20
-153.121689
 40
1.838242
 50
270.000000
 51
308.725922
  0
ARC
  8
0
  6
PHANTOM
 62
     2
 10
-68.499947
 20
-148.213165
 40
6.746769
 50
250.067947
 51
289.931885
  0
ARC
  8
0
  6
PHANTOM
 62
     2
 10
-65.049950
 20
-153.121674
 40
1.838243
 50
231.273895
 51
270.000000
  0
ARC
  8
0
  6
PHANTOM
 62
     2
 10
-71.949944
 20
-153.598175
 40
1.838255
 50
51.274197
 51
89.999763
  0
ARC
  8
0
  6
PHANTOM
 62
     2
 10
-68.499931
 20
-158.506699
 40
6.746783
 50
70.067993
 51
109.931885
  0
ARC
  8
0
  6
PHANTOM
 62
     2
 10
-65.049950
 20
-153.598175
 40
1.838242
 50
90.000000
 51
128.725616
  0
ARC
  8
0
 10
-68.499977
 20
-105.513168
 40
6.746769
 50
250.067947
 51
289.931854
  0
ARC
  8
0
 10
-65.049965
 20
-110.898178
 40
1.838249
 50
90.000000
 51
128.725769
  0
ARC
  8
0
 10
-65.049965
 20
-110.421677
 40
1.838249
 50
231.274048
 51
270.000000
  0
ARC
  8
0
 10
-68.499977
 20
-115.806702
 40
6.746776
 50
70.067970
 51
109.931885
  0
ARC
  8
0
 10
-71.949974
 20
-110.898178
 40
1.838249
 50
51.274048
 51
89.999763
  0
ARC
  8
0
 10
-71.949974
 20
-114.098190
 40
1.838249
 50
51.274048
 51
89.999763
  0
ARC
  8
0
 10
-68.499962
 20
-119.006699
 40
6.746776
 50
70.067970
 51
109.931885
  0
ARC
  8
0
 10
-65.049965
 20
-114.098175
 40
1.838249
 50
90.000000
 51
128.725769
  0
ARC
  8
0
 10
-71.949959
 20
-110.421677
 40
1.838242
 50
270.000000
 51
308.725769
  0
ARC
  8
0
 10
-65.049965
 20
-130.798172
 40
1.838242
 50
90.000000
 51
128.725616
  0
ARC
  8
0
 10
-65.049965
 20
-130.321686
 40
1.838243
 50
231.273895
 51
270.000000
  0
ARC
  8
0
 10
-68.499962
 20
-135.706711
 40
6.746783
 50
70.067993
 51
109.931885
  0
ARC
  8
0
 10
-71.949959
 20
-130.321686
 40
1.838242
 50
270.000000
 51
308.725922
  0
CIRCLE
  8
0
 10
148.523743
 20
0.000003
 40
2.000000
  0
CIRCLE
  8
0
 10
156.023743
 20
0.000002
 40
2.000000
  0
CIRCLE
  8
0
 10
206.023743
 20
-0.000001
 40
2.000000
  0
CIRCLE
  8
0
 10
213.523743
 20
-0.000002
 40
2.000000
  0
CIRCLE
  8
0
 10
181.023743
 20
25.000000
 40
2.000000
  0
CIRCLE
  8
0
 10
148.523743
 20
32.500004
 40
2.250000
  0
CIRCLE
  8
0
 10
156.023743
 20
25.000002
 40
2.250000
  0
CIRCLE
  8
0
 10
206.023743
 20
24.999998
 40
2.250000
  0
CIRCLE
  8
0
 10
213.523727
 20
32.499996
 40
2.250000
  0
CIRCLE
  8
0
 10
206.023727
 20
-25.000002
 40
2.250000
  0
CIRCLE
  8
0
 10
213.523727
 20
-32.500004
 40
2.250000
  0
CIRCLE
  8
0
 10
156.023727
 20
-24.999998
 40
2.250000
  0
CIRCLE
  8
0
 10
148.523727
 20
-32.499996
 40
2.250000
  0
CIRCLE
  8
0
 10
181.023727
 20
-25.000000
 40
2.000000
  0
CIRCLE
  8
0
  6
DASHED
 62
     2
 10
148.523743
 20
32.500004
 40
4.000000
  0
CIRCLE
  8
0
  6
DASHED
 62
     2
 10
156.023743
 20
25.000002
 40
4.000000
  0
CIRCLE
  8
0
  6
DASHED
 62
     2
 10
156.023727
 20
-24.999998
 40
4.000000
  0
CIRCLE
  8
0
  6
DASHED
 62
     2
 10
148.523727
 20
-32.499996
 40
4.000000
  0
CIRCLE
  8
0
  6
DASHED
 62
     2
 10
206.023727
 20
-25.000002
 40
4.000000
  0
CIRCLE
  8
0
  6
DASHED
 62
     2
 10
213.523727
 20
-32.500004
 40
4.000000
  0
CIRCLE
  8
0
  6
DASHED
 62
     2
 10
206.023743
 20
24.999998
 40
4.000000
  0
CIRCLE
  8
0
  6
DASHED
 62
     2
 10
213.523727
 20
32.499996
 40
4.000000
  0
CIRCLE
  8
0
 10
181.023743
 20
32.500000
 40
2.000000
  0
CIRCLE
  8
0
 10
181.023727
 20
-32.500000
 40
2.000000
  0
TEXT
  8
0
 10
174.200241
 20
180.830002
 40
6.300000
  1
DATE: MAY ,1993
 50
0.000000
 41
1.052632
 51
0.000000
  7
STANDARD
  0
TEXT
  8
0
 10
167.564667
 20
-192.100006
 40
9.000000
  1
KOGANEI CORP.
 50
0.000000
 41
1.052632
 51
0.000000
  7
STANDARD
  0
TEXT
  8
0
 10
-269.149719
 20
180.830002
 40
6.300000
  1
HANDLING MODULE
 50
0.000000
 41
1.052632
 51
0.000000
  7
STANDARD
  0
TEXT
  8
0
 10
-270.049713
 20
155.830002
 40
6.300000
  1
MODEL:SHM41M-MS
 50
0.000000
 41
1.052632
 51
0.000000
  7
STANDARD
  0
ENDSEC
  0
EOF
