  0
SECTION
  2
HEADER
  0
ENDSEC
  0
SECTION
  2
TABLES
  0
TABLE
  2
LTYPE
 70
     4
  0
LTYPE
  2
CONTINUOUS
 70
    64
  3
Solid line
 72
    65
 73
     0
 40
0.000000
  0
LTYPE
  2
DASHED
 70
    64
  3
__ __ __ __ __ __ __ __ __ __ __ __ __ __ __
 72
    65
 73
     2
 40
3.500000
 49
2.000000
 49
-1.500000
  0
LTYPE
  2
CENTER
 70
    64
  3
____ _ ____ _ ____ _ ____ _ ____ _ ____ _ ____
 72
    65
 73
     4
 40
17.500000
 49
13.000000
 49
-1.500000
 49
1.500000
 49
-1.500000
  0
LTYPE
  2
PHANTOM
 70
    64
  3
_____ _ _ _____ _ _ _____ _ _ _____ _ _ ____  
 72
    65
 73
     6
 40
15.500000
 49
8.000000
 49
-1.500000
 49
1.500000
 49
-1.500000
 49
1.500000
 49
-1.500000
  0
LTYPE
  2
DASHED1
 70
    64
  3
__ __ __ __ __ __ __ __ __ __ __ __ __ __ __
 72
    65
 73
     2
 40
1.500000
 49
1.000000
 49
-0.500000
  0
LTYPE
  2
DASHED2
 70
    64
  3
__ __ __ __ __ __ __ __ __ __ __ __ __ __ __
 72
    65
 73
     2
 40
3.500000
 49
2.500000
 49
-1.000000
  0
LTYPE
  2
DASHED3
 70
    64
  3
__ __ __ __ __ __ __ __ __ __ __ __ __ __ __
 72
    65
 73
     2
 40
6.000000
 49
4.000000
 49
-2.000000
  0
LTYPE
  2
DASHED4
 70
    64
  3
__ __ __ __ __ __ __ __ __ __ __ __ __ __ __
 72
    65
 73
     2
 40
12.000000
 49
10.000000
 49
-2.000000
  0
LTYPE
  2
DASHED5
 70
    64
  3
__ __ __ __ __ __ __ __ __ __ __ __ __ __ __
 72
    65
 73
     2
 40
17.000000
 49
15.000000
 49
-2.000000
  0
LTYPE
  2
DASHED6
 70
    64
  3
__ __ __ __ __ __ __ __ __ __ __ __ __ __ __
 72
    65
 73
     2
 40
29.000000
 49
27.000000
 49
-2.000000
  0
LTYPE
  2
PHANTOM1
 70
    64
  3
_____ _ _ _____ _ _ _____ _ _ _____ _ _ ____  
 72
    65
 73
     6
 40
31.000000
 49
25.000000
 49
-1.500000
 49
1.000000
 49
-1.000000
 49
1.000000
 49
-1.500000
  0
LTYPE
  2
PHANTOM2
 70
    64
  3
_____ _ _ _____ _ _ _____ _ _ _____ _ _ ____  
 72
    65
 73
     6
 40
36.000000
 49
27.000000
 49
-1.500000
 49
2.500000
 49
-1.000000
 49
2.500000
 49
-1.500000
  0
LTYPE
  2
PHANTOM3
 70
    64
  3
_____ _ _ _____ _ _ _____ _ _ _____ _ _ ____  
 72
    65
 73
     6
 40
78.000000
 49
64.000000
 49
-2.000000
 49
4.000000
 49
-2.000000
 49
4.000000
 49
-2.000000
  0
LTYPE
  2
CENTER1
 70
    64
  3
____ _ ____ _ ____ _ ____ _ ____ _ ____ _ ____
 72
    65
 73
     4
 40
19.000000
 49
14.000000
 49
-1.000000
 49
3.000000
 49
-1.000000
  0
LTYPE
  2
CENTER2
 70
    64
  3
____ _ ____ _ ____ _ ____ _ ____ _ ____ _ ____
 72
    65
 73
     4
 40
28.500000
 49
25.000000
 49
-1.000000
 49
1.500000
 49
-1.000000
  0
LTYPE
  2
CENTER3
 70
    64
  3
____ _ ____ _ ____ _ ____ _ ____ _ ____ _ ____
 72
    65
 73
     4
 40
31.500000
 49
27.000000
 49
-1.000000
 49
2.500000
 49
-1.000000
  0
LTYPE
  2
CENTER4
 70
    64
  3
____ _ ____ _ ____ _ ____ _ ____ _ ____ _ ____
 72
    65
 73
     4
 40
50.000000
 49
45.000000
 49
-1.000000
 49
3.000000
 49
-1.000000
  0
LTYPE
  2
CENTER5
 70
    64
  3
____ _ ____ _ ____ _ ____ _ ____ _ ____ _ ____
 72
    65
 73
     4
 40
100.000000
 49
92.000000
 49
-2.000000
 49
4.000000
 49
-2.000000
  0
LTYPE
  2
SBK1
 70
    64
  3
______ _ _ _ ______ _ _ _ ______ _ _ _ _____  
 72
    65
 73
     8
 40
60.500000
 49
45.000000
 49
-2.000000
 49
2.500000
 49
-2.000000
 49
2.500000
 49
-2.000000
 49
2.500000
 49
-2.000000
  0
LTYPE
  2
SBK2
 70
    64
  3
______ _ _ _ ______ _ _ _ ______ _ _ _ _____  
 72
    65
 73
     8
 40
84.000000
 49
64.000000
 49
-2.000000
 49
4.000000
 49
-2.000000
 49
4.000000
 49
-2.000000
 49
4.000000
 49
-2.000000
  0
LTYPE
  2
STCH
 70
    64
  3
__ __ __ __ __ __ __ __ __ __ __ __ __ __ __
 72
    65
 73
     2
 40
3.000000
 49
1.000000
 49
-2.000000
  0
LTYPE
  2
MTCH
 70
    64
  3
_____ _ _ _____ _ _ _____ _ _ _____ _ _ ____  
 72
    65
 73
     6
 40
80.000000
 49
66.000000
 49
-2.000000
 49
4.000000
 49
-2.000000
 49
4.000000
 49
-2.000000
  0
ENDTAB
  0
TABLE
  2
LAYER
 70
     1
  0
LAYER
  2
0
 70
     0
 62
     7
  6
CONTINUOUS
  0
ENDTAB
  0
TABLE
  2
STYLE
 70
     1
  0
STYLE
  2
STANDARD
 70
     0
 40
0.000000
 41
1.000000
 50
0.000000
 71
     0
 42
0.200000
  3
txt
  4
BIGFONT
  0
ENDTAB
  0
TABLE
  2
VIEW
 70
     0
  0
ENDTAB
  0
ENDSEC
  0
SECTION
  2
BLOCKS
  0
ENDSEC
  0
SECTION
  2
ENTITIES
  0
LINE
  8
0
 10
-281.250000
 20
195.500000
 11
282.099976
 21
195.500000
  0
LINE
  8
0
 10
-281.250000
 20
195.500000
 11
-281.250000
 21
-195.000000
  0
LINE
  8
0
 10
282.099976
 20
195.500000
 11
282.099976
 21
-195.000000
  0
LINE
  8
0
 10
-281.250000
 20
-195.000000
 11
282.099976
 21
-195.000000
  0
LINE
  8
0
 10
162.099976
 20
-175.000000
 11
162.099976
 21
-195.000000
  0
LINE
  8
0
 10
162.099976
 20
-175.000000
 11
282.099976
 21
-175.000000
  0
LINE
  8
0
 10
162.099976
 20
175.500000
 11
282.099976
 21
175.500000
  0
LINE
  8
0
 10
-281.250000
 20
175.500000
 11
-161.250000
 21
175.500000
  0
LINE
  8
0
 10
162.099976
 20
195.500000
 11
162.099976
 21
175.500000
  0
LINE
  8
0
 10
-161.250000
 20
195.500000
 11
-161.250000
 21
175.500000
  0
LINE
  8
0
 62
     2
 10
-31.153982
 20
80.500031
 11
-34.607170
 21
80.500031
  0
LINE
  8
0
 10
31.099964
 20
96.600006
 11
30.499989
 21
96.600006
  0
LINE
  8
0
 10
31.099968
 20
106.399994
 11
22.099968
 21
106.399994
  0
LINE
  8
0
 10
22.100014
 20
106.399986
 11
22.100014
 21
96.599998
  0
LINE
  8
0
 10
31.100014
 20
106.399979
 11
31.100014
 21
104.500015
  0
LINE
  8
0
 10
47.099998
 20
104.000000
 11
44.099998
 21
104.000000
  0
LINE
  8
0
 10
20.600014
 20
105.399986
 11
20.600014
 21
97.599998
  0
LINE
  8
0
 10
22.099964
 20
98.250000
 11
20.599964
 21
98.250000
  0
LINE
  8
0
 10
22.099966
 20
104.750000
 11
20.599966
 21
104.750000
  0
LINE
  8
0
 10
20.599964
 20
97.600006
 11
19.999989
 21
97.600006
  0
LINE
  8
0
 10
20.599997
 20
105.399994
 11
19.999990
 21
105.399994
  0
LINE
  8
0
 10
47.600048
 20
103.499939
 11
47.600048
 21
99.499939
  0
LINE
  8
0
 10
47.099995
 20
99.000000
 11
44.099995
 21
99.000000
  0
LINE
  8
0
 10
47.099941
 20
98.999977
 11
47.599934
 21
99.499977
  0
LINE
  8
0
 10
47.600018
 20
103.500008
 11
47.100033
 21
104.000000
  0
LINE
  8
0
 10
43.600044
 20
103.499985
 11
43.600044
 21
99.499985
  0
LINE
  8
0
 10
44.100052
 20
103.999840
 11
43.600029
 21
103.499832
  0
LINE
  8
0
 10
43.599895
 20
99.499863
 11
44.099895
 21
98.999863
  0
LINE
  8
0
 10
47.100048
 20
103.999939
 11
47.100048
 21
98.999939
  0
LINE
  8
0
 10
44.100048
 20
103.999985
 11
44.100048
 21
98.999985
  0
LINE
  8
0
 10
35.100044
 20
104.964096
 11
35.100044
 21
98.035873
  0
LINE
  8
0
 10
35.900032
 20
104.999985
 11
35.900032
 21
97.999985
  0
LINE
  8
0
 10
38.400032
 20
104.999985
 11
38.400032
 21
97.999985
  0
LINE
  8
0
 10
37.899982
 20
97.500000
 11
36.399982
 21
97.500000
  0
LINE
  8
0
 10
37.899986
 20
105.500000
 11
36.399986
 21
105.500000
  0
LINE
  8
0
 10
37.899776
 20
97.500137
 11
38.399769
 21
98.000122
  0
LINE
  8
0
 10
38.400024
 20
104.999985
 11
37.900028
 21
105.499992
  0
LINE
  8
0
 10
36.399818
 20
105.500084
 11
35.899811
 21
105.000084
  0
LINE
  8
0
 10
35.899960
 20
97.999893
 11
36.399952
 21
97.499901
  0
LINE
  8
0
 10
37.900032
 20
105.499985
 11
37.900032
 21
97.499985
  0
LINE
  8
0
 10
36.400032
 20
105.499985
 11
36.400032
 21
97.499985
  0
LINE
  8
0
 10
34.742710
 20
96.881195
 11
31.099964
 21
96.881195
  0
LINE
  8
0
 10
34.742725
 20
99.190613
 11
31.534702
 21
99.190613
  0
LINE
  8
0
 10
34.742729
 20
103.809418
 11
31.534689
 21
103.809418
  0
LINE
  8
0
 10
34.742733
 20
106.118805
 11
31.099968
 21
106.118805
  0
LINE
  8
0
 10
35.899982
 20
99.000000
 11
35.099995
 21
99.000000
  0
LINE
  8
0
 10
35.899986
 20
104.000000
 11
35.099998
 21
104.000000
  0
LINE
  8
0
 10
43.599998
 20
103.000000
 11
38.399986
 21
103.000000
  0
LINE
  8
0
 10
43.599995
 20
100.000000
 11
38.399982
 21
100.000000
  0
LINE
  8
0
 62
     2
 10
43.599998
 20
100.270508
 11
38.399986
 21
100.270508
  0
LINE
  8
0
 62
     2
 10
43.599998
 20
102.729492
 11
38.399986
 21
102.729492
  0
LINE
  8
0
  6
CENTER
 62
     2
 10
-49.079983
 20
95.000000
 11
28.961643
 21
95.000000
  0
LINE
  8
0
 10
-39.000031
 20
64.999992
 11
18.999968
 21
64.999992
  0
LINE
  8
0
 10
-39.000000
 20
125.000015
 11
19.000000
 21
125.000015
  0
LINE
  8
0
 10
-39.999962
 20
124.000038
 11
-39.999962
 21
66.000031
  0
LINE
  8
0
 10
20.000038
 20
123.999992
 11
20.000038
 21
65.999985
  0
LINE
  8
0
 10
-40.000015
 20
124.000053
 11
-39.000011
 21
125.000053
  0
LINE
  8
0
 10
19.000023
 20
125.000000
 11
20.000004
 21
124.000023
  0
LINE
  8
0
 10
-40.000126
 20
65.999939
 11
-39.000122
 21
64.999947
  0
LINE
  8
0
 10
18.999870
 20
65.000107
 11
19.999872
 21
66.000107
  0
LINE
  8
0
  6
CENTER
 62
     2
 10
-34.999962
 20
123.105934
 11
-34.999962
 21
116.363228
  0
LINE
  8
0
  6
CENTER
 62
     2
 10
-38.359016
 20
120.000000
 11
-31.616310
 21
120.000000
  0
LINE
  8
0
 62
     2
 10
-32.999962
 20
82.641747
 11
-32.999962
 21
78.587990
  0
LINE
  8
0
 62
     2
 10
-21.500050
 20
102.133911
 11
-20.000063
 21
101.267891
  0
LINE
  8
0
 62
     2
 10
-19.999990
 20
104.732086
 11
-18.499971
 21
103.866058
  0
LINE
  8
0
 62
     2
 10
-19.999935
 20
101.267815
 11
-18.499914
 21
102.133842
  0
LINE
  8
0
 62
     2
 10
-21.499914
 20
103.865913
 11
-19.999939
 21
104.731926
  0
LINE
  8
0
 62
     2
 10
-21.499962
 20
103.866043
 11
-21.499962
 21
102.133987
  0
LINE
  8
0
 62
     2
 10
-18.499962
 20
103.866043
 11
-18.499962
 21
102.133987
  0
LINE
  8
0
 62
     2
 10
-21.499962
 20
86.133987
 11
-21.499962
 21
87.866043
  0
LINE
  8
0
 62
     2
 10
-21.500080
 20
86.133888
 11
-20.000090
 21
85.267876
  0
LINE
  8
0
 62
     2
 10
-19.999941
 20
85.267769
 11
-18.499962
 21
86.133781
  0
LINE
  8
0
 62
     2
 10
-18.499962
 20
86.133987
 11
-18.499962
 21
87.866043
  0
LINE
  8
0
 62
     2
 10
-20.000015
 20
88.732155
 11
-18.499994
 21
87.866112
  0
LINE
  8
0
 62
     2
 10
-21.499907
 20
87.865845
 11
-19.999929
 21
88.731857
  0
LINE
  8
0
 62
     2
 10
-8.499963
 20
103.866043
 11
-8.499963
 21
102.133987
  0
LINE
  8
0
 62
     2
 10
-8.499997
 20
103.866051
 11
-9.999988
 21
104.732079
  0
LINE
  8
0
 62
     2
 10
-9.999919
 20
104.731918
 11
-11.499924
 21
103.865891
  0
LINE
  8
0
 62
     2
 10
-11.499963
 20
103.866043
 11
-11.499963
 21
102.133987
  0
LINE
  8
0
 62
     2
 10
-10.000001
 20
101.268021
 11
-11.500018
 21
102.134064
  0
LINE
  8
0
 62
     2
 10
-8.499937
 20
102.133888
 11
-9.999942
 21
101.267860
  0
LINE
  8
0
  6
CENTER
 62
     2
 10
-9.999963
 20
62.870689
 11
-9.999963
 21
129.250015
  0
LINE
  8
0
 62
     2
 10
-8.499963
 20
86.133987
 11
-8.499963
 21
87.866043
  0
LINE
  8
0
 62
     2
 10
-8.499931
 20
86.133774
 11
-9.999910
 21
85.267784
  0
LINE
  8
0
 62
     2
 10
-10.000099
 20
85.267822
 11
-11.500101
 21
86.133827
  0
LINE
  8
0
 62
     2
 10
-11.499963
 20
86.133987
 11
-11.499963
 21
87.866043
  0
LINE
  8
0
 62
     2
 10
-9.999954
 20
88.731941
 11
-11.499976
 21
87.865913
  0
LINE
  8
0
 62
     2
 10
-8.499959
 20
87.866234
 11
-9.999949
 21
88.732262
  0
LINE
  8
0
 10
-37.888275
 20
79.448410
 11
-34.051617
 21
75.611740
  0
LINE
  8
0
 10
-31.948557
 20
85.388153
 11
-28.111912
 21
81.551506
  0
LINE
  8
0
 10
-31.948479
 20
75.611801
 11
-28.111805
 21
79.448471
  0
LINE
  8
0
 10
-37.888191
 20
81.551460
 11
-34.051495
 21
85.388145
  0
LINE
  8
0
 10
-37.888161
 20
108.448509
 11
-34.051491
 21
104.611839
  0
LINE
  8
0
 10
-31.948526
 20
104.611885
 11
-28.111879
 21
108.448540
  0
LINE
  8
0
 10
-31.948433
 20
114.388199
 11
-28.111776
 21
110.551544
  0
LINE
  8
0
 10
-37.888218
 20
110.551552
 11
-34.051567
 21
114.388206
  0
LINE
  8
0
 10
31.100014
 20
98.499954
 11
31.100014
 21
96.599991
  0
LINE
  8
0
 10
31.099964
 20
96.600006
 11
22.099964
 21
96.600006
  0
LINE
  8
0
 10
31.099962
 20
93.399994
 11
30.499987
 21
93.399994
  0
LINE
  8
0
 10
31.099960
 20
83.600006
 11
22.099960
 21
83.600006
  0
LINE
  8
0
 10
22.100014
 20
83.599998
 11
22.100014
 21
93.399986
  0
LINE
  8
0
 10
31.100014
 20
83.599991
 11
31.100014
 21
85.499954
  0
LINE
  8
0
 10
47.099998
 20
86.000000
 11
44.099998
 21
86.000000
  0
LINE
  8
0
 10
20.600014
 20
84.599998
 11
20.600014
 21
92.399986
  0
LINE
  8
0
 10
22.099962
 20
91.750000
 11
20.599962
 21
91.750000
  0
LINE
  8
0
 10
22.099960
 20
85.250000
 11
20.599960
 21
85.250000
  0
LINE
  8
0
 10
20.599962
 20
92.399994
 11
19.999987
 21
92.399994
  0
LINE
  8
0
 10
20.599991
 20
84.600006
 11
19.999985
 21
84.600006
  0
LINE
  8
0
 10
47.600048
 20
86.499969
 11
47.600048
 21
90.499969
  0
LINE
  8
0
 10
47.099991
 20
91.000000
 11
44.099991
 21
91.000000
  0
LINE
  8
0
 10
47.099972
 20
91.000069
 11
47.599968
 21
90.500084
  0
LINE
  8
0
 10
47.599792
 20
86.500175
 11
47.099800
 21
86.000191
  0
LINE
  8
0
 10
43.600044
 20
86.499985
 11
43.600044
 21
90.499985
  0
LINE
  8
0
 10
44.100071
 20
86.000145
 11
43.600063
 21
86.500160
  0
LINE
  8
0
 10
43.600006
 20
90.499992
 11
44.100018
 21
91.000000
  0
LINE
  8
0
 10
47.100048
 20
85.999969
 11
47.100048
 21
90.999969
  0
LINE
  8
0
 10
44.100048
 20
85.999985
 11
44.100048
 21
90.999985
  0
LINE
  8
0
 10
35.100044
 20
85.035873
 11
35.100044
 21
91.964096
  0
LINE
  8
0
 10
35.900032
 20
84.999985
 11
35.900032
 21
91.999985
  0
LINE
  8
0
 10
38.400032
 20
84.999985
 11
38.400032
 21
91.999985
  0
LINE
  8
0
 10
37.899979
 20
92.500000
 11
36.399979
 21
92.500000
  0
LINE
  8
0
 10
37.899982
 20
84.500000
 11
36.399982
 21
84.500000
  0
LINE
  8
0
 10
37.899960
 20
92.499962
 11
38.399940
 21
91.999985
  0
LINE
  8
0
 10
38.399876
 20
85.000114
 11
37.899876
 21
84.500114
  0
LINE
  8
0
 10
36.399990
 20
84.500084
 11
35.899990
 21
85.000069
  0
LINE
  8
0
 10
35.899933
 20
92.000069
 11
36.399925
 21
92.500069
  0
LINE
  8
0
 10
37.900032
 20
84.499985
 11
37.900032
 21
92.499985
  0
LINE
  8
0
 10
36.400032
 20
84.499985
 11
36.400032
 21
92.499985
  0
LINE
  8
0
 10
34.742722
 20
93.118805
 11
31.099962
 21
93.118805
  0
LINE
  8
0
 10
34.742722
 20
90.809387
 11
31.534700
 21
90.809387
  0
LINE
  8
0
 10
34.742725
 20
86.190582
 11
31.534687
 21
86.190582
  0
LINE
  8
0
 10
34.742710
 20
83.881195
 11
31.099960
 21
83.881195
  0
LINE
  8
0
 10
35.899979
 20
91.000000
 11
35.099991
 21
91.000000
  0
LINE
  8
0
 10
35.899982
 20
86.000000
 11
35.099995
 21
86.000000
  0
LINE
  8
0
 10
43.599995
 20
87.000000
 11
38.399982
 21
87.000000
  0
LINE
  8
0
 10
43.599995
 20
90.000000
 11
38.399982
 21
90.000000
  0
LINE
  8
0
 62
     2
 10
43.599995
 20
89.729492
 11
38.399982
 21
89.729492
  0
LINE
  8
0
 62
     2
 10
43.599995
 20
87.270508
 11
38.399982
 21
87.270508
  0
LINE
  8
0
 10
31.100014
 20
91.500015
 11
31.100014
 21
93.399979
  0
LINE
  8
0
 10
31.099962
 20
93.399994
 11
22.099962
 21
93.399994
  0
LINE
  8
0
 10
26.000038
 20
117.999992
 11
26.000038
 21
106.399986
  0
LINE
  8
0
 10
-46.000031
 20
72.000000
 11
-40.000031
 21
72.000000
  0
LINE
  8
0
 10
-46.000000
 20
118.000000
 11
-40.000000
 21
118.000000
  0
LINE
  8
0
 10
-45.999962
 20
118.000038
 11
-45.999962
 21
72.000038
  0
LINE
  8
0
 10
19.999969
 20
72.000000
 11
25.999969
 21
72.000000
  0
LINE
  8
0
 10
19.999998
 20
118.000000
 11
25.999998
 21
118.000000
  0
LINE
  8
0
 10
26.000038
 20
96.599998
 11
26.000038
 21
93.399986
  0
LINE
  8
0
 10
26.000038
 20
83.599998
 11
26.000038
 21
71.999992
  0
LINE
  8
0
  6
CENTER
 62
     2
 10
-34.999962
 20
90.473412
 11
-34.999962
 21
99.898537
  0
LINE
  8
0
 10
13.999987
 20
92.000000
 11
19.999987
 21
92.000000
  0
LINE
  8
0
 10
13.999989
 20
98.000000
 11
19.999989
 21
98.000000
  0
LINE
  8
0
  6
CENTER
 62
     2
 10
18.359016
 20
120.000000
 11
11.616309
 21
120.000000
  0
LINE
  8
0
  6
CENTER
 62
     2
 10
15.000037
 20
123.105888
 11
15.000037
 21
116.363182
  0
LINE
  8
0
  6
CENTER
 62
     2
 10
-38.359051
 20
70.000000
 11
-31.616344
 21
70.000000
  0
LINE
  8
0
  6
CENTER
 62
     2
 10
-34.999962
 20
66.894135
 11
-34.999962
 21
73.636848
  0
LINE
  8
0
  6
CENTER
 62
     2
 10
18.358986
 20
70.000000
 11
11.616275
 21
70.000000
  0
LINE
  8
0
  6
CENTER
 62
     2
 10
15.000037
 20
66.894089
 11
15.000037
 21
73.636803
  0
LINE
  8
0
 10
-40.000011
 20
86.500031
 11
-33.000015
 21
86.500031
  0
LINE
  8
0
 10
-40.000023
 20
74.500031
 11
-33.000023
 21
74.500031
  0
LINE
  8
0
 10
-40.000008
 20
103.499969
 11
-33.000008
 21
103.499969
  0
LINE
  8
0
 10
-40.000004
 20
115.499969
 11
-33.000000
 21
115.499969
  0
LINE
  8
0
 10
-24.499962
 20
103.000023
 11
-24.499962
 21
87.000023
  0
LINE
  8
0
 10
-20.000015
 20
82.500000
 11
-10.000017
 21
82.500000
  0
LINE
  8
0
 10
-5.499962
 20
103.000015
 11
-5.499962
 21
87.000015
  0
LINE
  8
0
 10
-20.000004
 20
107.500000
 11
-10.000004
 21
107.500000
  0
LINE
  8
0
 62
     2
 10
-32.999962
 20
107.358330
 11
-32.999962
 21
111.412086
  0
LINE
  8
0
 62
     2
 10
-31.153965
 20
109.499969
 11
-34.607155
 21
109.499969
  0
LINE
  8
0
 10
-140.535889
 20
77.035934
 11
-142.999969
 21
77.035934
  0
LINE
  8
0
 10
-140.535797
 20
73.571823
 11
-142.999969
 21
73.571823
  0
LINE
  8
0
 10
-139.999969
 20
86.500015
 11
-139.999969
 21
74.500000
  0
LINE
  8
0
 10
-140.535599
 20
87.428238
 11
-139.999695
 21
86.500023
  0
LINE
  8
0
 10
-140.535889
 20
83.964157
 11
-142.999969
 21
83.964157
  0
LINE
  8
0
 10
-140.536072
 20
73.572006
 11
-140.000168
 21
74.500229
  0
LINE
  8
0
 10
-140.535797
 20
87.428238
 11
-142.999969
 21
87.428238
  0
LINE
  8
0
 10
-140.535889
 20
106.035934
 11
-142.999969
 21
106.035934
  0
LINE
  8
0
 10
-140.535797
 20
102.571823
 11
-142.999969
 21
102.571823
  0
LINE
  8
0
 10
-139.999969
 20
115.500031
 11
-139.999969
 21
103.500000
  0
LINE
  8
0
 10
-140.535599
 20
116.428307
 11
-139.999695
 21
115.500061
  0
LINE
  8
0
 10
-140.535858
 20
112.964157
 11
-142.999969
 21
112.964157
  0
LINE
  8
0
 10
-140.536118
 20
102.572083
 11
-140.000214
 21
103.500290
  0
LINE
  8
0
 10
-140.535782
 20
116.428268
 11
-142.999969
 21
116.428268
  0
LINE
  8
0
  6
CENTER
 62
     2
 10
-164.999969
 20
123.611488
 11
-164.999969
 21
67.400848
  0
LINE
  8
0
 62
     2
 10
-183.143585
 20
95.000046
 11
-178.978241
 21
95.000046
  0
LINE
  8
0
 62
     2
 10
-147.186584
 20
95.000046
 11
-150.419724
 21
95.000046
  0
LINE
  8
0
 62
     2
 10
-160.485809
 20
102.631844
 11
-159.933456
 21
103.965324
  0
LINE
  8
0
 62
     2
 10
-162.795502
 20
103.588539
 11
-162.243149
 21
104.922035
  0
LINE
  8
0
 62
     2
 10
-160.812149
 20
105.110245
 11
-162.243164
 21
104.921844
  0
LINE
  8
0
 62
     2
 10
-160.485825
 20
102.631676
 11
-161.916840
 21
102.443275
  0
LINE
  8
0
 62
     2
 10
-159.933533
 20
103.965202
 11
-160.812180
 21
105.110283
  0
LINE
  8
0
 62
     2
 10
-161.916885
 20
102.443283
 11
-162.795578
 21
103.588448
  0
LINE
  8
0
 62
     2
 10
-157.556671
 20
91.916946
 11
-156.411545
 21
92.795624
  0
LINE
  8
0
 62
     2
 10
-157.368164
 20
90.485901
 11
-157.556549
 21
91.916931
  0
LINE
  8
0
 62
     2
 10
-157.368240
 20
90.485863
 11
-156.034744
 21
89.933510
  0
LINE
  8
0
 62
     2
 10
-156.034821
 20
89.933632
 11
-154.889725
 21
90.812302
  0
LINE
  8
0
 62
     2
 10
-154.889572
 20
90.812164
 11
-155.077972
 21
92.243225
  0
LINE
  8
0
 62
     2
 10
-156.411514
 20
92.795609
 11
-155.078003
 21
92.243263
  0
LINE
  8
0
 62
     2
 10
-168.083221
 20
87.556648
 11
-167.204559
 21
86.411552
  0
LINE
  8
0
 62
     2
 10
-169.514008
 20
87.367661
 11
-168.082977
 21
87.556061
  0
LINE
  8
0
 62
     2
 10
-169.514191
 20
87.368309
 11
-170.066544
 21
86.034813
  0
LINE
  8
0
 62
     2
 10
-170.066574
 20
86.034721
 11
-169.187927
 21
84.889641
  0
LINE
  8
0
 62
     2
 10
-169.187729
 20
84.889091
 11
-167.756699
 21
85.077492
  0
LINE
  8
0
 62
     2
 10
-167.204544
 20
86.411575
 11
-167.756882
 21
85.078094
  0
LINE
  8
0
 62
     2
 10
-172.443604
 20
98.083435
 11
-173.588730
 21
97.204773
  0
LINE
  8
0
 62
     2
 10
-172.631760
 20
99.514160
 11
-172.443375
 21
98.083122
  0
LINE
  8
0
 62
     2
 10
-172.631729
 20
99.514221
 11
-173.965179
 21
100.066574
  0
LINE
  8
0
 62
     2
 10
-173.965500
 20
100.066811
 11
-175.110611
 21
99.188141
  0
LINE
  8
0
 62
     2
 10
-175.110382
 20
99.187813
 11
-174.921982
 21
97.756813
  0
LINE
  8
0
 62
     2
 10
-173.588440
 20
97.204544
 11
-174.921890
 21
97.756889
  0
LINE
  8
0
 10
-167.886734
 20
100.000046
 11
-162.113220
 21
100.000046
  0
LINE
  8
0
 10
-167.886734
 20
90.000046
 11
-162.113220
 21
90.000046
  0
LINE
  8
0
 10
-162.113159
 20
100.000008
 11
-159.226410
 21
95.000008
  0
LINE
  8
0
 10
-170.773468
 20
95.000046
 11
-167.886734
 21
90.000023
  0
LINE
  8
0
 10
-159.226532
 20
95.000031
 11
-162.113281
 21
90.000015
  0
LINE
  8
0
 10
-167.886795
 20
100.000053
 11
-170.773544
 21
95.000069
  0
LINE
  8
0
 62
     2
 10
-189.238739
 20
95.000046
 11
-201.255188
 21
95.000046
  0
LINE
  8
0
 62
     2
 10
-195.721680
 20
105.750046
 11
-194.278290
 21
105.750046
  0
LINE
  8
0
 62
     2
 10
-195.721680
 20
108.250046
 11
-194.278290
 21
108.250046
  0
LINE
  8
0
 62
     2
 10
-193.556564
 20
107.000053
 11
-194.278275
 21
108.250092
  0
LINE
  8
0
 62
     2
 10
-195.721588
 20
105.750046
 11
-196.443283
 21
107.000069
  0
LINE
  8
0
 62
     2
 10
-194.278275
 20
105.750053
 11
-193.556595
 21
107.000053
  0
LINE
  8
0
 62
     2
 10
-196.443451
 20
107.000107
 11
-195.721756
 21
108.250137
  0
LINE
  8
0
 62
     2
 10
-196.443390
 20
95.000099
 11
-195.721710
 21
96.250130
  0
LINE
  8
0
 62
     2
 10
-195.721558
 20
93.750015
 11
-196.443237
 21
95.000000
  0
LINE
  8
0
 62
     2
 10
-195.721680
 20
93.750046
 11
-194.278290
 21
93.750046
  0
LINE
  8
0
 62
     2
 10
-194.278229
 20
93.750076
 11
-193.556534
 21
95.000084
  0
LINE
  8
0
 62
     2
 10
-193.556534
 20
95.000061
 11
-194.278229
 21
96.250092
  0
LINE
  8
0
 62
     2
 10
-195.721680
 20
96.250046
 11
-194.278290
 21
96.250046
  0
LINE
  8
0
 10
-166.675095
 20
97.488914
 11
-167.944321
 21
94.424751
  0
LINE
  8
0
 10
-124.999954
 20
125.000046
 11
-130.999954
 21
125.000046
  0
LINE
  8
0
 10
-124.999947
 20
125.000023
 11
-124.999947
 21
65.000015
  0
LINE
  8
0
 10
-124.999985
 20
65.000031
 11
-130.999985
 21
65.000031
  0
LINE
  8
0
 10
-142.999939
 20
88.291809
 11
-142.999939
 21
71.000015
  0
LINE
  8
0
 10
-142.999939
 20
119.000031
 11
-142.999939
 21
101.708221
  0
LINE
  8
0
  6
CENTER
 62
     2
 10
-121.017059
 20
95.000046
 11
-203.288757
 21
95.000046
  0
LINE
  8
0
 62
     2
 10
-196.443420
 20
83.000130
 11
-195.721725
 21
84.250145
  0
LINE
  8
0
 62
     2
 10
-195.721558
 20
81.750053
 11
-196.443237
 21
83.000038
  0
LINE
  8
0
 62
     2
 10
-195.721680
 20
81.750046
 11
-194.278290
 21
81.750046
  0
LINE
  8
0
 62
     2
 10
-194.278290
 20
81.750084
 11
-193.556610
 21
83.000069
  0
LINE
  8
0
 62
     2
 10
-193.556519
 20
83.000031
 11
-194.278229
 21
84.250069
  0
LINE
  8
0
 62
     2
 10
-195.721680
 20
84.250046
 11
-194.278290
 21
84.250046
  0
LINE
  8
0
 10
-130.999939
 20
114.500023
 11
-130.999939
 21
125.000023
  0
LINE
  8
0
 10
-139.999985
 20
110.207169
 11
-134.877045
 21
110.207169
  0
LINE
  8
0
 10
-139.999985
 20
108.792923
 11
-134.877045
 21
108.792923
  0
LINE
  8
0
 10
-134.877029
 20
114.500046
 11
-139.999969
 21
114.500046
  0
LINE
  8
0
 62
     2
 10
-139.999969
 20
113.800034
 11
-134.877029
 21
113.800034
  0
LINE
  8
0
 10
-134.877045
 20
104.500046
 11
-139.999985
 21
104.500046
  0
LINE
  8
0
 62
     2
 10
-139.999985
 20
105.200027
 11
-134.877045
 21
105.200027
  0
LINE
  8
0
 10
-124.999969
 20
115.500046
 11
-130.999969
 21
115.500046
  0
LINE
  8
0
 10
-132.877014
 20
105.100014
 11
-132.877014
 21
113.900017
  0
LINE
  8
0
 10
-134.877014
 20
104.500008
 11
-134.877014
 21
114.500023
  0
LINE
  8
0
 10
-132.877045
 20
105.100052
 11
-134.877045
 21
105.100052
  0
LINE
  8
0
 10
-132.877029
 20
113.900040
 11
-134.859711
 21
113.900040
  0
LINE
  8
0
 10
-185.935547
 20
94.200027
 11
-176.064392
 21
94.200027
  0
LINE
  8
0
 10
-185.935577
 20
95.800034
 11
-176.064392
 21
95.800034
  0
LINE
  8
0
 10
-142.999969
 20
71.000046
 11
-164.999969
 21
71.000046
  0
LINE
  8
0
 10
-142.999969
 20
119.000046
 11
-164.999969
 21
119.000046
  0
LINE
  8
0
 10
-133.499939
 20
105.100014
 11
-133.499939
 21
103.500008
  0
LINE
  8
0
 10
-124.999969
 20
103.500046
 11
-133.499969
 21
103.500046
  0
LINE
  8
0
 10
-130.999939
 20
86.500008
 11
-130.999939
 21
103.500008
  0
LINE
  8
0
 10
-124.999969
 20
86.500046
 11
-133.499969
 21
86.500046
  0
LINE
  8
0
 10
-124.999969
 20
74.500046
 11
-130.999969
 21
74.500046
  0
LINE
  8
0
 10
-136.999939
 20
104.500015
 11
-136.999939
 21
85.500015
  0
LINE
  8
0
 10
-130.999939
 20
65.000015
 11
-130.999939
 21
75.500015
  0
LINE
  8
0
 10
-131.000122
 20
114.500122
 11
-132.877167
 21
112.623077
  0
LINE
  8
0
 10
-133.499939
 20
84.900002
 11
-133.499939
 21
86.500008
  0
LINE
  8
0
 10
-131.000000
 20
75.500084
 11
-132.877045
 21
77.377121
  0
LINE
  8
0
 10
-132.877045
 20
84.900040
 11
-134.877045
 21
84.900040
  0
LINE
  8
0
 10
-132.877045
 20
76.100052
 11
-134.859741
 21
76.100052
  0
LINE
  8
0
 10
-134.877014
 20
85.500008
 11
-134.877014
 21
75.500015
  0
LINE
  8
0
 10
-132.877014
 20
84.900002
 11
-132.877014
 21
76.100014
  0
LINE
  8
0
 10
-139.999985
 20
79.792923
 11
-134.877045
 21
79.792923
  0
LINE
  8
0
 10
-139.999985
 20
81.207138
 11
-134.877045
 21
81.207138
  0
LINE
  8
0
 10
-134.877045
 20
75.500046
 11
-139.999985
 21
75.500046
  0
LINE
  8
0
 62
     2
 10
-139.999985
 20
76.200027
 11
-134.877045
 21
76.200027
  0
LINE
  8
0
 10
-134.877045
 20
85.500046
 11
-139.999985
 21
85.500046
  0
LINE
  8
0
 62
     2
 10
-139.999985
 20
84.800034
 11
-134.877045
 21
84.800034
  0
LINE
  8
0
 10
-193.999954
 20
125.000046
 11
-199.999954
 21
125.000046
  0
LINE
  8
0
 10
-199.999969
 20
125.000076
 11
-199.999969
 21
65.000061
  0
LINE
  8
0
 10
-193.999969
 20
112.500076
 11
-193.999969
 21
125.000076
  0
LINE
  8
0
 10
-181.665802
 20
112.500046
 11
-199.499969
 21
112.500046
  0
LINE
  8
0
 10
-181.665802
 20
77.500046
 11
-199.499969
 21
77.500046
  0
LINE
  8
0
 10
-199.499969
 20
112.500076
 11
-199.499969
 21
77.500061
  0
LINE
  8
0
 10
-193.999985
 20
65.000031
 11
-199.999985
 21
65.000031
  0
LINE
  8
0
 10
-193.999969
 20
77.500061
 11
-193.999969
 21
65.000061
  0
LINE
  8
0
 62
     2
 10
-177.321167
 20
107.321022
 11
-175.327545
 21
105.327400
  0
LINE
  8
0
 62
     2
 10
-177.320984
 20
82.678818
 11
-175.327347
 21
84.672455
  0
LINE
  8
0
 62
     2
 10
-152.678696
 20
82.679070
 11
-154.672333
 21
84.672707
  0
LINE
  8
0
 62
     2
 10
-152.679077
 20
107.321358
 11
-154.672699
 21
105.327736
  0
LINE
  8
0
  6
CENTER
 62
     2
 10
160.000046
 20
123.353249
 11
160.000046
 21
65.742622
  0
LINE
  8
0
 62
     2
 10
115.080078
 20
95.000000
 11
199.052643
 21
95.000000
  0
LINE
  8
0
 10
162.886841
 20
100.000000
 11
157.113342
 21
100.000000
  0
LINE
  8
0
 10
162.886841
 20
90.000000
 11
157.113312
 21
90.000000
  0
LINE
  8
0
 10
157.113312
 20
99.999977
 11
154.226517
 21
94.999901
  0
LINE
  8
0
 10
165.773590
 20
94.999992
 11
162.886810
 21
89.999954
  0
LINE
  8
0
 10
154.226501
 20
94.999893
 11
157.113235
 21
89.999908
  0
LINE
  8
0
 10
162.886795
 20
99.999878
 11
165.773560
 21
94.999878
  0
LINE
  8
0
 10
138.000031
 20
118.999977
 11
138.000031
 21
106.999977
  0
LINE
  8
0
 10
120.000038
 20
124.999985
 11
120.000038
 21
106.399979
  0
LINE
  8
0
 10
161.675400
 20
97.488838
 11
162.944626
 21
94.424667
  0
LINE
  8
0
 10
129.309418
 20
105.499931
 11
131.618851
 21
101.499878
  0
LINE
  8
0
 10
122.381165
 20
101.499931
 11
124.690552
 21
97.499954
  0
LINE
  8
0
 10
129.309479
 20
97.500000
 11
124.690674
 21
97.500000
  0
LINE
  8
0
 10
129.309509
 20
105.500000
 11
124.690704
 21
105.500000
  0
LINE
  8
0
 10
131.618912
 20
101.500000
 11
129.309525
 21
97.500023
  0
LINE
  8
0
 10
124.690720
 20
105.499977
 11
122.381310
 21
101.499954
  0
LINE
  8
0
 10
127.000092
 20
96.600006
 11
111.500092
 21
96.600006
  0
LINE
  8
0
 10
107.000038
 20
96.500000
 11
107.000038
 21
106.499985
  0
LINE
  8
0
 10
108.600044
 20
96.500000
 11
108.600044
 21
106.499985
  0
LINE
  8
0
 10
123.471649
 20
98.100006
 11
121.000092
 21
98.100006
  0
LINE
  8
0
 10
119.500038
 20
96.600006
 11
119.500038
 21
106.399979
  0
LINE
  8
0
 10
121.000038
 20
98.099991
 11
121.000038
 21
104.899979
  0
LINE
  8
0
 10
111.500038
 20
96.600021
 11
111.500038
 21
106.400009
  0
LINE
  8
0
 10
109.900032
 20
96.750015
 11
109.900032
 21
106.250015
  0
LINE
  8
0
 10
108.600098
 20
96.500000
 11
107.000092
 21
96.500000
  0
LINE
  8
0
 10
111.500092
 20
96.750000
 11
109.900085
 21
96.750000
  0
LINE
  8
0
 10
108.600098
 20
106.500000
 11
107.000092
 21
106.500000
  0
LINE
  8
0
 10
111.500092
 20
106.250000
 11
109.900085
 21
106.250000
  0
LINE
  8
0
 10
127.000092
 20
106.399994
 11
111.500092
 21
106.399994
  0
LINE
  8
0
 10
123.471649
 20
104.899994
 11
121.000092
 21
104.899994
  0
LINE
  8
0
 10
109.900085
 20
98.250000
 11
108.600098
 21
98.250000
  0
LINE
  8
0
 10
109.900085
 20
104.750000
 11
108.600098
 21
104.750000
  0
LINE
  8
0
 10
119.500275
 20
96.599731
 11
121.000267
 21
98.099716
  0
LINE
  8
0
 10
119.499817
 20
106.399727
 11
120.999786
 21
104.899757
  0
LINE
  8
0
 10
113.500038
 20
96.600021
 11
113.500038
 21
106.400009
  0
LINE
  8
0
 10
129.309494
 20
92.499969
 11
131.618896
 21
88.499962
  0
LINE
  8
0
 10
122.381210
 20
88.499969
 11
124.690613
 21
84.499969
  0
LINE
  8
0
 10
129.309448
 20
84.500000
 11
124.690643
 21
84.500000
  0
LINE
  8
0
 10
129.309509
 20
92.500000
 11
124.690704
 21
92.500000
  0
LINE
  8
0
 10
131.618896
 20
88.500038
 11
129.309509
 21
84.500031
  0
LINE
  8
0
 10
124.690750
 20
92.500023
 11
122.381348
 21
88.500015
  0
LINE
  8
0
 10
123.471619
 20
85.100006
 11
121.000061
 21
85.100006
  0
LINE
  8
0
 10
119.500038
 20
83.600006
 11
119.500038
 21
93.399994
  0
LINE
  8
0
 10
121.000038
 20
85.100006
 11
121.000038
 21
91.899994
  0
LINE
  8
0
 10
123.471649
 20
91.899994
 11
121.000092
 21
91.899994
  0
LINE
  8
0
 10
119.500267
 20
83.599747
 11
121.000290
 21
85.099785
  0
LINE
  8
0
 10
119.499855
 20
93.399765
 11
120.999863
 21
91.899750
  0
LINE
  8
0
 10
194.500031
 20
112.499954
 11
194.500031
 21
77.499954
  0
LINE
  8
0
 62
     2
 10
190.721771
 20
93.750000
 11
189.278381
 21
93.750000
  0
LINE
  8
0
 62
     2
 10
190.721771
 20
96.250000
 11
189.278381
 21
96.250000
  0
LINE
  8
0
 62
     2
 10
188.556717
 20
94.999985
 11
189.278381
 21
96.249939
  0
LINE
  8
0
 62
     2
 10
190.721771
 20
93.749985
 11
191.443436
 21
94.999969
  0
LINE
  8
0
 62
     2
 10
189.278290
 20
93.749863
 11
188.556610
 21
94.999863
  0
LINE
  8
0
 62
     2
 10
191.443481
 20
94.999947
 11
190.721802
 21
96.249931
  0
LINE
  8
0
 62
     2
 10
191.443588
 20
83.000038
 11
190.721893
 21
84.250069
  0
LINE
  8
0
 62
     2
 10
190.721741
 20
81.749985
 11
191.443436
 21
82.999992
  0
LINE
  8
0
 62
     2
 10
190.721741
 20
81.750000
 11
189.278381
 21
81.750000
  0
LINE
  8
0
 62
     2
 10
189.278351
 20
81.749977
 11
188.556656
 21
82.999969
  0
LINE
  8
0
 62
     2
 10
188.556732
 20
83.000008
 11
189.278427
 21
84.250023
  0
LINE
  8
0
 62
     2
 10
190.721741
 20
84.250000
 11
189.278381
 21
84.250000
  0
LINE
  8
0
 10
195.000031
 20
124.999954
 11
195.000031
 21
64.999954
  0
LINE
  8
0
 10
189.000031
 20
112.499954
 11
189.000031
 21
124.999954
  0
LINE
  8
0
 10
189.000061
 20
125.000000
 11
195.000061
 21
125.000000
  0
LINE
  8
0
 10
189.000031
 20
77.499954
 11
189.000031
 21
64.999954
  0
LINE
  8
0
 10
189.000061
 20
65.000015
 11
195.000061
 21
65.000015
  0
LINE
  8
0
 62
     2
 10
190.721771
 20
108.250000
 11
189.278381
 21
108.250000
  0
LINE
  8
0
 62
     2
 10
191.443375
 20
106.999931
 11
190.721695
 21
108.249931
  0
LINE
  8
0
 62
     2
 10
190.721802
 20
105.750008
 11
191.443466
 21
107.000000
  0
LINE
  8
0
 62
     2
 10
190.721771
 20
105.750000
 11
189.278381
 21
105.750000
  0
LINE
  8
0
 62
     2
 10
189.278397
 20
105.749954
 11
188.556702
 21
106.999985
  0
LINE
  8
0
 62
     2
 10
188.556641
 20
107.000031
 11
189.278305
 21
108.250023
  0
LINE
  8
0
 10
176.665894
 20
77.500000
 11
194.500061
 21
77.500000
  0
LINE
  8
0
 10
176.665924
 20
112.500000
 11
194.500092
 21
112.500000
  0
LINE
  8
0
 10
120.000038
 20
96.600006
 11
120.000038
 21
93.399994
  0
LINE
  8
0
 10
120.000038
 20
83.600006
 11
120.000038
 21
65.000000
  0
LINE
  8
0
  6
CENTER
 62
     2
 10
115.080078
 20
95.000000
 11
199.052643
 21
95.000000
  0
LINE
  8
0
 10
138.000031
 20
70.999977
 11
138.000031
 21
82.999969
  0
LINE
  8
0
 10
129.959641
 20
118.318680
 11
126.070534
 21
114.429626
  0
LINE
  8
0
 10
137.596329
 20
110.681961
 11
134.767914
 21
107.853531
  0
LINE
  8
0
 10
134.060684
 20
108.560638
 11
134.767792
 21
107.853516
  0
LINE
  8
0
 10
135.828674
 20
110.328438
 11
133.000229
 21
107.499992
  0
LINE
  8
0
 10
135.828491
 20
110.328346
 11
133.000061
 21
113.156776
  0
LINE
  8
0
 62
     2
 10
135.828552
 20
110.328522
 11
134.697144
 21
110.328522
  0
LINE
  8
0
 62
     2
 10
134.697266
 20
110.328453
 11
133.000214
 21
108.631401
  0
LINE
  8
0
 62
     2
 10
134.697083
 20
110.328392
 11
133.000015
 21
112.025444
  0
LINE
  8
0
 62
     2
 10
132.999298
 20
112.025490
 11
132.999298
 21
113.156837
  0
LINE
  8
0
 62
     2
 10
133.000168
 20
112.025513
 11
131.303131
 21
110.328445
  0
LINE
  8
0
 62
     2
 10
133.000153
 20
108.631393
 11
131.303101
 21
110.328445
  0
LINE
  8
0
 62
     2
 10
133.000641
 20
107.500008
 11
133.000641
 21
108.631386
  0
LINE
  8
0
 62
     2
 10
131.302994
 20
110.328705
 11
130.171616
 21
110.328705
  0
LINE
  8
0
 10
133.000198
 20
113.156845
 11
130.171753
 21
110.328430
  0
LINE
  8
0
 10
137.596191
 20
110.681892
 11
129.959442
 21
118.318619
  0
LINE
  8
0
 10
127.484726
 20
114.429687
 11
130.878830
 21
111.035583
  0
LINE
  8
0
 10
133.500092
 20
107.000000
 11
138.640076
 21
107.000000
  0
LINE
  8
0
 10
133.500031
 20
106.999977
 11
133.500031
 21
82.999969
  0
LINE
  8
0
 10
133.500061
 20
83.000000
 11
138.640076
 21
83.000000
  0
LINE
  8
0
 10
137.596405
 20
79.318001
 11
134.767960
 21
82.146431
  0
LINE
  8
0
 10
134.060791
 20
81.439262
 11
134.767899
 21
82.146370
  0
LINE
  8
0
 10
137.596298
 20
79.317924
 11
129.959549
 21
71.681198
  0
LINE
  8
0
 62
     2
 10
135.828552
 20
79.671509
 11
134.697144
 21
79.671509
  0
LINE
  8
0
 10
135.828537
 20
79.671440
 11
133.000076
 21
82.499908
  0
LINE
  8
0
 10
135.828613
 20
79.671585
 11
133.000168
 21
76.843132
  0
LINE
  8
0
 62
     2
 10
134.697189
 20
79.671516
 11
133.000137
 21
77.974464
  0
LINE
  8
0
 62
     2
 10
134.697144
 20
79.671471
 11
133.000076
 21
81.368538
  0
LINE
  8
0
 62
     2
 10
133.000641
 20
82.499939
 11
133.000641
 21
81.368561
  0
LINE
  8
0
 62
     2
 10
133.000168
 20
81.368660
 11
131.303116
 21
79.671608
  0
LINE
  8
0
 10
126.000053
 20
75.500076
 11
133.500031
 21
83.000038
  0
LINE
  8
0
 62
     2
 10
131.302979
 20
79.671295
 11
130.171600
 21
79.671295
  0
LINE
  8
0
 62
     2
 10
133.000229
 20
77.974510
 11
131.303177
 21
79.671562
  0
LINE
  8
0
 62
     2
 10
132.999298
 20
77.974457
 11
132.999298
 21
76.843109
  0
LINE
  8
0
 10
133.000031
 20
76.843025
 11
130.171616
 21
79.671455
  0
LINE
  8
0
 10
127.484657
 20
75.570320
 11
130.878784
 21
78.964432
  0
LINE
  8
0
 10
127.484787
 20
114.429703
 11
126.777657
 21
113.722580
  0
LINE
  8
0
 10
126.000198
 20
114.500130
 11
133.500183
 21
107.000137
  0
LINE
  8
0
 10
120.000092
 20
125.000000
 11
126.000092
 21
125.000000
  0
LINE
  8
0
 10
126.000038
 20
124.999977
 11
126.000038
 21
114.499947
  0
LINE
  8
0
 10
129.959534
 20
71.681221
 11
126.070442
 21
75.570320
  0
LINE
  8
0
 10
127.484634
 20
75.570274
 11
126.777527
 21
76.277382
  0
LINE
  8
0
 10
126.000038
 20
64.999992
 11
126.000038
 21
75.500023
  0
LINE
  8
0
 10
120.000061
 20
65.000015
 11
126.000061
 21
65.000015
  0
LINE
  8
0
 10
145.167664
 20
114.500000
 11
147.803772
 21
114.500000
  0
LINE
  8
0
 10
138.000061
 20
119.000000
 11
160.000061
 21
119.000000
  0
LINE
  8
0
 10
145.167664
 20
75.500015
 11
147.803772
 21
75.500015
  0
LINE
  8
0
 10
138.000061
 20
71.000015
 11
160.000061
 21
71.000015
  0
LINE
  8
0
 10
108.600067
 20
83.500000
 11
107.000061
 21
83.500000
  0
LINE
  8
0
 10
107.000038
 20
83.500015
 11
107.000038
 21
93.500000
  0
LINE
  8
0
 10
108.600044
 20
83.500015
 11
108.600044
 21
93.500000
  0
LINE
  8
0
 10
109.900055
 20
85.250000
 11
108.600067
 21
85.250000
  0
LINE
  8
0
 10
109.900085
 20
91.750000
 11
108.600098
 21
91.750000
  0
LINE
  8
0
 10
108.600098
 20
93.500000
 11
107.000092
 21
93.500000
  0
LINE
  8
0
 10
109.900032
 20
83.750015
 11
109.900032
 21
93.250015
  0
LINE
  8
0
 10
111.500092
 20
93.250000
 11
109.900085
 21
93.250000
  0
LINE
  8
0
 10
111.500038
 20
83.600021
 11
111.500038
 21
93.400009
  0
LINE
  8
0
 10
111.500061
 20
83.750000
 11
109.900055
 21
83.750000
  0
LINE
  8
0
 10
127.000061
 20
83.600006
 11
111.500061
 21
83.600006
  0
LINE
  8
0
 10
113.500038
 20
83.600021
 11
113.500038
 21
93.400009
  0
LINE
  8
0
 10
127.000092
 20
93.399994
 11
111.500092
 21
93.399994
  0
LINE
  8
0
 10
-32.292839
 20
-7.000024
 11
-32.292839
 21
-1.877080
  0
LINE
  8
0
 10
-33.707069
 20
-7.000024
 11
-33.707069
 21
-1.877080
  0
LINE
  8
0
 10
-27.999962
 20
-1.877071
 11
-27.999962
 21
-7.000011
  0
LINE
  8
0
 62
     2
 10
-28.699959
 20
-7.000011
 11
-28.699959
 21
-1.877071
  0
LINE
  8
0
 10
-37.999962
 20
-1.877081
 11
-37.999962
 21
-7.000025
  0
LINE
  8
0
 62
     2
 10
-37.299965
 20
-7.000025
 11
-37.299965
 21
-1.877081
  0
LINE
  8
0
 10
-37.399963
 20
0.122932
 11
-28.599976
 21
0.122932
  0
LINE
  8
0
 10
-37.999969
 20
-1.877068
 11
-27.999969
 21
-1.877068
  0
LINE
  8
0
 10
-37.399956
 20
0.122919
 11
-37.399956
 21
-1.877081
  0
LINE
  8
0
 10
-28.599968
 20
0.122929
 11
-28.599968
 21
-1.859760
  0
LINE
  8
0
  6
CENTER
 62
     2
 10
-49.559696
 20
-32.000000
 11
29.428242
 21
-32.000000
  0
LINE
  8
0
 10
0.000038
 20
-51.500008
 11
0.000038
 21
-7.828485
  0
LINE
  8
0
 10
-39.999969
 20
8.000000
 11
20.000027
 21
8.000000
  0
LINE
  8
0
 10
-38.999966
 20
-10.000000
 11
-23.999969
 21
-10.000000
  0
LINE
  8
0
 10
-39.999962
 20
-67.000000
 11
20.000038
 21
-67.000000
  0
LINE
  8
0
 10
20.000038
 20
-2.171624
 11
20.000038
 21
8.000007
  0
LINE
  8
0
 10
-39.999962
 20
1.999986
 11
-39.999962
 21
7.999979
  0
LINE
  8
0
 10
-38.999962
 20
-7.000018
 11
-38.999962
 21
-10.000017
  0
LINE
  8
0
 10
-26.999971
 20
-7.000000
 11
-39.000000
 21
-7.000000
  0
LINE
  8
0
 10
-26.999962
 20
-7.000004
 11
-26.999962
 21
-10.000004
  0
LINE
  8
0
 10
-32.999962
 20
-7.535905
 11
-32.999962
 21
-10.000016
  0
LINE
  8
0
 10
-38.999962
 20
-10.000017
 11
-38.999962
 21
-56.500015
  0
LINE
  8
0
 10
-47.499966
 20
-52.900002
 11
-45.999966
 21
-52.900002
  0
LINE
  8
0
 10
-47.499962
 20
-42.900002
 11
-45.999962
 21
-42.900002
  0
LINE
  8
0
 10
-47.499962
 20
-52.900021
 11
-47.499962
 21
-42.900021
  0
LINE
  8
0
 10
19.000038
 20
-16.000002
 11
19.000038
 21
-39.500000
  0
LINE
  8
0
 10
20.000038
 20
-8.999997
 11
20.000038
 21
-40.500000
  0
LINE
  8
0
 10
26.000038
 20
-8.999992
 11
26.000038
 21
-40.499992
  0
LINE
  8
0
 10
27.600037
 20
-35.381599
 11
27.600037
 21
-28.618385
  0
LINE
  8
0
 10
26.500038
 20
-36.999992
 11
26.500038
 21
-26.999992
  0
LINE
  8
0
 10
26.053467
 20
-26.226496
 11
26.500046
 21
-26.999994
  0
LINE
  8
0
 10
26.053478
 20
-37.773502
 11
26.500061
 21
-36.999996
  0
LINE
  8
0
 10
-46.053436
 20
-37.773533
 11
-46.500015
 21
-37.000031
  0
LINE
  8
0
 10
-45.999969
 20
-37.773506
 11
-46.053391
 21
-37.773506
  0
LINE
  8
0
 10
-47.599960
 20
-35.381630
 11
-47.599960
 21
-28.618416
  0
LINE
  8
0
 10
-46.499962
 20
-37.000023
 11
-46.499962
 21
-27.000023
  0
LINE
  8
0
 10
-45.999962
 20
-26.226501
 11
-46.053383
 21
-26.226501
  0
LINE
  8
0
 10
-45.999966
 20
-34.886757
 11
-46.053387
 21
-34.886757
  0
LINE
  8
0
 10
-46.053474
 20
-26.226490
 11
-46.500053
 21
-26.999987
  0
LINE
  8
0
 10
-39.999962
 20
-45.000000
 11
-38.999962
 21
-45.000000
  0
LINE
  8
0
 10
-39.999966
 20
-51.000000
 11
-38.999966
 21
-51.000000
  0
LINE
  8
0
 10
-39.999969
 20
-20.000000
 11
-38.999969
 21
-20.000000
  0
LINE
  8
0
 10
-39.999962
 20
-44.000000
 11
-38.999962
 21
-44.000000
  0
LINE
  8
0
 10
22.199951
 20
8.499949
 11
23.699940
 21
6.999950
  0
LINE
  8
0
 10
30.500027
 20
7.000000
 11
27.800014
 21
7.000000
  0
LINE
  8
0
 10
26.400028
 20
7.000000
 11
23.700016
 21
7.000000
  0
LINE
  8
0
 10
32.000031
 20
14.500000
 11
22.200010
 21
14.500000
  0
LINE
  8
0
 10
32.000038
 20
8.500009
 11
32.000038
 21
16.500008
  0
LINE
  8
0
 10
32.099998
 20
20.999985
 11
22.099998
 21
20.999985
  0
LINE
  8
0
 10
32.100025
 20
19.399979
 11
22.099998
 21
19.399979
  0
LINE
  8
0
 10
32.000027
 20
8.500000
 11
22.200016
 21
8.500000
  0
LINE
  8
0
 10
32.000027
 20
16.499985
 11
22.200008
 21
16.499985
  0
LINE
  8
0
 10
31.850033
 20
18.099991
 11
22.350002
 21
18.099991
  0
LINE
  8
0
 10
32.100044
 20
19.400002
 11
32.100044
 21
21.000008
  0
LINE
  8
0
 10
31.850044
 20
16.500008
 11
31.850044
 21
18.100014
  0
LINE
  8
0
 10
22.100014
 20
19.400002
 11
22.100014
 21
21.000008
  0
LINE
  8
0
 10
22.350014
 20
16.500008
 11
22.350014
 21
18.100014
  0
LINE
  8
0
 10
22.200020
 20
8.500007
 11
22.200020
 21
16.500008
  0
LINE
  8
0
 10
30.350014
 20
18.100014
 11
30.350014
 21
19.400002
  0
LINE
  8
0
 10
23.850014
 20
18.100014
 11
23.850014
 21
19.400002
  0
LINE
  8
0
 10
32.000076
 20
8.499945
 11
30.500086
 21
6.999951
  0
LINE
  8
0
 10
-23.999964
 20
-56.500004
 11
-23.999964
 21
-10.000007
  0
LINE
  8
0
 10
-23.499964
 20
-4.000007
 11
-23.499964
 21
-11.000007
  0
LINE
  8
0
 10
-23.499969
 20
-3.999976
 11
-29.499969
 21
2.000016
  0
LINE
  8
0
 10
-39.999962
 20
-57.500015
 11
-39.999962
 21
-42.500015
  0
LINE
  8
0
 10
20.000036
 20
-57.500000
 11
-39.999962
 21
-57.500000
  0
LINE
  8
0
 10
20.000034
 20
-66.500000
 11
26.000031
 21
-66.500000
  0
LINE
  8
0
 10
-39.999966
 20
-66.500000
 11
-45.999966
 21
-66.500000
  0
LINE
  8
0
 10
-45.999962
 20
-9.000023
 11
-45.999962
 21
-66.500023
  0
LINE
  8
0
 10
-39.999962
 20
-9.000017
 11
-39.999962
 21
-67.000015
  0
LINE
  8
0
 10
14.000037
 20
-47.500000
 11
14.000037
 21
-39.500000
  0
LINE
  8
0
 10
30.500038
 20
-47.499996
 11
30.500038
 21
-39.499996
  0
LINE
  8
0
 10
-45.999969
 20
-9.000000
 11
-39.999969
 21
-9.000000
  0
LINE
  8
0
 10
20.000034
 20
-9.000000
 11
26.000034
 21
-9.000000
  0
LINE
  8
0
 10
13.000037
 20
-51.500000
 11
13.000037
 21
-7.828475
  0
LINE
  8
0
 10
-23.499969
 20
-5.500000
 11
-18.162247
 21
-5.500000
  0
LINE
  8
0
 10
-39.999966
 20
2.000000
 11
20.000034
 21
2.000000
  0
LINE
  8
0
 10
-38.999962
 20
-56.500000
 11
-23.999964
 21
-56.500000
  0
LINE
  8
0
 10
13.000041
 20
-48.000000
 11
19.000042
 21
-48.000000
  0
LINE
  8
0
 10
13.000027
 20
-16.000000
 11
19.000027
 21
-16.000000
  0
LINE
  8
0
 10
-39.999962
 20
-61.000000
 11
20.000036
 21
-61.000000
  0
LINE
  8
0
 10
20.000027
 20
-20.000000
 11
19.000027
 21
-20.000000
  0
LINE
  8
0
 10
-23.999969
 20
-11.000000
 11
0.000031
 21
-11.000000
  0
LINE
  8
0
 10
-0.499962
 20
-11.000010
 11
-0.499962
 21
-7.828485
  0
LINE
  8
0
 10
14.000036
 20
-39.500000
 11
20.000036
 21
-39.500000
  0
LINE
  8
0
 10
14.000033
 20
-47.500000
 11
30.500038
 21
-47.500000
  0
LINE
  8
0
 10
19.000038
 20
-47.500000
 11
19.000038
 21
-48.000000
  0
LINE
  8
0
 10
20.000038
 20
-47.500000
 11
20.000038
 21
-67.000000
  0
LINE
  8
0
 10
26.000038
 20
-47.499992
 11
26.000038
 21
-66.499992
  0
LINE
  8
0
 10
31.100002
 20
5.899994
 11
30.500027
 21
5.899994
  0
LINE
  8
0
 10
31.100008
 20
-3.899994
 11
22.100008
 21
-3.899994
  0
LINE
  8
0
 10
22.100014
 20
-3.899987
 11
22.100014
 21
5.900001
  0
LINE
  8
0
 10
31.100014
 20
-3.899989
 11
31.100014
 21
5.900002
  0
LINE
  8
0
 10
47.100037
 20
-1.500000
 11
44.100037
 21
-1.500000
  0
LINE
  8
0
 10
30.500034
 20
5.899956
 11
27.800013
 21
4.599936
  0
LINE
  8
0
 10
23.700102
 20
5.900179
 11
26.400108
 21
4.600177
  0
LINE
  8
0
 10
23.700008
 20
5.899994
 11
22.100002
 21
5.899994
  0
LINE
  8
0
 10
30.500038
 20
5.900002
 11
30.500038
 21
7.000009
  0
LINE
  8
0
 10
23.700020
 20
5.900001
 11
23.700020
 21
7.000007
  0
LINE
  8
0
 10
20.600014
 20
-2.171624
 11
20.600014
 21
4.899993
  0
LINE
  8
0
 10
22.100002
 20
4.250000
 11
20.600002
 21
4.250000
  0
LINE
  8
0
 10
22.100006
 20
-2.250000
 11
20.600006
 21
-2.250000
  0
LINE
  8
0
 10
20.600002
 20
4.899994
 11
20.000027
 21
4.899994
  0
LINE
  8
0
 10
47.600044
 20
-0.999972
 11
47.600044
 21
3.000028
  0
LINE
  8
0
 10
47.100033
 20
3.500000
 11
44.100033
 21
3.500000
  0
LINE
  8
0
 10
47.099941
 20
3.500003
 11
47.599934
 21
3.000001
  0
LINE
  8
0
 10
47.599998
 20
-0.999969
 11
47.099998
 21
-1.499969
  0
LINE
  8
0
 10
43.600044
 20
-0.999989
 11
43.600044
 21
3.000011
  0
LINE
  8
0
 10
44.100117
 20
-1.499893
 11
43.600105
 21
-0.999886
  0
LINE
  8
0
 10
43.599949
 20
3.000070
 11
44.099945
 21
3.500070
  0
LINE
  8
0
 10
47.100044
 20
-1.499972
 11
47.100044
 21
3.500028
  0
LINE
  8
0
 10
44.100044
 20
-1.499989
 11
44.100044
 21
3.500011
  0
LINE
  8
0
 10
35.100044
 20
-2.464102
 11
35.100044
 21
4.464121
  0
LINE
  8
0
 10
35.900032
 20
-2.499990
 11
35.900032
 21
4.500010
  0
LINE
  8
0
 10
38.400032
 20
-2.499990
 11
38.400032
 21
4.500010
  0
LINE
  8
0
 10
37.900021
 20
5.000000
 11
36.400021
 21
5.000000
  0
LINE
  8
0
 10
37.900021
 20
-3.000000
 11
36.400021
 21
-3.000000
  0
LINE
  8
0
 10
37.899944
 20
4.999939
 11
38.399925
 21
4.499962
  0
LINE
  8
0
 10
38.399982
 20
-2.499970
 11
37.899982
 21
-2.999969
  0
LINE
  8
0
 10
36.399940
 20
-3.000035
 11
35.899940
 21
-2.500036
  0
LINE
  8
0
 10
35.899960
 20
4.500063
 11
36.399960
 21
5.000063
  0
LINE
  8
0
 10
37.900032
 20
-2.999993
 11
37.900032
 21
5.000010
  0
LINE
  8
0
 10
36.400032
 20
-2.999994
 11
36.400032
 21
5.000010
  0
LINE
  8
0
 10
34.742764
 20
5.618805
 11
31.100002
 21
5.618805
  0
LINE
  8
0
 10
34.742764
 20
3.309387
 11
31.100002
 21
3.309387
  0
LINE
  8
0
 10
34.742767
 20
-1.309418
 11
31.100006
 21
-1.309418
  0
LINE
  8
0
 10
34.742767
 20
-3.618805
 11
31.100008
 21
-3.618805
  0
LINE
  8
0
 10
35.900021
 20
3.500000
 11
35.100033
 21
3.500000
  0
LINE
  8
0
 10
35.900024
 20
-1.500000
 11
35.100037
 21
-1.500000
  0
LINE
  8
0
 10
43.600037
 20
-0.500000
 11
38.400024
 21
-0.500000
  0
LINE
  8
0
 10
43.600040
 20
2.500000
 11
38.400028
 21
2.500000
  0
LINE
  8
0
 62
     2
 10
43.600040
 20
2.229492
 11
38.400028
 21
2.229492
  0
LINE
  8
0
 62
     2
 10
43.600037
 20
-0.229492
 11
38.400024
 21
-0.229492
  0
LINE
  8
0
 10
27.800026
 20
1.000008
 11
27.800026
 21
8.500008
  0
LINE
  8
0
 10
26.400032
 20
1.000008
 11
26.400032
 21
8.500008
  0
LINE
  8
0
  6
CENTER
 62
     2
 10
-9.999963
 20
10.965073
 11
-9.999963
 21
-69.074272
  0
LINE
  8
0
 10
20.000032
 20
-40.500000
 11
26.000032
 21
-40.500000
  0
LINE
  8
0
 10
26.000036
 20
-39.500000
 11
30.500032
 21
-39.500000
  0
LINE
  8
0
 62
     2
 10
8.000037
 20
-6.016338
 11
8.000037
 21
-3.446735
  0
LINE
  8
0
 10
11.250037
 20
-9.596229
 11
11.250037
 21
1.999997
  0
LINE
  8
0
 10
4.750038
 20
-9.596238
 11
4.750038
 21
1.999988
  0
LINE
  8
0
 10
4.750032
 20
-1.959480
 11
11.250031
 21
-1.959480
  0
LINE
  8
0
 62
     2
 10
6.708864
 20
-4.792931
 11
9.348505
 21
-4.792931
  0
LINE
  8
0
 10
4.750031
 20
-9.596230
 11
11.250030
 21
-9.596230
  0
LINE
  8
0
 10
-2.999969
 20
-2.171623
 11
4.750031
 21
-2.171623
  0
LINE
  8
0
 10
-2.999969
 20
-5.000053
 11
4.750031
 21
-5.000053
  0
LINE
  8
0
 10
-2.999969
 20
-7.828484
 11
4.750031
 21
-7.828484
  0
LINE
  8
0
 10
22.000038
 20
-7.828469
 11
22.000038
 21
-2.171617
  0
LINE
  8
0
 62
     2
 10
20.500038
 20
-7.828473
 11
20.500038
 21
-2.171624
  0
LINE
  8
0
 10
-2.999962
 20
-7.828482
 11
-2.999962
 21
-2.171629
  0
LINE
  8
0
 10
11.250031
 20
-2.171623
 11
22.000031
 21
-2.171623
  0
LINE
  8
0
 10
11.250032
 20
-5.000053
 11
22.000032
 21
-5.000053
  0
LINE
  8
0
 10
11.250030
 20
-7.828484
 11
22.000034
 21
-7.828484
  0
LINE
  8
0
 10
-5.713095
 20
-3.000053
 11
-2.999969
 21
-3.000053
  0
LINE
  8
0
 10
-8.022495
 20
-7.000053
 11
-2.999970
 21
-7.000053
  0
LINE
  8
0
 10
-23.999968
 20
-47.467003
 11
13.000033
 21
-47.467003
  0
LINE
  8
0
 10
-23.999966
 20
-16.533005
 11
13.000031
 21
-16.533005
  0
LINE
  8
0
 10
-23.999962
 20
-51.500000
 11
13.000038
 21
-51.500000
  0
LINE
  8
0
 10
-11.837692
 20
-5.500000
 11
-7.431198
 21
-5.500000
  0
LINE
  8
0
  6
PHANTOM
 62
     2
 10
-8.798972
 20
-8.344941
 11
-4.822561
 21
-1.457593
  0
LINE
  8
0
 10
31.100002
 20
-140.600006
 11
30.500027
 21
-140.600006
  0
LINE
  8
0
 10
31.100002
 20
-150.399994
 11
26.000027
 21
-150.399994
  0
LINE
  8
0
 10
31.100014
 20
-150.399994
 11
31.100014
 21
-140.600006
  0
LINE
  8
0
 10
47.100037
 20
-148.000000
 11
44.100033
 21
-148.000000
  0
LINE
  8
0
 10
47.600044
 20
-147.500000
 11
47.600044
 21
-143.500000
  0
LINE
  8
0
 10
47.100037
 20
-143.000000
 11
44.100033
 21
-143.000000
  0
LINE
  8
0
 10
47.099884
 20
-143.000092
 11
47.599880
 21
-143.500076
  0
LINE
  8
0
 10
47.599998
 20
-147.499985
 11
47.099998
 21
-147.999985
  0
LINE
  8
0
 10
43.600044
 20
-147.500000
 11
43.600044
 21
-143.500000
  0
LINE
  8
0
 10
44.100006
 20
-147.999954
 11
43.599998
 21
-147.499939
  0
LINE
  8
0
 10
43.599926
 20
-143.499939
 11
44.099930
 21
-142.999939
  0
LINE
  8
0
 10
47.100044
 20
-148.000000
 11
47.100044
 21
-143.000000
  0
LINE
  8
0
 10
44.100044
 20
-148.000000
 11
44.100044
 21
-143.000000
  0
LINE
  8
0
 10
35.100044
 20
-148.964111
 11
35.100044
 21
-142.035889
  0
LINE
  8
0
 10
35.900032
 20
-149.000000
 11
35.900032
 21
-142.000000
  0
LINE
  8
0
 10
38.400032
 20
-149.000000
 11
38.400032
 21
-142.000000
  0
LINE
  8
0
 10
37.900021
 20
-141.500000
 11
36.400021
 21
-141.500000
  0
LINE
  8
0
 10
37.900021
 20
-149.500000
 11
36.400021
 21
-149.500000
  0
LINE
  8
0
 10
37.900002
 20
-141.500015
 11
38.399986
 21
-142.000015
  0
LINE
  8
0
 10
38.400009
 20
-148.999985
 11
37.900009
 21
-149.499985
  0
LINE
  8
0
 10
36.399933
 20
-149.500046
 11
35.899925
 21
-149.000031
  0
LINE
  8
0
 10
35.900005
 20
-141.999985
 11
36.399998
 21
-141.500000
  0
LINE
  8
0
 10
37.900032
 20
-149.500000
 11
37.900032
 21
-141.500000
  0
LINE
  8
0
 10
36.400032
 20
-149.500000
 11
36.400032
 21
-141.500000
  0
LINE
  8
0
 10
34.742764
 20
-140.881195
 11
31.100002
 21
-140.881195
  0
LINE
  8
0
 10
34.742764
 20
-143.190613
 11
31.100002
 21
-143.190613
  0
LINE
  8
0
 10
34.742764
 20
-147.809418
 11
31.100002
 21
-147.809418
  0
LINE
  8
0
 10
34.742764
 20
-150.118805
 11
31.100002
 21
-150.118805
  0
LINE
  8
0
 10
35.900021
 20
-143.000000
 11
35.100033
 21
-143.000000
  0
LINE
  8
0
 10
35.900021
 20
-148.000000
 11
35.100033
 21
-148.000000
  0
LINE
  8
0
 10
43.600033
 20
-147.000000
 11
38.400021
 21
-147.000000
  0
LINE
  8
0
 10
43.600033
 20
-144.000000
 11
38.400021
 21
-144.000000
  0
LINE
  8
0
 62
     2
 10
43.600033
 20
-144.270508
 11
38.400021
 21
-144.270508
  0
LINE
  8
0
 62
     2
 10
43.600033
 20
-146.729492
 11
38.400021
 21
-146.729492
  0
LINE
  8
0
  6
CENTER
 62
     2
 10
-49.079948
 20
-139.000000
 11
27.813034
 21
-139.000000
  0
LINE
  8
0
 10
-38.999969
 20
-109.000015
 11
19.000019
 21
-109.000015
  0
LINE
  8
0
 10
-38.999977
 20
-169.000000
 11
19.000023
 21
-169.000000
  0
LINE
  8
0
 10
-39.999962
 20
-168.000000
 11
-39.999962
 21
-110.000000
  0
LINE
  8
0
 10
20.000034
 20
-168.000000
 11
20.000034
 21
-110.000000
  0
LINE
  8
0
 10
-39.999989
 20
-167.999969
 11
-38.999989
 21
-168.999969
  0
LINE
  8
0
 10
19.000011
 20
-169.000015
 11
20.000002
 21
-168.000015
  0
LINE
  8
0
 10
-40.000057
 20
-109.999863
 11
-39.000050
 21
-108.999863
  0
LINE
  8
0
 10
18.999952
 20
-109.000084
 11
19.999954
 21
-110.000084
  0
LINE
  8
0
  6
CENTER
 62
     2
 10
-9.999963
 20
-106.870651
 11
-9.999963
 21
-170.624512
  0
LINE
  8
0
 10
31.100002
 20
-140.600006
 11
26.000023
 21
-140.600006
  0
LINE
  8
0
 10
31.099998
 20
-137.399994
 11
30.500023
 21
-137.399994
  0
LINE
  8
0
 10
31.099998
 20
-127.600006
 11
26.000023
 21
-127.600006
  0
LINE
  8
0
 10
47.100029
 20
-130.000000
 11
44.100029
 21
-130.000000
  0
LINE
  8
0
 10
47.600044
 20
-130.500031
 11
47.600044
 21
-134.500031
  0
LINE
  8
0
 10
47.100029
 20
-135.000000
 11
44.100029
 21
-135.000000
  0
LINE
  8
0
 10
47.099915
 20
-134.999924
 11
47.599907
 21
-134.499939
  0
LINE
  8
0
 10
47.599926
 20
-130.500092
 11
47.099926
 21
-130.000092
  0
LINE
  8
0
 10
43.600044
 20
-130.500000
 11
43.600044
 21
-134.500000
  0
LINE
  8
0
 10
44.100075
 20
-130.000122
 11
43.600037
 21
-130.500153
  0
LINE
  8
0
 10
43.599979
 20
-134.500061
 11
44.099976
 21
-135.000046
  0
LINE
  8
0
 10
47.100044
 20
-130.000031
 11
47.100044
 21
-135.000031
  0
LINE
  8
0
 10
44.100044
 20
-130.000000
 11
44.100044
 21
-135.000000
  0
LINE
  8
0
 10
35.100044
 20
-129.035889
 11
35.100044
 21
-135.964111
  0
LINE
  8
0
 10
35.900032
 20
-129.000000
 11
35.900032
 21
-136.000000
  0
LINE
  8
0
 10
38.400032
 20
-129.000000
 11
38.400032
 21
-136.000000
  0
LINE
  8
0
 10
37.900017
 20
-136.500000
 11
36.400017
 21
-136.500000
  0
LINE
  8
0
 10
37.900017
 20
-128.500000
 11
36.400017
 21
-128.500000
  0
LINE
  8
0
 10
37.899982
 20
-136.499985
 11
38.399990
 21
-135.999985
  0
LINE
  8
0
 10
38.399921
 20
-129.000092
 11
37.899937
 21
-128.500107
  0
LINE
  8
0
 10
36.400040
 20
-128.500092
 11
35.900028
 21
-129.000076
  0
LINE
  8
0
 10
35.899906
 20
-136.000153
 11
36.399902
 21
-136.500137
  0
LINE
  8
0
 10
37.900032
 20
-128.500000
 11
37.900032
 21
-136.500000
  0
LINE
  8
0
 10
36.400032
 20
-128.500000
 11
36.400032
 21
-136.500000
  0
LINE
  8
0
 10
34.742760
 20
-137.118805
 11
31.099998
 21
-137.118805
  0
LINE
  8
0
 10
34.742760
 20
-134.809387
 11
31.099998
 21
-134.809387
  0
LINE
  8
0
 10
34.742760
 20
-130.190582
 11
31.099998
 21
-130.190582
  0
LINE
  8
0
 10
34.742760
 20
-127.881195
 11
31.099998
 21
-127.881195
  0
LINE
  8
0
 10
35.900017
 20
-135.000000
 11
35.100029
 21
-135.000000
  0
LINE
  8
0
 10
35.900017
 20
-130.000000
 11
35.100029
 21
-130.000000
  0
LINE
  8
0
 10
43.600029
 20
-131.000000
 11
38.400017
 21
-131.000000
  0
LINE
  8
0
 10
43.600029
 20
-134.000000
 11
38.400017
 21
-134.000000
  0
LINE
  8
0
 62
     2
 10
43.600029
 20
-133.729492
 11
38.400017
 21
-133.729492
  0
LINE
  8
0
 62
     2
 10
43.600029
 20
-131.270508
 11
38.400017
 21
-131.270508
  0
LINE
  8
0
 10
31.100014
 20
-127.600006
 11
31.100014
 21
-137.399994
  0
LINE
  8
0
 10
31.099998
 20
-137.399994
 11
26.000023
 21
-137.399994
  0
LINE
  8
0
 10
26.000038
 20
-157.500000
 11
26.000038
 21
-120.500000
  0
LINE
  8
0
 10
-45.999977
 20
-116.000015
 11
-39.999977
 21
-116.000015
  0
LINE
  8
0
 10
-45.999973
 20
-162.000000
 11
-39.999973
 21
-162.000000
  0
LINE
  8
0
 10
-45.999962
 20
-162.000000
 11
-45.999962
 21
-116.000000
  0
LINE
  8
0
  6
CENTER
 62
     2
 10
-13.472189
 20
-164.000000
 11
-6.131987
 21
-164.000000
  0
LINE
  8
0
  6
CENTER
 62
     2
 10
-41.318565
 20
-114.000015
 11
-29.214916
 21
-114.000015
  0
LINE
  8
0
  6
CENTER
 62
     2
 10
-34.999962
 20
-108.324448
 11
-34.999962
 21
-119.327759
  0
LINE
  8
0
  6
CENTER
 62
     2
 10
-34.999962
 20
-135.253632
 11
-34.999962
 21
-142.636688
  0
LINE
  8
0
  6
CENTER
 62
     2
 10
-6.253603
 20
-114.000015
 11
-13.472193
 21
-114.000015
  0
LINE
  8
0
 10
-45.999973
 20
-156.500000
 11
-39.999973
 21
-156.500000
  0
LINE
  8
0
 10
26.000027
 20
-156.500000
 11
20.000023
 21
-156.500000
  0
LINE
  8
0
 10
-45.999977
 20
-121.500000
 11
-39.999977
 21
-121.500000
  0
LINE
  8
0
 10
26.000023
 20
-121.500000
 11
20.000019
 21
-121.500000
  0
LINE
  8
0
 10
26.000023
 20
-123.081421
 11
30.500019
 21
-123.081421
  0
LINE
  8
0
 10
20.000015
 20
-115.081436
 11
30.500019
 21
-115.081436
  0
LINE
  8
0
 10
30.500038
 20
-115.081421
 11
30.500038
 21
-123.081421
  0
LINE
  8
0
 10
26.000023
 20
-120.500000
 11
20.000019
 21
-120.500000
  0
LINE
  8
0
 10
26.000027
 20
-154.918579
 11
30.500027
 21
-154.918579
  0
LINE
  8
0
 10
30.500038
 20
-162.918579
 11
30.500038
 21
-154.918579
  0
LINE
  8
0
 10
20.000019
 20
-162.918579
 11
30.500023
 21
-162.918579
  0
LINE
  8
0
 10
26.000027
 20
-156.500000
 11
20.000023
 21
-156.500000
  0
LINE
  8
0
 10
26.000027
 20
-157.500000
 11
20.000023
 21
-157.500000
  0
LINE
  8
0
  6
CENTER
 62
     2
 10
-34.999962
 20
-169.675537
 11
-34.999962
 21
-158.672241
  0
LINE
  8
0
  6
CENTER
 62
     2
 10
-41.318562
 20
-164.000000
 11
-29.529289
 21
-164.000000
  0
LINE
  8
0
  6
CENTER
 62
     2
 10
15.000035
 20
-108.324448
 11
15.000035
 21
-119.327759
  0
LINE
  8
0
  6
CENTER
 62
     2
 10
21.318600
 20
-114.000015
 11
9.296702
 21
-114.000015
  0
LINE
  8
0
  6
CENTER
 62
     2
 10
15.000035
 20
-169.675537
 11
15.000035
 21
-158.672241
  0
LINE
  8
0
  6
CENTER
 62
     2
 10
21.318604
 20
-164.000000
 11
8.982326
 21
-164.000000
  0
LINE
  8
0
  6
CENTER
 62
     2
 10
15.000035
 20
-135.253632
 11
15.000035
 21
-142.851654
  0
ARC
  8
0
 10
33.055328
 20
104.964081
 40
2.044653
 50
325.615631
 51
34.384315
  0
ARC
  8
0
 10
33.055313
 20
98.035858
 40
2.044656
 50
325.615692
 51
34.384315
  0
ARC
  8
0
 10
27.457268
 20
101.499969
 40
7.642726
 50
342.411957
 51
17.587980
  0
CIRCLE
  8
0
 62
     2
 10
-35.000000
 20
120.000008
 40
2.000000
  0
CIRCLE
  8
0
 10
-35.000000
 20
120.000008
 40
1.200000
  0
CIRCLE
  8
0
 10
-10.000013
 20
95.000000
 40
20.000000
  0
CIRCLE
  8
0
 10
-20.000010
 20
103.000000
 40
4.000000
  0
CIRCLE
  8
0
 10
-20.000010
 20
103.000000
 40
3.500000
  0
CIRCLE
  8
0
 10
-33.000023
 20
80.500038
 40
5.000000
  0
CIRCLE
  8
0
 62
     2
 10
-33.000023
 20
80.500038
 40
4.200000
  0
ARC
  8
0
 10
-20.000019
 20
87.000000
 40
4.500000
 50
179.999908
 51
269.999939
  0
CIRCLE
  8
0
 10
-20.000019
 20
87.000000
 40
3.500000
  0
CIRCLE
  8
0
 10
-10.000009
 20
103.000000
 40
3.500000
  0
CIRCLE
  8
0
 10
-10.000020
 20
87.000000
 40
3.500000
  0
CIRCLE
  8
0
 10
-33.000008
 20
109.500008
 40
5.000000
  0
CIRCLE
  8
0
 62
     2
 10
-33.000008
 20
109.500008
 40
4.200000
  0
CIRCLE
  8
0
 10
27.099983
 20
101.499977
 40
2.000000
  0
CIRCLE
  8
0
 10
27.099983
 20
101.499977
 40
5.000000
  0
CIRCLE
  8
0
 10
27.099972
 20
88.499992
 40
5.000000
  0
CIRCLE
  8
0
 10
27.099972
 20
88.499992
 40
2.000000
  0
ARC
  8
0
 10
33.055313
 20
85.035873
 40
2.044656
 50
325.615692
 51
34.384315
  0
ARC
  8
0
 10
33.055313
 20
91.964081
 40
2.044653
 50
325.615631
 51
34.384315
  0
ARC
  8
0
 10
27.457256
 20
88.499985
 40
7.642726
 50
342.411957
 51
17.587927
  0
CIRCLE
  8
0
 10
-35.000015
 20
95.000008
 40
3.000000
  0
ARC
  8
0
 10
13.999988
 20
94.999992
 40
3.000000
 50
89.999908
 51
269.999939
  0
CIRCLE
  8
0
 62
     2
 10
14.999999
 20
119.999992
 40
2.000000
  0
CIRCLE
  8
0
 10
14.999999
 20
119.999992
 40
1.200000
  0
CIRCLE
  8
0
 62
     2
 10
-35.000031
 20
70.000008
 40
2.000000
  0
CIRCLE
  8
0
 10
-35.000031
 20
70.000008
 40
1.200000
  0
CIRCLE
  8
0
 62
     2
 10
14.999969
 20
69.999992
 40
2.000000
  0
CIRCLE
  8
0
 10
14.999969
 20
69.999992
 40
1.200000
  0
ARC
  8
0
 10
-33.000008
 20
109.500008
 40
6.000000
 50
269.999878
 51
89.999893
  0
ARC
  8
0
 10
-33.000023
 20
80.500038
 40
6.000000
 50
269.999878
 51
89.999893
  0
CIRCLE
  8
0
 10
-10.000009
 20
103.000000
 40
4.000000
  0
ARC
  8
0
 10
-10.000020
 20
87.000000
 40
4.500000
 50
269.999908
 51
359.999908
  0
CIRCLE
  8
0
 10
-20.000019
 20
87.000000
 40
4.000000
  0
ARC
  8
0
 10
-20.000010
 20
103.000000
 40
4.500000
 50
89.999977
 51
179.999908
  0
CIRCLE
  8
0
 10
-10.000020
 20
87.000000
 40
4.000000
  0
ARC
  8
0
 10
-10.000009
 20
103.000000
 40
4.500000
 50
359.999908
 51
89.999924
  0
ARC
  8
0
 10
-143.066956
 20
85.696198
 40
3.066976
 50
325.615845
 51
34.384556
  0
ARC
  8
0
 10
-151.464111
 20
80.500015
 40
11.464135
 50
342.412079
 51
17.588007
  0
ARC
  8
0
 10
-151.464111
 20
109.500031
 40
11.464135
 50
342.412079
 51
17.588007
  0
ARC
  8
0
 10
-143.066956
 20
104.303894
 40
3.066972
 50
325.615448
 51
34.384159
  0
ARC
  8
0
 10
-143.066956
 20
75.303864
 40
3.066972
 50
325.615448
 51
34.384159
  0
ARC
  8
0
 10
-143.066956
 20
114.696167
 40
3.066976
 50
325.615845
 51
34.384556
  0
CIRCLE
  8
0
 62
     2
 10
-153.686279
 20
106.313736
 40
4.000000
  0
CIRCLE
  8
0
 10
-153.686279
 20
106.313736
 40
3.000000
  0
ARC
  8
0
 62
     2
 10
-165.000000
 20
95.000023
 40
16.000002
 50
84.273659
 51
95.401993
  0
CIRCLE
  8
0
 62
     2
 10
-148.999969
 20
95.000015
 40
4.000000
  0
CIRCLE
  8
0
 10
-148.999969
 20
95.000015
 40
3.000000
  0
CIRCLE
  8
0
 62
     2
 10
-153.686264
 20
83.686295
 40
4.000000
  0
CIRCLE
  8
0
 10
-153.686264
 20
83.686295
 40
3.000000
  0
CIRCLE
  8
0
 62
     2
 10
-164.999985
 20
79.000015
 40
4.000000
  0
CIRCLE
  8
0
 10
-164.999985
 20
79.000015
 40
3.000000
  0
CIRCLE
  8
0
 62
     2
 10
-176.313690
 20
83.686333
 40
4.000000
  0
CIRCLE
  8
0
 10
-176.313690
 20
83.686333
 40
3.000000
  0
CIRCLE
  8
0
 62
     2
 10
-161.364487
 20
103.776871
 40
2.750000
  0
ARC
  8
0
 10
-161.364487
 20
103.776871
 40
3.250000
 50
265.989624
 51
229.010437
  0
CIRCLE
  8
0
 10
-165.000000
 20
95.000023
 40
6.500000
  0
ARC
  8
0
 10
-156.223114
 20
91.364517
 40
3.249992
 50
175.989761
 51
139.010239
  0
CIRCLE
  8
0
 62
     2
 10
-156.223114
 20
91.364517
 40
2.750000
  0
ARC
  8
0
 10
-168.635468
 20
86.223167
 40
3.250000
 50
85.989639
 51
49.010349
  0
CIRCLE
  8
0
 62
     2
 10
-168.635468
 20
86.223167
 40
2.750000
  0
ARC
  8
0
 10
-173.776855
 20
98.635521
 40
3.249992
 50
355.989777
 51
319.010254
  0
CIRCLE
  8
0
 62
     2
 10
-173.776855
 20
98.635521
 40
2.750000
  0
CIRCLE
  8
0
 10
-165.000000
 20
95.000023
 40
3.000000
  0
CIRCLE
  8
0
 62
     2
 10
-165.000000
 20
95.000023
 40
2.200000
  0
CIRCLE
  8
0
 10
-165.000000
 20
95.000023
 40
5.000000
  0
ARC
  8
0
 10
-165.000000
 20
95.000023
 40
23.000002
 50
233.472534
 51
126.527481
  0
CIRCLE
  8
0
 10
-194.999969
 20
107.000061
 40
4.000000
  0
CIRCLE
  8
0
 10
-195.000000
 20
95.000061
 40
4.000000
  0
CIRCLE
  8
0
 10
-195.000000
 20
83.000061
 40
4.000000
  0
ARC
  8
0
 10
-181.665833
 20
72.500061
 40
5.000004
 50
53.472519
 51
90.000000
  0
ARC
  8
0
 10
-181.665802
 20
117.500069
 40
5.000000
 50
270.000000
 51
306.527496
  0
CIRCLE
  8
0
 62
     2
 10
-176.313690
 20
106.313744
 40
4.000000
  0
CIRCLE
  8
0
 10
-176.313690
 20
106.313744
 40
3.000000
  0
CIRCLE
  8
0
 10
-181.000000
 20
94.999992
 40
5.000000
  0
ARC
  8
0
 10
-165.000000
 20
95.000023
 40
24.000006
 50
226.838104
 51
270.000000
  0
ARC
  8
0
 10
-165.000000
 20
95.000023
 40
24.000000
 50
90.000000
 51
133.161896
  0
CIRCLE
  8
0
 62
     2
 10
-165.000000
 20
111.000038
 40
4.000000
  0
CIRCLE
  8
0
 10
-165.000000
 20
111.000038
 40
3.000000
  0
ARC
  8
0
 62
     2
 10
-165.000000
 20
95.000023
 40
16.000002
 50
129.273666
 51
140.402008
  0
ARC
  8
0
 62
     2
 10
-165.000000
 20
95.000023
 40
15.999993
 50
174.273682
 51
185.402023
  0
ARC
  8
0
 62
     2
 10
-165.000000
 20
95.000023
 40
16.000000
 50
219.273697
 51
230.402023
  0
ARC
  8
0
 62
     2
 10
-165.000000
 20
95.000023
 40
16.000000
 50
264.273712
 51
275.402039
  0
ARC
  8
0
 62
     2
 10
-165.000000
 20
95.000023
 40
15.999995
 50
309.273682
 51
320.402008
  0
ARC
  8
0
 62
     2
 10
-165.000000
 20
95.000023
 40
16.000008
 50
354.273712
 51
5.401991
  0
ARC
  8
0
 62
     2
 10
-165.000000
 20
95.000023
 40
16.000000
 50
39.273705
 51
50.402027
  0
CIRCLE
  8
0
 10
160.000092
 20
94.999985
 40
9.000000
  0
CIRCLE
  8
0
 10
160.000092
 20
94.999985
 40
10.500000
  0
CIRCLE
  8
0
 10
160.000092
 20
94.999985
 40
5.000000
  0
CIRCLE
  8
0
 10
160.000092
 20
94.999985
 40
3.000000
  0
CIRCLE
  8
0
 62
     2
 10
160.000092
 20
94.999985
 40
2.200000
  0
CIRCLE
  8
0
 10
127.000084
 20
101.499969
 40
2.500000
  0
CIRCLE
  8
0
 10
127.000084
 20
101.499969
 40
4.900000
  0
CIRCLE
  8
0
 10
127.000084
 20
101.499969
 40
4.000000
  0
CIRCLE
  8
0
 10
127.000092
 20
88.499969
 40
2.500000
  0
CIRCLE
  8
0
 10
127.000092
 20
88.499969
 40
4.900000
  0
CIRCLE
  8
0
 10
127.000092
 20
88.499969
 40
4.000000
  0
CIRCLE
  8
0
 10
190.000092
 20
94.999969
 40
4.000000
  0
CIRCLE
  8
0
 10
190.000061
 20
82.999969
 40
4.000000
  0
CIRCLE
  8
0
 10
190.000061
 20
106.999969
 40
4.000000
  0
ARC
  8
0
 10
160.000092
 20
94.999985
 40
23.000000
 50
69.977127
 51
290.022949
  0
ARC
  8
0
 10
160.000092
 20
94.999985
 40
24.499996
 50
127.257881
 51
232.742126
  0
CIRCLE
  8
0
 10
171.500061
 20
75.081390
 40
4.000000
  0
CIRCLE
  8
0
 10
170.750061
 20
76.380432
 40
1.500000
  0
CIRCLE
  8
0
 62
     2
 10
170.750061
 20
76.380432
 40
0.900000
  0
ARC
  8
0
 10
160.000092
 20
94.999985
 40
24.499996
 50
45.584751
 51
51.040852
  0
ARC
  8
0
 10
160.000092
 20
94.999985
 40
24.500000
 50
308.959229
 51
314.415344
  0
CIRCLE
  8
0
 10
170.750061
 20
113.619522
 40
1.500000
  0
CIRCLE
  8
0
 62
     2
 10
170.750061
 20
113.619522
 40
0.900000
  0
ARC
  8
0
 10
176.665894
 20
117.500000
 40
4.999997
 50
249.384949
 51
270.000000
  0
ARC
  8
0
 10
176.665894
 20
72.499969
 40
5.000000
 50
90.000000
 51
110.615219
  0
ARC
  8
0
 10
132.380554
 20
115.072784
 40
2.083330
 50
331.260254
 51
118.739937
  0
ARC
  8
0
 10
132.380539
 20
74.927170
 40
2.083334
 50
241.260056
 51
28.739937
  0
CIRCLE
  8
0
 10
171.500061
 20
114.918564
 40
4.000000
  0
ARC
  8
0
 10
160.000092
 20
94.999985
 40
24.000000
 50
68.959221
 51
90.000038
  0
ARC
  8
0
 10
160.000092
 20
94.999985
 40
24.000000
 50
270.000031
 51
291.040833
  0
ARC
  8
0
 10
-35.999969
 20
-15.665117
 40
8.665106
 50
69.743996
 51
110.256111
  0
ARC
  8
0
 10
-29.999969
 20
-15.665115
 40
8.665106
 50
69.743935
 51
110.256058
  0
ARC
  8
0
 10
23.944218
 20
-27.669876
 40
2.555820
 50
325.615723
 51
34.384327
  0
ARC
  8
0
 10
16.946629
 20
-32.000011
 40
9.553402
 50
342.412048
 51
17.588005
  0
ARC
  8
0
 10
23.944218
 20
-36.330128
 40
2.555818
 50
325.615723
 51
34.384293
  0
ARC
  8
0
 10
26.651508
 20
-28.618397
 40
0.948521
 50
0.000000
 51
90.000000
  0
ARC
  8
0
 10
26.651508
 20
-35.381615
 40
0.948521
 50
270.000000
 51
0.000000
  0
ARC
  8
0
 10
-43.944149
 20
-27.669884
 40
2.555819
 50
145.615768
 51
214.384384
  0
ARC
  8
0
 10
-43.944149
 20
-36.330143
 40
2.555820
 50
145.615738
 51
214.384384
  0
ARC
  8
0
 10
-46.651440
 20
-28.618404
 40
0.948521
 50
90.000000
 51
180.000122
  0
ARC
  8
0
 10
-46.651440
 20
-35.381615
 40
0.948521
 50
180.000229
 51
270.000000
  0
ARC
  8
0
 10
-36.946560
 20
-32.000004
 40
9.553403
 50
162.412079
 51
197.588043
  0
ARC
  8
0
 10
33.055355
 20
4.464120
 40
2.044656
 50
325.615692
 51
34.384315
  0
ARC
  8
0
 10
27.457302
 20
1.000000
 40
7.642725
 50
342.411987
 51
17.588013
  0
ARC
  8
0
 10
33.055359
 20
-2.464109
 40
2.044655
 50
325.615723
 51
34.384346
  0
CIRCLE
  8
0
 62
     2
 10
-14.999971
 20
-7.000009
 40
1.500000
  0
CIRCLE
  8
0
 10
-14.999971
 20
-7.000009
 40
1.000000
  0
CIRCLE
  8
0
 10
-14.999971
 20
-7.000009
 40
3.500000
  0
ARC
  8
0
 10
33.055355
 20
-148.964111
 40
2.044660
 50
325.615509
 51
34.384140
  0
ARC
  8
0
 10
33.055351
 20
-142.035889
 40
2.044657
 50
325.615448
 51
34.384140
  0
ARC
  8
0
 10
27.457302
 20
-145.500000
 40
7.642725
 50
342.411896
 51
17.587862
  0
CIRCLE
  8
0
 10
-34.999977
 20
-164.000000
 40
2.250000
  0
ARC
  8
0
 10
33.055355
 20
-129.035889
 40
2.044657
 50
325.615448
 51
34.384079
  0
ARC
  8
0
 10
33.055351
 20
-135.964111
 40
2.044657
 50
325.615448
 51
34.384140
  0
ARC
  8
0
 10
27.457302
 20
-132.500000
 40
7.642729
 50
342.411896
 51
17.587872
  0
CIRCLE
  8
0
 10
-9.999976
 20
-164.000000
 40
2.000000
  0
CIRCLE
  8
0
 10
15.000020
 20
-164.000000
 40
2.250000
  0
CIRCLE
  8
0
 10
-34.999973
 20
-114.000015
 40
2.250000
  0
CIRCLE
  8
0
 10
15.000024
 20
-114.000015
 40
2.250000
  0
CIRCLE
  8
0
 10
-34.999973
 20
-139.000000
 40
2.000000
  0
CIRCLE
  8
0
 10
-9.999976
 20
-114.000015
 40
2.000000
  0
CIRCLE
  8
0
 10
15.000024
 20
-139.000000
 40
2.000000
  0
CIRCLE
  8
0
 10
-9.999976
 20
-139.000000
 40
20.000000
  0
CIRCLE
  8
0
  6
DASHED
 62
     2
 10
-34.999973
 20
-114.000015
 40
4.000000
  0
CIRCLE
  8
0
  6
DASHED
 62
     2
 10
-34.999977
 20
-164.000000
 40
4.000000
  0
CIRCLE
  8
0
  6
DASHED
 62
     2
 10
15.000024
 20
-114.000015
 40
4.000000
  0
CIRCLE
  8
0
  6
DASHED
 62
     2
 10
15.000020
 20
-164.000000
 40
4.000000
  0
ARC
  8
0
 10
8.893191
 20
-4.792937
 40
1.606837
 50
347.517761
 51
12.482201
  0
ARC
  8
0
 10
8.656122
 20
-4.869754
 40
1.855058
 50
13.216157
 51
47.258297
  0
ARC
  8
0
 10
8.000028
 20
-5.717004
 40
2.924068
 50
49.084316
 51
130.915649
  0
ARC
  8
0
 10
7.343933
 20
-4.869754
 40
1.855057
 50
132.741653
 51
166.783798
  0
ARC
  8
0
 10
7.106864
 20
-4.792936
 40
1.606836
 50
167.517761
 51
192.482208
  0
ARC
  8
0
 10
7.343933
 20
-4.716118
 40
1.855057
 50
193.216156
 51
227.258316
  0
ARC
  8
0
 10
8.000028
 20
-3.868868
 40
2.924068
 50
229.084320
 51
310.915649
  0
ARC
  8
0
 10
8.656122
 20
-4.716119
 40
1.855057
 50
312.741669
 51
346.783813
  0
TEXT
  8
0
 10
174.200241
 20
180.830002
 40
6.300000
  1
DATE: AUG ,1994
 50
0.000000
 41
1.052632
 51
0.000000
  7
STANDARD
  0
TEXT
  8
0
 10
167.564667
 20
-192.100006
 40
9.000000
  1
KOGANEI CORP.
 50
0.000000
 41
1.052632
 51
0.000000
  7
STANDARD
  0
TEXT
  8
0
 10
-269.149719
 20
180.830002
 40
6.300000
  1
HANDLING MODULE
 50
0.000000
 41
1.052632
 51
0.000000
  7
STANDARD
  0
TEXT
  8
0
 10
-270.049713
 20
155.830002
 40
6.300000
  1
MODEL:SHM31S
 50
0.000000
 41
1.052632
 51
0.000000
  7
STANDARD
  0
ENDSEC
  0
EOF
