  0
SECTION
  2
HEADER
  0
ENDSEC
  0
SECTION
  2
TABLES
  0
TABLE
  2
LTYPE
 70
     4
  0
LTYPE
  2
CONTINUOUS
 70
    64
  3
Solid line
 72
    65
 73
     0
 40
0.000000
  0
LTYPE
  2
DASHED
 70
    64
  3
__ __ __ __ __ __ __ __ __ __ __ __ __ __ __
 72
    65
 73
     2
 40
3.500000
 49
2.000000
 49
-1.500000
  0
LTYPE
  2
CENTER
 70
    64
  3
____ _ ____ _ ____ _ ____ _ ____ _ ____ _ ____
 72
    65
 73
     4
 40
17.500000
 49
13.000000
 49
-1.500000
 49
1.500000
 49
-1.500000
  0
LTYPE
  2
PHANTOM
 70
    64
  3
_____ _ _ _____ _ _ _____ _ _ _____ _ _ ____  
 72
    65
 73
     6
 40
15.500000
 49
8.000000
 49
-1.500000
 49
1.500000
 49
-1.500000
 49
1.500000
 49
-1.500000
  0
LTYPE
  2
DASHED1
 70
    64
  3
__ __ __ __ __ __ __ __ __ __ __ __ __ __ __
 72
    65
 73
     2
 40
1.500000
 49
1.000000
 49
-0.500000
  0
LTYPE
  2
DASHED2
 70
    64
  3
__ __ __ __ __ __ __ __ __ __ __ __ __ __ __
 72
    65
 73
     2
 40
3.500000
 49
2.500000
 49
-1.000000
  0
LTYPE
  2
DASHED3
 70
    64
  3
__ __ __ __ __ __ __ __ __ __ __ __ __ __ __
 72
    65
 73
     2
 40
6.000000
 49
4.000000
 49
-2.000000
  0
LTYPE
  2
DASHED4
 70
    64
  3
__ __ __ __ __ __ __ __ __ __ __ __ __ __ __
 72
    65
 73
     2
 40
12.000000
 49
10.000000
 49
-2.000000
  0
LTYPE
  2
DASHED5
 70
    64
  3
__ __ __ __ __ __ __ __ __ __ __ __ __ __ __
 72
    65
 73
     2
 40
17.000000
 49
15.000000
 49
-2.000000
  0
LTYPE
  2
DASHED6
 70
    64
  3
__ __ __ __ __ __ __ __ __ __ __ __ __ __ __
 72
    65
 73
     2
 40
29.000000
 49
27.000000
 49
-2.000000
  0
LTYPE
  2
PHANTOM1
 70
    64
  3
_____ _ _ _____ _ _ _____ _ _ _____ _ _ ____  
 72
    65
 73
     6
 40
31.000000
 49
25.000000
 49
-1.500000
 49
1.000000
 49
-1.000000
 49
1.000000
 49
-1.500000
  0
LTYPE
  2
PHANTOM2
 70
    64
  3
_____ _ _ _____ _ _ _____ _ _ _____ _ _ ____  
 72
    65
 73
     6
 40
36.000000
 49
27.000000
 49
-1.500000
 49
2.500000
 49
-1.000000
 49
2.500000
 49
-1.500000
  0
LTYPE
  2
PHANTOM3
 70
    64
  3
_____ _ _ _____ _ _ _____ _ _ _____ _ _ ____  
 72
    65
 73
     6
 40
78.000000
 49
64.000000
 49
-2.000000
 49
4.000000
 49
-2.000000
 49
4.000000
 49
-2.000000
  0
LTYPE
  2
CENTER1
 70
    64
  3
____ _ ____ _ ____ _ ____ _ ____ _ ____ _ ____
 72
    65
 73
     4
 40
19.000000
 49
14.000000
 49
-1.000000
 49
3.000000
 49
-1.000000
  0
LTYPE
  2
CENTER2
 70
    64
  3
____ _ ____ _ ____ _ ____ _ ____ _ ____ _ ____
 72
    65
 73
     4
 40
28.500000
 49
25.000000
 49
-1.000000
 49
1.500000
 49
-1.000000
  0
LTYPE
  2
CENTER3
 70
    64
  3
____ _ ____ _ ____ _ ____ _ ____ _ ____ _ ____
 72
    65
 73
     4
 40
31.500000
 49
27.000000
 49
-1.000000
 49
2.500000
 49
-1.000000
  0
LTYPE
  2
CENTER4
 70
    64
  3
____ _ ____ _ ____ _ ____ _ ____ _ ____ _ ____
 72
    65
 73
     4
 40
50.000000
 49
45.000000
 49
-1.000000
 49
3.000000
 49
-1.000000
  0
LTYPE
  2
CENTER5
 70
    64
  3
____ _ ____ _ ____ _ ____ _ ____ _ ____ _ ____
 72
    65
 73
     4
 40
100.000000
 49
92.000000
 49
-2.000000
 49
4.000000
 49
-2.000000
  0
LTYPE
  2
SBK1
 70
    64
  3
______ _ _ _ ______ _ _ _ ______ _ _ _ _____  
 72
    65
 73
     8
 40
60.500000
 49
45.000000
 49
-2.000000
 49
2.500000
 49
-2.000000
 49
2.500000
 49
-2.000000
 49
2.500000
 49
-2.000000
  0
LTYPE
  2
SBK2
 70
    64
  3
______ _ _ _ ______ _ _ _ ______ _ _ _ _____  
 72
    65
 73
     8
 40
84.000000
 49
64.000000
 49
-2.000000
 49
4.000000
 49
-2.000000
 49
4.000000
 49
-2.000000
 49
4.000000
 49
-2.000000
  0
LTYPE
  2
STCH
 70
    64
  3
__ __ __ __ __ __ __ __ __ __ __ __ __ __ __
 72
    65
 73
     2
 40
3.000000
 49
1.000000
 49
-2.000000
  0
LTYPE
  2
MTCH
 70
    64
  3
_____ _ _ _____ _ _ _____ _ _ _____ _ _ ____  
 72
    65
 73
     6
 40
80.000000
 49
66.000000
 49
-2.000000
 49
4.000000
 49
-2.000000
 49
4.000000
 49
-2.000000
  0
ENDTAB
  0
TABLE
  2
LAYER
 70
     1
  0
LAYER
  2
0
 70
     0
 62
     7
  6
CONTINUOUS
  0
ENDTAB
  0
TABLE
  2
STYLE
 70
     1
  0
STYLE
  2
STANDARD
 70
     0
 40
0.000000
 41
1.000000
 50
0.000000
 71
     0
 42
0.200000
  3
txt
  4
BIGFONT
  0
ENDTAB
  0
TABLE
  2
VIEW
 70
     0
  0
ENDTAB
  0
ENDSEC
  0
SECTION
  2
BLOCKS
  0
ENDSEC
  0
SECTION
  2
ENTITIES
  0
LINE
  8
0
 10
399.799988
 20
276.250000
 11
399.799988
 21
-276.750000
  0
LINE
  8
0
 10
-399.250000
 20
276.250000
 11
-399.250000
 21
-276.750000
  0
LINE
  8
0
 10
-399.250000
 20
276.250000
 11
399.799988
 21
276.250000
  0
LINE
  8
0
 10
-399.250000
 20
-276.750000
 11
399.799988
 21
-276.750000
  0
LINE
  8
0
 10
239.799988
 20
-251.750000
 11
399.799988
 21
-251.750000
  0
LINE
  8
0
 10
239.799988
 20
251.250000
 11
399.799988
 21
251.250000
  0
LINE
  8
0
 10
-399.250000
 20
251.250000
 11
-239.250000
 21
251.250000
  0
LINE
  8
0
 10
239.799988
 20
-251.750000
 11
239.799988
 21
-276.750000
  0
LINE
  8
0
 10
239.799988
 20
251.250000
 11
239.799988
 21
276.250000
  0
LINE
  8
0
 10
-239.250000
 20
276.250000
 11
-239.250000
 21
251.250000
  0
LINE
  8
0
  6
CENTER
 62
     2
 10
-72.797348
 20
153.000000
 11
53.354881
 21
153.000000
  0
LINE
  8
0
  6
CENTER
 62
     2
 10
-10.000000
 20
99.011749
 11
-10.000000
 21
207.648499
  0
LINE
  8
0
 10
-60.000000
 20
105.000031
 11
-60.000000
 21
201.000000
  0
LINE
  8
0
 10
40.000000
 20
105.000000
 11
40.000000
 21
201.000000
  0
LINE
  8
0
 10
-57.999992
 20
203.000000
 11
38.000000
 21
203.000000
  0
LINE
  8
0
 10
-59.999939
 20
200.999939
 11
-57.999931
 21
202.999939
  0
LINE
  8
0
 10
38.000088
 20
203.000061
 11
40.000084
 21
201.000061
  0
LINE
  8
0
 10
-68.000000
 20
111.000000
 11
-68.000000
 21
195.000000
  0
LINE
  8
0
 10
46.000000
 20
147.899994
 11
46.000000
 21
158.100006
  0
LINE
  8
0
 10
48.000000
 20
147.899994
 11
48.000000
 21
158.100006
  0
LINE
  8
0
 10
-68.000000
 20
195.000000
 11
-60.000000
 21
195.000000
  0
LINE
  8
0
 10
40.000000
 20
195.000000
 11
46.000000
 21
195.000000
  0
LINE
  8
0
 62
     2
 10
-11.999926
 20
168.154556
 11
-9.999931
 21
169.309250
  0
LINE
  8
0
 62
     2
 10
-9.999946
 20
164.690460
 11
-7.999945
 21
165.845169
  0
LINE
  8
0
 62
     2
 10
-10.000056
 20
169.309265
 11
-8.000055
 21
168.154572
  0
LINE
  8
0
 62
     2
 10
-11.999990
 20
165.845200
 11
-10.000001
 21
164.690506
  0
LINE
  8
0
 62
     2
 10
-8.000000
 20
165.845306
 11
-8.000000
 21
168.154694
  0
LINE
  8
0
 62
     2
 10
-12.000000
 20
165.845306
 11
-12.000000
 21
168.154694
  0
LINE
  8
0
 62
     2
 10
-28.999931
 20
164.690460
 11
-26.999931
 21
165.845169
  0
LINE
  8
0
 62
     2
 10
-31.000008
 20
165.845245
 11
-29.000017
 21
164.690552
  0
LINE
  8
0
 62
     2
 10
-31.000000
 20
165.845306
 11
-31.000000
 21
168.154694
  0
LINE
  8
0
 62
     2
 10
-30.999941
 20
168.154526
 11
-28.999939
 21
169.309235
  0
LINE
  8
0
 62
     2
 10
-29.000017
 20
169.309326
 11
-27.000029
 21
168.154648
  0
LINE
  8
0
 62
     2
 10
-27.000000
 20
165.845306
 11
-27.000000
 21
168.154694
  0
LINE
  8
0
  6
CENTER
 62
     2
 10
-52.500000
 20
147.609406
 11
-52.500000
 21
157.934753
  0
LINE
  8
0
  6
CENTER
 62
     2
 10
-56.502838
 20
195.500000
 11
-48.340858
 21
195.500000
  0
LINE
  8
0
 10
31.500000
 20
156.000000
 11
40.000000
 21
156.000000
  0
LINE
  8
0
  6
CENTER
 62
     2
 10
-52.500000
 20
191.092773
 11
-52.500000
 21
199.594849
  0
LINE
  8
0
  6
CENTER
 62
     2
 10
32.500000
 20
191.092773
 11
32.500000
 21
199.594849
  0
LINE
  8
0
  6
CENTER
 62
     2
 10
36.502838
 20
195.500000
 11
28.340858
 21
195.500000
  0
LINE
  8
0
 62
     2
 10
-55.068192
 20
178.500000
 11
-51.231537
 21
178.500000
  0
LINE
  8
0
 62
     2
 10
-53.000000
 20
176.384323
 11
-53.000000
 21
180.860428
  0
LINE
  8
0
 10
-60.000000
 20
184.500000
 11
-53.000000
 21
184.500000
  0
LINE
  8
0
 10
-60.000000
 20
172.500000
 11
-53.000000
 21
172.500000
  0
LINE
  8
0
 10
-57.844784
 20
179.736542
 11
-54.236462
 21
183.344864
  0
LINE
  8
0
 10
-51.763699
 20
173.655426
 11
-48.155384
 21
177.263748
  0
LINE
  8
0
 10
-51.763607
 20
183.344696
 11
-48.155285
 21
179.736374
  0
LINE
  8
0
 10
-57.844696
 20
177.263626
 11
-54.236374
 21
173.655304
  0
LINE
  8
0
 10
50.500000
 20
195.117126
 11
50.500000
 21
187.117126
  0
LINE
  8
0
 10
48.000000
 20
187.117126
 11
50.500000
 21
187.117126
  0
LINE
  8
0
 10
40.000000
 20
195.117126
 11
50.500000
 21
195.117126
  0
LINE
  8
0
 10
46.000000
 20
190.000000
 11
48.000000
 21
190.000000
  0
LINE
  8
0
 10
40.000000
 20
195.000000
 11
46.000000
 21
195.000000
  0
LINE
  8
0
 10
51.099976
 20
158.100006
 11
42.099976
 21
158.100006
  0
LINE
  8
0
 10
42.099976
 20
158.100006
 11
42.099976
 21
167.899994
  0
LINE
  8
0
 10
51.099976
 20
158.100006
 11
51.099976
 21
160.000000
  0
LINE
  8
0
 10
40.599976
 20
159.100006
 11
40.599976
 21
166.899994
  0
LINE
  8
0
 10
42.099976
 20
166.250000
 11
40.599976
 21
166.250000
  0
LINE
  8
0
 10
42.099976
 20
159.750000
 11
40.599976
 21
159.750000
  0
LINE
  8
0
 10
40.599976
 20
166.899994
 11
40.000000
 21
166.899994
  0
LINE
  8
0
 10
40.600006
 20
159.100006
 11
40.000000
 21
159.100006
  0
LINE
  8
0
 10
67.600006
 20
161.000015
 11
67.600006
 21
165.000015
  0
LINE
  8
0
 10
67.100006
 20
165.500000
 11
64.100006
 21
165.500000
  0
LINE
  8
0
 10
67.099991
 20
165.500107
 11
67.599998
 21
165.000107
  0
LINE
  8
0
 10
67.599976
 20
161.000000
 11
67.099983
 21
160.500015
  0
LINE
  8
0
 10
63.600006
 20
161.000000
 11
63.600006
 21
165.000000
  0
LINE
  8
0
 10
64.100090
 20
160.500153
 11
63.600094
 21
161.000153
  0
LINE
  8
0
 10
63.599941
 20
165.000046
 11
64.099930
 21
165.500046
  0
LINE
  8
0
 10
67.100006
 20
160.500015
 11
67.100006
 21
165.500015
  0
LINE
  8
0
 10
64.100006
 20
160.500000
 11
64.100006
 21
165.500000
  0
LINE
  8
0
 10
55.100006
 20
159.535889
 11
55.100006
 21
166.464111
  0
LINE
  8
0
 10
55.899994
 20
159.500000
 11
55.899994
 21
166.500000
  0
LINE
  8
0
 10
58.399994
 20
159.500000
 11
58.399994
 21
166.500000
  0
LINE
  8
0
 10
57.899994
 20
167.000000
 11
56.399994
 21
167.000000
  0
LINE
  8
0
 10
57.899994
 20
159.000000
 11
56.399994
 21
159.000000
  0
LINE
  8
0
 10
57.899895
 20
166.999908
 11
58.399891
 21
166.499924
  0
LINE
  8
0
 10
58.399994
 20
159.500031
 11
57.899982
 21
159.000015
  0
LINE
  8
0
 10
56.399899
 20
158.999969
 11
55.899895
 21
159.499985
  0
LINE
  8
0
 10
55.899982
 20
166.500031
 11
56.399990
 21
167.000046
  0
LINE
  8
0
 10
57.899994
 20
159.000000
 11
57.899994
 21
167.000000
  0
LINE
  8
0
 10
56.399994
 20
159.000000
 11
56.399994
 21
167.000000
  0
LINE
  8
0
 10
54.742737
 20
167.618805
 11
51.099976
 21
167.618805
  0
LINE
  8
0
 10
54.742737
 20
165.309387
 11
51.534698
 21
165.309387
  0
LINE
  8
0
 10
54.742737
 20
160.690582
 11
51.534683
 21
160.690582
  0
LINE
  8
0
 10
54.742737
 20
158.381195
 11
51.099976
 21
158.381195
  0
LINE
  8
0
 10
55.899994
 20
165.500000
 11
55.100006
 21
165.500000
  0
LINE
  8
0
 10
55.899994
 20
160.500000
 11
55.100006
 21
160.500000
  0
LINE
  8
0
 10
63.600006
 20
161.500000
 11
58.399994
 21
161.500000
  0
LINE
  8
0
 10
63.600006
 20
164.500000
 11
58.399994
 21
164.500000
  0
LINE
  8
0
 62
     2
 10
63.600006
 20
164.229492
 11
58.399994
 21
164.229492
  0
LINE
  8
0
 62
     2
 10
63.600006
 20
161.770508
 11
58.399994
 21
161.770508
  0
LINE
  8
0
 10
67.100006
 20
160.500000
 11
64.100006
 21
160.500000
  0
LINE
  8
0
 10
51.099976
 20
167.899994
 11
42.099976
 21
167.899994
  0
LINE
  8
0
 10
51.099976
 20
166.000000
 11
51.099976
 21
167.899994
  0
LINE
  8
0
 10
46.000000
 20
167.899994
 11
46.000000
 21
195.000000
  0
LINE
  8
0
 10
48.000000
 20
167.899994
 11
48.000000
 21
190.000000
  0
LINE
  8
0
 10
-10.000000
 20
175.000000
 11
-29.000000
 21
175.000000
  0
LINE
  8
0
 10
-2.000000
 20
167.000000
 11
-2.000000
 21
139.000000
  0
LINE
  8
0
 10
-37.000000
 20
167.000000
 11
-37.000000
 21
139.000000
  0
LINE
  8
0
 10
31.500000
 20
150.000000
 11
40.000000
 21
150.000000
  0
LINE
  8
0
  6
CENTER
 62
     2
 10
-72.797348
 20
153.000000
 11
53.354881
 21
153.000000
  0
LINE
  8
0
 10
-57.999992
 20
103.000000
 11
38.000000
 21
103.000000
  0
LINE
  8
0
 10
-59.999973
 20
104.999985
 11
-57.999969
 21
102.999992
  0
LINE
  8
0
 10
37.999996
 20
103.000008
 11
40.000004
 21
105.000023
  0
LINE
  8
0
 10
-68.000000
 20
111.000000
 11
-60.000000
 21
111.000000
  0
LINE
  8
0
 10
40.000000
 20
111.000000
 11
46.000000
 21
111.000000
  0
LINE
  8
0
 62
     2
 10
-11.999971
 20
137.845322
 11
-9.999970
 21
136.690628
  0
LINE
  8
0
 62
     2
 10
-10.000009
 20
141.309418
 11
-8.000008
 21
140.154724
  0
LINE
  8
0
 62
     2
 10
-10.000003
 20
136.690552
 11
-7.999996
 21
137.845261
  0
LINE
  8
0
 62
     2
 10
-11.999977
 20
140.154694
 11
-9.999989
 21
141.309387
  0
LINE
  8
0
 62
     2
 10
-8.000000
 20
140.154694
 11
-8.000000
 21
137.845306
  0
LINE
  8
0
 62
     2
 10
-12.000000
 20
140.154694
 11
-12.000000
 21
137.845306
  0
LINE
  8
0
 62
     2
 10
-28.999979
 20
141.309418
 11
-26.999990
 21
140.154724
  0
LINE
  8
0
 62
     2
 10
-30.999985
 20
140.154663
 11
-28.999992
 21
141.309357
  0
LINE
  8
0
 62
     2
 10
-31.000000
 20
140.154694
 11
-31.000000
 21
137.845306
  0
LINE
  8
0
 62
     2
 10
-30.999968
 20
137.845337
 11
-28.999981
 21
136.690643
  0
LINE
  8
0
 62
     2
 10
-28.999929
 20
136.690536
 11
-26.999939
 21
137.845230
  0
LINE
  8
0
 62
     2
 10
-27.000000
 20
140.154694
 11
-27.000000
 21
137.845306
  0
LINE
  8
0
  6
CENTER
 62
     2
 10
-56.502838
 20
110.500000
 11
-48.340858
 21
110.500000
  0
LINE
  8
0
  6
CENTER
 62
     2
 10
-52.500000
 20
114.907211
 11
-52.500000
 21
106.405151
  0
LINE
  8
0
  6
CENTER
 62
     2
 10
32.500000
 20
114.907211
 11
32.500000
 21
106.405151
  0
LINE
  8
0
  6
CENTER
 62
     2
 10
36.502838
 20
110.500000
 11
28.340858
 21
110.500000
  0
LINE
  8
0
 62
     2
 10
-55.068192
 20
127.500000
 11
-51.231537
 21
127.500000
  0
LINE
  8
0
 62
     2
 10
-53.000000
 20
129.615677
 11
-53.000000
 21
125.139572
  0
LINE
  8
0
 10
-60.000000
 20
121.500000
 11
-53.000000
 21
121.500000
  0
LINE
  8
0
 10
-60.000000
 20
133.500000
 11
-53.000000
 21
133.500000
  0
LINE
  8
0
 10
-57.844761
 20
126.263565
 11
-54.236435
 21
122.655243
  0
LINE
  8
0
 10
-51.763626
 20
132.344666
 11
-48.155319
 21
128.736359
  0
LINE
  8
0
 10
-51.763584
 20
122.655235
 11
-48.155258
 21
126.263565
  0
LINE
  8
0
 10
-57.844761
 20
128.736450
 11
-54.236431
 21
132.344772
  0
LINE
  8
0
 10
50.500000
 20
110.882874
 11
50.500000
 21
118.882874
  0
LINE
  8
0
 10
48.000000
 20
118.882874
 11
50.500000
 21
118.882874
  0
LINE
  8
0
 10
40.000000
 20
110.882874
 11
50.500000
 21
110.882874
  0
LINE
  8
0
 10
46.000000
 20
116.000000
 11
48.000000
 21
116.000000
  0
LINE
  8
0
 10
40.000000
 20
111.000000
 11
46.000000
 21
111.000000
  0
LINE
  8
0
 10
51.099976
 20
147.899994
 11
42.099976
 21
147.899994
  0
LINE
  8
0
 10
42.099976
 20
147.899994
 11
42.099976
 21
138.100006
  0
LINE
  8
0
 10
51.099976
 20
147.899994
 11
51.099976
 21
146.000000
  0
LINE
  8
0
 10
40.599976
 20
146.899994
 11
40.599976
 21
139.100006
  0
LINE
  8
0
 10
42.099976
 20
139.750000
 11
40.599976
 21
139.750000
  0
LINE
  8
0
 10
42.099976
 20
146.250000
 11
40.599976
 21
146.250000
  0
LINE
  8
0
 10
40.599976
 20
139.100006
 11
40.000000
 21
139.100006
  0
LINE
  8
0
 10
40.600006
 20
146.899994
 11
40.000000
 21
146.899994
  0
LINE
  8
0
 10
67.600006
 20
144.999985
 11
67.600006
 21
140.999985
  0
LINE
  8
0
 10
67.100006
 20
140.500000
 11
64.100006
 21
140.500000
  0
LINE
  8
0
 10
67.099899
 20
140.499969
 11
67.599915
 21
140.999969
  0
LINE
  8
0
 10
67.599960
 20
144.999954
 11
67.099960
 21
145.499954
  0
LINE
  8
0
 10
63.600006
 20
145.000000
 11
63.600006
 21
141.000000
  0
LINE
  8
0
 10
64.100037
 20
145.499924
 11
63.600040
 21
144.999924
  0
LINE
  8
0
 10
63.599937
 20
140.999939
 11
64.099937
 21
140.499939
  0
LINE
  8
0
 10
67.100006
 20
145.499985
 11
67.100006
 21
140.499985
  0
LINE
  8
0
 10
64.100006
 20
145.500000
 11
64.100006
 21
140.500000
  0
LINE
  8
0
 10
55.100006
 20
146.464111
 11
55.100006
 21
139.535889
  0
LINE
  8
0
 10
55.899994
 20
146.500000
 11
55.899994
 21
139.500000
  0
LINE
  8
0
 10
58.399994
 20
146.500000
 11
58.399994
 21
139.500000
  0
LINE
  8
0
 10
57.899994
 20
139.000000
 11
56.399994
 21
139.000000
  0
LINE
  8
0
 10
57.899994
 20
147.000000
 11
56.399994
 21
147.000000
  0
LINE
  8
0
 10
57.899918
 20
139.000061
 11
58.399918
 21
139.500046
  0
LINE
  8
0
 10
58.399967
 20
146.500000
 11
57.899967
 21
147.000000
  0
LINE
  8
0
 10
56.399929
 20
147.000015
 11
55.899925
 21
146.500000
  0
LINE
  8
0
 10
55.899933
 20
139.499924
 11
56.399933
 21
138.999924
  0
LINE
  8
0
 10
57.899994
 20
147.000000
 11
57.899994
 21
139.000000
  0
LINE
  8
0
 10
56.399994
 20
147.000000
 11
56.399994
 21
139.000000
  0
LINE
  8
0
 10
54.742737
 20
138.381195
 11
51.099976
 21
138.381195
  0
LINE
  8
0
 10
54.742737
 20
140.690613
 11
51.534698
 21
140.690613
  0
LINE
  8
0
 10
54.742737
 20
145.309418
 11
51.534683
 21
145.309418
  0
LINE
  8
0
 10
54.742737
 20
147.618805
 11
51.099976
 21
147.618805
  0
LINE
  8
0
 10
55.899994
 20
140.500000
 11
55.100006
 21
140.500000
  0
LINE
  8
0
 10
55.899994
 20
145.500000
 11
55.100006
 21
145.500000
  0
LINE
  8
0
 10
63.600006
 20
144.500000
 11
58.399994
 21
144.500000
  0
LINE
  8
0
 10
63.600006
 20
141.500000
 11
58.399994
 21
141.500000
  0
LINE
  8
0
 62
     2
 10
63.600006
 20
141.770508
 11
58.399994
 21
141.770508
  0
LINE
  8
0
 62
     2
 10
63.600006
 20
144.229492
 11
58.399994
 21
144.229492
  0
LINE
  8
0
 10
67.100006
 20
145.500000
 11
64.100006
 21
145.500000
  0
LINE
  8
0
 10
51.099976
 20
138.100006
 11
42.099976
 21
138.100006
  0
LINE
  8
0
 10
51.099976
 20
140.000000
 11
51.099976
 21
138.100006
  0
LINE
  8
0
 10
-10.000000
 20
131.000000
 11
-29.000000
 21
131.000000
  0
LINE
  8
0
 10
46.000000
 20
138.100006
 11
46.000000
 21
111.000000
  0
LINE
  8
0
 10
48.000000
 20
138.100006
 11
48.000000
 21
116.000000
  0
LINE
  8
0
 10
-226.500000
 20
118.499985
 11
-226.500000
 21
138.551804
  0
LINE
  8
0
 10
-226.500000
 20
167.448166
 11
-226.500000
 21
187.499969
  0
LINE
  8
0
  6
CENTER
 62
     2
 10
-266.000000
 20
107.810577
 11
-266.000000
 21
198.782196
  0
LINE
  8
0
  6
CENTER
 62
     2
 10
-200.900543
 20
153.000000
 11
-324.284851
 21
153.000000
  0
LINE
  8
0
 10
-206.000000
 20
102.999969
 11
-206.000000
 21
202.999969
  0
LINE
  8
0
 10
-214.000000
 20
102.999985
 11
-214.000000
 21
202.999969
  0
LINE
  8
0
 10
-206.000000
 20
103.000000
 11
-214.000000
 21
103.000000
  0
LINE
  8
0
 10
-206.000000
 20
203.000000
 11
-214.000000
 21
203.000000
  0
LINE
  8
0
 10
-267.500000
 20
162.199997
 11
-267.500000
 21
163.897247
  0
LINE
  8
0
 10
-264.500000
 20
162.199997
 11
-264.500000
 21
163.897247
  0
LINE
  8
0
 10
-264.500000
 20
162.200027
 11
-267.500000
 21
162.200027
  0
LINE
  8
0
 10
-256.799988
 20
151.500000
 11
-255.102753
 21
151.500000
  0
LINE
  8
0
 10
-256.799988
 20
151.499985
 11
-256.799988
 21
154.499985
  0
LINE
  8
0
 10
-256.799988
 20
154.500000
 11
-255.102753
 21
154.500000
  0
LINE
  8
0
 10
-267.500000
 20
143.800003
 11
-267.500000
 21
142.102753
  0
LINE
  8
0
 10
-267.500000
 20
143.800003
 11
-264.500000
 21
143.800003
  0
LINE
  8
0
 10
-264.500000
 20
143.800003
 11
-264.500000
 21
142.102753
  0
LINE
  8
0
 10
-275.200012
 20
154.500000
 11
-276.897247
 21
154.500000
  0
LINE
  8
0
 10
-275.200012
 20
154.500000
 11
-275.200012
 21
151.500000
  0
LINE
  8
0
 10
-275.200012
 20
151.500000
 11
-276.897247
 21
151.500000
  0
LINE
  8
0
 62
     2
 10
-257.134216
 20
165.356552
 11
-256.268188
 21
166.856537
  0
LINE
  8
0
 62
     2
 10
-259.732330
 20
166.856537
 11
-258.866302
 21
168.356552
  0
LINE
  8
0
 62
     2
 10
-256.267944
 20
166.856308
 11
-257.133972
 21
168.356323
  0
LINE
  8
0
 62
     2
 10
-258.866058
 20
165.356384
 11
-259.732056
 21
166.856354
  0
LINE
  8
0
 62
     2
 10
-257.133972
 20
168.356430
 11
-258.866028
 21
168.356430
  0
LINE
  8
0
 62
     2
 10
-257.133972
 20
165.356445
 11
-258.866028
 21
165.356445
  0
LINE
  8
0
 62
     2
 10
-250.866058
 20
151.499969
 11
-251.732086
 21
152.999985
  0
LINE
  8
0
 62
     2
 10
-251.731995
 20
152.999954
 11
-250.865952
 21
154.499985
  0
LINE
  8
0
 62
     2
 10
-250.866028
 20
154.500000
 11
-249.133972
 21
154.500000
  0
LINE
  8
0
 62
     2
 10
-248.268158
 20
152.999893
 11
-249.134186
 21
154.499893
  0
LINE
  8
0
 62
     2
 10
-249.133881
 20
151.499954
 11
-248.267838
 21
152.999985
  0
LINE
  8
0
 62
     2
 10
-250.866028
 20
151.500000
 11
-249.133972
 21
151.500000
  0
LINE
  8
0
 62
     2
 10
-259.731781
 20
139.143402
 11
-258.865753
 21
140.643402
  0
LINE
  8
0
 62
     2
 10
-258.866028
 20
140.643616
 11
-257.133972
 21
140.643616
  0
LINE
  8
0
 62
     2
 10
-257.134247
 20
140.643402
 11
-256.268219
 21
139.143402
  0
LINE
  8
0
 62
     2
 10
-257.133850
 20
137.643509
 11
-256.267822
 21
139.143509
  0
LINE
  8
0
 62
     2
 10
-258.866028
 20
137.643600
 11
-257.133972
 21
137.643600
  0
LINE
  8
0
 62
     2
 10
-259.732300
 20
139.143463
 11
-258.866272
 21
137.643463
  0
LINE
  8
0
 62
     2
 10
-274.866028
 20
140.643600
 11
-273.133972
 21
140.643600
  0
LINE
  8
0
 62
     2
 10
-273.133972
 20
140.643524
 11
-272.267944
 21
139.143509
  0
LINE
  8
0
 62
     2
 10
-272.268219
 20
139.143738
 11
-273.134247
 21
137.643738
  0
LINE
  8
0
 62
     2
 10
-274.866028
 20
137.643600
 11
-273.133972
 21
137.643600
  0
LINE
  8
0
 62
     2
 10
-275.732361
 20
139.143433
 11
-274.866333
 21
137.643433
  0
LINE
  8
0
 62
     2
 10
-274.865906
 20
140.643478
 11
-275.731934
 21
139.143463
  0
LINE
  8
0
 62
     2
 10
-281.133972
 20
154.499954
 11
-280.267944
 21
152.999985
  0
LINE
  8
0
 62
     2
 10
-280.267670
 20
152.999817
 11
-281.133667
 21
151.499832
  0
LINE
  8
0
 62
     2
 10
-281.133972
 20
151.500000
 11
-282.866028
 21
151.500000
  0
LINE
  8
0
 62
     2
 10
-283.732391
 20
152.999817
 11
-282.866364
 21
151.499817
  0
LINE
  8
0
 62
     2
 10
-282.865906
 20
154.499786
 11
-283.731903
 21
152.999786
  0
LINE
  8
0
 62
     2
 10
-281.133972
 20
154.500000
 11
-282.866028
 21
154.500000
  0
LINE
  8
0
 62
     2
 10
-272.268219
 20
166.856461
 11
-273.134247
 21
165.356461
  0
LINE
  8
0
 62
     2
 10
-273.133972
 20
165.356415
 11
-274.866028
 21
165.356415
  0
LINE
  8
0
 62
     2
 10
-274.866089
 20
165.356369
 11
-275.732117
 21
166.856415
  0
LINE
  8
0
 62
     2
 10
-274.865967
 20
168.356293
 11
-275.731995
 21
166.856293
  0
LINE
  8
0
 62
     2
 10
-273.133972
 20
168.356430
 11
-274.866028
 21
168.356430
  0
LINE
  8
0
 62
     2
 10
-272.268188
 20
166.856293
 11
-273.134216
 21
168.356293
  0
LINE
  8
0
 62
     2
 10
-245.577698
 20
152.999969
 11
-232.963837
 21
152.999969
  0
LINE
  8
0
 62
     2
 10
-285.056946
 20
153.000031
 11
-300.311798
 21
153.000031
  0
LINE
  8
0
 10
-224.035828
 20
171.571808
 11
-226.500000
 21
171.571808
  0
LINE
  8
0
 10
-224.035812
 20
171.571945
 11
-223.499908
 21
172.500153
  0
LINE
  8
0
 10
-223.500000
 20
172.499985
 11
-223.500000
 21
184.500000
  0
LINE
  8
0
 10
-224.035889
 20
175.035904
 11
-226.500000
 21
175.035904
  0
LINE
  8
0
 10
-224.035889
 20
181.964142
 11
-226.500000
 21
181.964142
  0
LINE
  8
0
 10
-224.035950
 20
185.428177
 11
-223.500031
 21
184.499939
  0
LINE
  8
0
 10
-224.035828
 20
185.428223
 11
-226.500000
 21
185.428223
  0
LINE
  8
0
 62
     2
 10
-316.731964
 20
129.000000
 11
-315.865936
 21
127.499992
  0
LINE
  8
0
 62
     2
 10
-315.866425
 20
130.500214
 11
-316.732452
 21
129.000229
  0
LINE
  8
0
 62
     2
 10
-315.866028
 20
130.500015
 11
-314.133972
 21
130.500015
  0
LINE
  8
0
 62
     2
 10
-314.134369
 20
130.499786
 11
-313.268341
 21
128.999786
  0
LINE
  8
0
 62
     2
 10
-313.267914
 20
128.999924
 11
-314.133972
 21
127.499901
  0
LINE
  8
0
 62
     2
 10
-315.866028
 20
127.500015
 11
-314.133972
 21
127.500015
  0
LINE
  8
0
 62
     2
 10
-316.732391
 20
152.999863
 11
-315.866333
 21
151.499863
  0
LINE
  8
0
 62
     2
 10
-315.866394
 20
154.500259
 11
-316.732422
 21
153.000244
  0
LINE
  8
0
 62
     2
 10
-315.866028
 20
151.500000
 11
-314.133972
 21
151.500000
  0
LINE
  8
0
 62
     2
 10
-313.268402
 20
153.000244
 11
-314.134430
 21
151.500229
  0
LINE
  8
0
 62
     2
 10
-314.134033
 20
154.499924
 11
-313.268005
 21
152.999924
  0
LINE
  8
0
 62
     2
 10
-315.866028
 20
154.500000
 11
-314.133972
 21
154.500000
  0
LINE
  8
0
 62
     2
 10
-315.866364
 20
175.499969
 11
-316.732391
 21
176.999939
  0
LINE
  8
0
 62
     2
 10
-315.866028
 20
178.500015
 11
-314.133972
 21
178.500015
  0
LINE
  8
0
 62
     2
 10
-313.268036
 20
177.000000
 11
-314.134064
 21
178.500000
  0
LINE
  8
0
 62
     2
 10
-314.134369
 20
175.500198
 11
-313.268372
 21
177.000183
  0
LINE
  8
0
 62
     2
 10
-315.866028
 20
175.500015
 11
-314.133972
 21
175.500015
  0
LINE
  8
0
 62
     2
 10
-316.732056
 20
176.999969
 11
-315.866028
 21
178.499969
  0
LINE
  8
0
 10
-206.000000
 20
121.500015
 11
-214.000000
 21
121.500015
  0
LINE
  8
0
 10
-206.000000
 20
133.500015
 11
-214.000000
 21
133.500015
  0
LINE
  8
0
 10
-206.000000
 20
184.500031
 11
-214.000000
 21
184.500031
  0
LINE
  8
0
 10
-206.000000
 20
172.500015
 11
-214.000000
 21
172.500015
  0
LINE
  8
0
 10
-219.141296
 20
177.500015
 11
-223.500000
 21
177.500015
  0
LINE
  8
0
 62
     2
 10
-219.141296
 20
174.300018
 11
-223.500000
 21
174.300018
  0
LINE
  8
0
 62
     2
 10
-219.141296
 20
182.700012
 11
-223.500000
 21
182.700012
  0
LINE
  8
0
 10
-219.141296
 20
173.499985
 11
-219.141296
 21
183.499969
  0
LINE
  8
0
 10
-217.141296
 20
174.249985
 11
-217.141296
 21
182.699982
  0
LINE
  8
0
 10
-217.141296
 20
174.250015
 11
-219.141296
 21
174.250015
  0
LINE
  8
0
 10
-219.141296
 20
173.500015
 11
-223.500000
 21
173.500015
  0
LINE
  8
0
 10
-219.141296
 20
183.500031
 11
-223.500000
 21
183.500031
  0
LINE
  8
0
 10
-217.141296
 20
182.750031
 11
-219.141296
 21
182.750031
  0
LINE
  8
0
 10
-219.141296
 20
179.500015
 11
-223.500000
 21
179.500015
  0
LINE
  8
0
 10
-226.500000
 20
118.500000
 11
-242.046936
 21
118.500000
  0
LINE
  8
0
 10
-226.500000
 20
187.500000
 11
-242.046936
 21
187.500000
  0
LINE
  8
0
 10
-286.553589
 20
153.800049
 11
-298.446442
 21
153.800049
  0
LINE
  8
0
 10
-286.553558
 20
152.200043
 11
-298.446411
 21
152.200043
  0
LINE
  8
0
 10
-293.349487
 20
125.650307
 11
-298.999908
 21
119.999886
  0
LINE
  8
0
 10
-293.349609
 20
180.349594
 11
-298.999969
 21
185.999969
  0
LINE
  8
0
 10
-217.141388
 20
178.358810
 11
-214.000092
 21
181.500107
  0
LINE
  8
0
 10
-217.141327
 20
127.641304
 11
-214.000046
 21
124.500023
  0
LINE
  8
0
 10
-321.000000
 20
203.000000
 11
-313.000000
 21
203.000000
  0
LINE
  8
0
 10
-313.000000
 20
186.000000
 11
-313.000000
 21
203.000000
  0
LINE
  8
0
 10
-320.500000
 20
186.000000
 11
-293.658630
 21
186.000000
  0
LINE
  8
0
 10
-321.000000
 20
103.000000
 11
-321.000000
 21
203.000000
  0
LINE
  8
0
 10
-320.500000
 20
120.000000
 11
-320.500000
 21
186.000000
  0
LINE
  8
0
 10
-320.500000
 20
120.000000
 11
-293.658630
 21
120.000000
  0
LINE
  8
0
 10
-321.000000
 20
103.000000
 11
-313.000000
 21
103.000000
  0
LINE
  8
0
 10
-313.000000
 20
103.000000
 11
-313.000000
 21
120.000000
  0
LINE
  8
0
 10
-224.035828
 20
120.571808
 11
-226.500000
 21
120.571808
  0
LINE
  8
0
 10
-224.035767
 20
120.571823
 11
-223.499878
 21
121.500023
  0
LINE
  8
0
 10
-223.500000
 20
121.499985
 11
-223.500000
 21
133.500000
  0
LINE
  8
0
 10
-224.035889
 20
124.035904
 11
-226.500000
 21
124.035904
  0
LINE
  8
0
 10
-224.035889
 20
130.964127
 11
-226.500000
 21
130.964127
  0
LINE
  8
0
 10
-224.036102
 20
134.428101
 11
-223.500198
 21
133.499893
  0
LINE
  8
0
 10
-224.035828
 20
134.428223
 11
-226.500000
 21
134.428223
  0
LINE
  8
0
 10
-219.141296
 20
128.500015
 11
-223.500000
 21
128.500015
  0
LINE
  8
0
 62
     2
 10
-219.141296
 20
131.700012
 11
-223.500000
 21
131.700012
  0
LINE
  8
0
 62
     2
 10
-219.141296
 20
123.300018
 11
-223.500000
 21
123.300018
  0
LINE
  8
0
 10
-219.141296
 20
132.499985
 11
-219.141296
 21
122.499985
  0
LINE
  8
0
 10
-217.141296
 20
131.749985
 11
-217.141296
 21
123.299988
  0
LINE
  8
0
 10
-217.141296
 20
131.750015
 11
-219.141296
 21
131.750015
  0
LINE
  8
0
 10
-219.141296
 20
132.500015
 11
-223.500000
 21
132.500015
  0
LINE
  8
0
 10
-219.141296
 20
122.500015
 11
-223.500000
 21
122.500015
  0
LINE
  8
0
 10
-217.141296
 20
123.250015
 11
-219.141296
 21
123.250015
  0
LINE
  8
0
 10
-219.141296
 20
126.500015
 11
-223.500000
 21
126.500015
  0
LINE
  8
0
 62
     2
 10
-278.225830
 20
174.175415
 11
-279.904785
 21
177.083435
  0
LINE
  8
0
 62
     2
 10
-287.175568
 20
165.225693
 11
-290.083557
 21
166.904617
  0
LINE
  8
0
 62
     2
 10
-287.175476
 20
140.774277
 11
-290.083466
 21
139.095352
  0
LINE
  8
0
 62
     2
 10
-278.225433
 20
131.824341
 11
-279.904358
 21
128.916336
  0
LINE
  8
0
 62
     2
 10
-253.774292
 20
131.824493
 11
-252.095352
 21
128.916489
  0
LINE
  8
0
 62
     2
 10
-244.824539
 20
140.774323
 11
-241.916550
 21
139.095398
  0
LINE
  8
0
 62
     2
 10
-244.824478
 20
165.225616
 11
-241.916504
 21
166.904541
  0
LINE
  8
0
 62
     2
 10
-253.774078
 20
174.175308
 11
-252.095139
 21
177.083313
  0
LINE
  8
0
 62
     2
 10
285.268066
 20
176.999985
 11
286.134094
 21
178.500000
  0
LINE
  8
0
 62
     2
 10
287.866028
 20
178.499985
 11
286.133972
 21
178.499985
  0
LINE
  8
0
 62
     2
 10
286.134613
 20
175.500381
 11
285.268585
 21
177.000397
  0
LINE
  8
0
 62
     2
 10
287.866028
 20
175.499985
 11
286.133972
 21
175.499985
  0
LINE
  8
0
 62
     2
 10
287.866150
 20
175.499985
 11
288.732178
 21
176.999985
  0
LINE
  8
0
 62
     2
 10
288.732635
 20
177.000397
 11
287.866608
 21
178.500366
  0
LINE
  8
0
 62
     2
 10
287.866028
 20
154.500000
 11
286.133972
 21
154.500000
  0
LINE
  8
0
 62
     2
 10
287.866028
 20
151.500000
 11
286.133972
 21
151.500000
  0
LINE
  8
0
 62
     2
 10
285.268433
 20
153.000290
 11
286.134460
 21
151.500275
  0
LINE
  8
0
 62
     2
 10
287.866608
 20
154.500351
 11
288.732635
 21
153.000336
  0
LINE
  8
0
 62
     2
 10
286.133911
 20
154.500046
 11
285.267883
 21
153.000031
  0
LINE
  8
0
 62
     2
 10
288.732178
 20
152.999969
 11
287.866150
 21
151.499954
  0
LINE
  8
0
 62
     2
 10
285.268036
 20
129.000046
 11
286.134064
 21
127.500008
  0
LINE
  8
0
 62
     2
 10
287.866028
 20
127.500000
 11
286.133972
 21
127.500000
  0
LINE
  8
0
 62
     2
 10
286.134094
 20
130.499954
 11
285.268066
 21
128.999939
  0
LINE
  8
0
 62
     2
 10
287.866028
 20
130.500000
 11
286.133972
 21
130.500000
  0
LINE
  8
0
 62
     2
 10
287.866028
 20
130.499969
 11
288.732056
 21
128.999985
  0
LINE
  8
0
 62
     2
 10
288.731903
 20
129.000000
 11
287.865906
 21
127.500031
  0
LINE
  8
0
 10
293.000000
 20
102.999985
 11
293.000000
 21
203.000000
  0
LINE
  8
0
 10
285.000000
 20
102.999985
 11
285.000000
 21
119.999985
  0
LINE
  8
0
 10
293.000000
 20
203.000000
 11
285.000000
 21
203.000000
  0
LINE
  8
0
 10
293.000000
 20
103.000000
 11
285.000000
 21
103.000000
  0
LINE
  8
0
 10
285.000000
 20
186.000000
 11
285.000000
 21
203.000000
  0
LINE
  8
0
 10
265.349609
 20
180.349609
 11
271.000031
 21
186.000031
  0
LINE
  8
0
 10
292.500000
 20
186.000000
 11
292.500000
 21
119.999985
  0
LINE
  8
0
 10
292.500000
 20
120.000000
 11
265.658630
 21
120.000000
  0
LINE
  8
0
 10
265.349487
 20
125.650299
 11
270.999878
 21
119.999901
  0
LINE
  8
0
  6
CENTER
 62
     2
 10
238.000000
 20
106.709976
 11
238.000000
 21
200.789978
  0
LINE
  8
0
  6
CENTER
 62
     2
 10
299.875000
 20
153.000000
 11
174.620697
 21
153.000000
  0
LINE
  8
0
 10
292.500000
 20
186.000000
 11
265.658630
 21
186.000000
  0
LINE
  8
0
 10
247.199997
 20
151.500000
 11
248.897247
 21
151.500000
  0
LINE
  8
0
 10
247.200012
 20
154.499985
 11
247.200012
 21
151.499985
  0
LINE
  8
0
 10
236.500000
 20
162.199997
 11
239.500000
 21
162.199997
  0
LINE
  8
0
 10
239.500000
 20
162.199982
 11
239.500000
 21
163.897232
  0
LINE
  8
0
 10
236.500000
 20
162.199982
 11
236.500000
 21
163.897232
  0
LINE
  8
0
 10
228.799988
 20
151.500000
 11
228.799988
 21
154.500000
  0
LINE
  8
0
 10
228.800003
 20
154.500000
 11
227.102753
 21
154.500000
  0
LINE
  8
0
 10
228.800003
 20
151.500000
 11
227.102753
 21
151.500000
  0
LINE
  8
0
 10
236.500000
 20
143.799988
 11
236.500000
 21
142.102737
  0
LINE
  8
0
 10
239.500000
 20
143.799988
 11
236.500000
 21
143.799988
  0
LINE
  8
0
 10
239.500000
 20
143.799988
 11
239.500000
 21
142.102737
  0
LINE
  8
0
 10
247.199997
 20
154.500000
 11
248.897247
 21
154.500000
  0
LINE
  8
0
 10
186.000000
 20
103.000000
 11
178.000000
 21
103.000000
  0
LINE
  8
0
 10
178.000000
 20
103.000000
 11
178.000000
 21
138.100006
  0
LINE
  8
0
 10
186.000000
 20
203.000000
 11
178.000000
 21
203.000000
  0
LINE
  8
0
 10
198.500000
 20
187.500000
 11
198.500000
 21
173.500000
  0
LINE
  8
0
 10
198.500000
 20
132.500000
 11
198.500000
 21
118.500000
  0
LINE
  8
0
 10
214.046921
 20
118.500000
 11
198.500000
 21
118.500000
  0
LINE
  8
0
 10
214.046921
 20
187.500000
 11
198.500000
 21
187.500000
  0
LINE
  8
0
 62
     2
 10
196.758118
 20
129.601379
 11
195.626709
 21
129.601379
  0
LINE
  8
0
 10
186.000000
 20
103.000000
 11
186.000000
 21
124.500000
  0
LINE
  8
0
 10
198.525681
 20
176.752548
 11
195.697235
 21
173.924088
  0
LINE
  8
0
 10
194.990189
 20
174.630951
 11
195.697296
 21
173.923859
  0
LINE
  8
0
 10
196.757965
 20
176.398987
 11
193.929520
 21
173.570541
  0
LINE
  8
0
 62
     2
 10
193.930206
 20
173.570435
 11
193.930206
 21
174.701782
  0
LINE
  8
0
 62
     2
 10
195.626801
 20
176.398743
 11
193.929733
 21
174.701675
  0
LINE
  8
0
 62
     2
 10
193.929581
 20
174.701782
 11
192.232529
 21
176.398834
  0
LINE
  8
0
 62
     2
 10
193.929855
 20
178.095779
 11
192.232788
 21
176.398743
  0
LINE
  8
0
 62
     2
 10
192.232544
 20
176.399353
 11
191.101166
 21
176.399353
  0
LINE
  8
0
 10
193.929504
 20
179.227448
 11
191.101059
 21
176.399002
  0
LINE
  8
0
 10
188.414185
 20
180.499954
 11
191.808289
 21
177.105850
  0
LINE
  8
0
 10
188.414261
 20
180.499878
 11
187.707153
 21
179.792786
  0
LINE
  8
0
 10
190.889145
 20
184.389038
 11
187.000046
 21
180.499954
  0
LINE
  8
0
 10
198.525726
 20
176.752228
 11
190.888977
 21
184.388992
  0
LINE
  8
0
 10
196.757980
 20
176.398682
 11
193.929535
 21
179.227127
  0
LINE
  8
0
 62
     2
 10
196.758118
 20
176.398590
 11
195.626709
 21
176.398590
  0
LINE
  8
0
 62
     2
 10
195.626663
 20
176.398758
 11
193.929611
 21
178.095810
  0
LINE
  8
0
 62
     2
 10
193.929047
 20
178.095886
 11
193.929047
 21
179.227234
  0
LINE
  8
0
 10
186.000000
 20
203.000000
 11
186.000000
 21
181.500000
  0
LINE
  8
0
 10
201.420227
 20
173.499985
 11
194.000000
 21
173.499985
  0
LINE
  8
0
 10
185.999908
 20
181.499878
 11
193.999893
 21
173.499893
  0
LINE
  8
0
 10
194.000000
 20
132.500000
 11
194.000000
 21
173.500000
  0
LINE
  8
0
 10
201.420227
 20
132.500000
 11
194.000000
 21
132.500000
  0
LINE
  8
0
 62
     2
 10
193.929047
 20
127.904083
 11
193.929047
 21
126.772736
  0
LINE
  8
0
 62
     2
 10
195.626633
 20
129.601196
 11
193.929581
 21
127.904137
  0
LINE
  8
0
 10
186.000046
 20
124.499962
 11
194.000061
 21
132.499969
  0
LINE
  8
0
 10
198.525635
 20
129.247452
 11
195.697205
 21
132.075912
  0
LINE
  8
0
 10
194.990295
 20
131.368927
 11
195.697403
 21
132.076035
  0
LINE
  8
0
 10
196.757919
 20
129.600983
 11
193.929474
 21
132.429428
  0
LINE
  8
0
 62
     2
 10
193.930206
 20
132.429535
 11
193.930206
 21
131.298187
  0
LINE
  8
0
 62
     2
 10
195.626724
 20
129.601105
 11
193.929657
 21
131.298172
  0
LINE
  8
0
 62
     2
 10
193.929626
 20
131.298187
 11
192.232574
 21
129.601135
  0
LINE
  8
0
 62
     2
 10
193.929916
 20
127.904335
 11
192.232864
 21
129.601379
  0
LINE
  8
0
 62
     2
 10
192.232544
 20
129.600616
 11
191.101166
 21
129.600616
  0
LINE
  8
0
 10
193.929489
 20
126.772560
 11
191.101044
 21
129.601013
  0
LINE
  8
0
 10
188.414154
 20
125.499977
 11
191.808258
 21
128.894089
  0
LINE
  8
0
 10
188.414169
 20
125.499939
 11
187.707047
 21
126.207054
  0
LINE
  8
0
 10
190.888992
 20
121.610825
 11
186.999908
 21
125.499916
  0
LINE
  8
0
 10
198.525848
 20
129.247620
 11
190.889069
 21
121.610855
  0
LINE
  8
0
 10
196.758041
 20
129.601212
 11
193.929596
 21
126.772758
  0
LINE
  8
0
 10
187.309448
 20
158.999924
 11
189.618866
 21
162.999954
  0
LINE
  8
0
 10
180.381210
 20
162.999969
 11
182.690598
 21
166.999939
  0
LINE
  8
0
 10
187.309387
 20
166.999985
 11
182.690582
 21
166.999985
  0
LINE
  8
0
 10
187.309418
 20
158.999985
 11
182.690613
 21
158.999985
  0
LINE
  8
0
 10
189.619003
 20
163.000092
 11
187.309601
 21
167.000092
  0
LINE
  8
0
 10
182.690842
 20
159.000107
 11
180.381439
 21
163.000092
  0
LINE
  8
0
 10
185.000000
 20
167.899979
 11
169.500000
 21
167.899979
  0
LINE
  8
0
 10
165.000000
 20
167.999985
 11
165.000000
 21
157.999985
  0
LINE
  8
0
 10
166.600006
 20
167.999985
 11
166.600006
 21
157.999985
  0
LINE
  8
0
 10
181.471558
 20
166.399979
 11
179.000000
 21
166.399979
  0
LINE
  8
0
 10
177.500000
 20
167.899994
 11
177.500000
 21
158.100006
  0
LINE
  8
0
 10
179.000000
 20
166.399994
 11
179.000000
 21
159.600006
  0
LINE
  8
0
 10
169.500000
 20
167.899979
 11
169.500000
 21
158.099991
  0
LINE
  8
0
 10
167.899994
 20
167.749985
 11
167.899994
 21
158.249985
  0
LINE
  8
0
 10
166.600006
 20
167.999985
 11
165.000000
 21
167.999985
  0
LINE
  8
0
 10
169.500000
 20
167.749985
 11
167.899994
 21
167.749985
  0
LINE
  8
0
 10
166.600006
 20
157.999985
 11
165.000000
 21
157.999985
  0
LINE
  8
0
 10
169.500000
 20
158.249985
 11
167.899994
 21
158.249985
  0
LINE
  8
0
 10
185.000000
 20
158.099991
 11
169.500000
 21
158.099991
  0
LINE
  8
0
 10
181.471558
 20
159.599991
 11
179.000000
 21
159.599991
  0
LINE
  8
0
 10
167.899994
 20
166.249985
 11
166.600006
 21
166.249985
  0
LINE
  8
0
 10
167.899994
 20
159.749985
 11
166.600006
 21
159.749985
  0
LINE
  8
0
 10
177.500107
 20
167.900070
 11
179.000107
 21
166.400070
  0
LINE
  8
0
 10
177.499847
 20
158.100174
 11
178.999832
 21
159.600159
  0
LINE
  8
0
 10
171.500000
 20
167.899979
 11
171.500000
 21
158.099991
  0
LINE
  8
0
 10
187.309448
 20
138.999969
 11
189.618866
 21
143.000000
  0
LINE
  8
0
 10
180.381210
 20
142.999939
 11
182.690598
 21
146.999908
  0
LINE
  8
0
 10
187.309387
 20
147.000000
 11
182.690582
 21
147.000000
  0
LINE
  8
0
 10
187.309418
 20
139.000000
 11
182.690613
 21
139.000000
  0
LINE
  8
0
 10
189.618973
 20
143.000107
 11
187.309570
 21
147.000107
  0
LINE
  8
0
 10
182.690811
 20
139.000061
 11
180.381409
 21
143.000076
  0
LINE
  8
0
 10
181.471558
 20
146.399994
 11
179.000000
 21
146.399994
  0
LINE
  8
0
 10
177.500000
 20
147.899994
 11
177.500000
 21
138.100006
  0
LINE
  8
0
 10
179.000000
 20
146.399994
 11
179.000000
 21
139.600006
  0
LINE
  8
0
 10
181.471558
 20
139.600006
 11
179.000000
 21
139.600006
  0
LINE
  8
0
 10
177.500122
 20
147.900085
 11
179.000122
 21
146.400085
  0
LINE
  8
0
 10
177.499832
 20
138.100174
 11
178.999832
 21
139.600159
  0
LINE
  8
0
 10
178.000000
 20
167.899994
 11
178.000000
 21
203.000000
  0
LINE
  8
0
 10
178.000000
 20
147.899994
 11
178.000000
 21
158.100006
  0
LINE
  8
0
 10
185.000000
 20
147.899994
 11
169.500000
 21
147.899994
  0
LINE
  8
0
 10
165.000000
 20
147.999985
 11
165.000000
 21
137.999985
  0
LINE
  8
0
 10
166.600006
 20
147.999985
 11
166.600006
 21
137.999985
  0
LINE
  8
0
 10
169.500000
 20
147.899979
 11
169.500000
 21
138.099991
  0
LINE
  8
0
 10
167.899994
 20
147.749985
 11
167.899994
 21
138.249985
  0
LINE
  8
0
 10
166.600006
 20
148.000000
 11
165.000000
 21
148.000000
  0
LINE
  8
0
 10
169.500000
 20
147.750000
 11
167.899994
 21
147.750000
  0
LINE
  8
0
 10
166.600006
 20
138.000000
 11
165.000000
 21
138.000000
  0
LINE
  8
0
 10
169.500000
 20
138.250000
 11
167.899994
 21
138.250000
  0
LINE
  8
0
 10
185.000000
 20
138.100006
 11
169.500000
 21
138.100006
  0
LINE
  8
0
 10
167.899994
 20
146.250000
 11
166.600006
 21
146.250000
  0
LINE
  8
0
 10
167.899994
 20
139.750000
 11
166.600006
 21
139.750000
  0
LINE
  8
0
 10
171.500000
 20
147.899979
 11
171.500000
 21
138.099991
  0
LINE
  8
0
 10
-46.500000
 20
7.499992
 11
-58.500000
 21
7.499992
  0
LINE
  8
0
 10
-53.500000
 20
11.858704
 11
-53.500000
 21
7.499992
  0
LINE
  8
0
 62
     2
 10
-56.699997
 20
11.858704
 11
-56.699997
 21
7.499992
  0
LINE
  8
0
 62
     2
 10
-48.300003
 20
11.858704
 11
-48.300003
 21
7.499992
  0
LINE
  8
0
 10
-57.500000
 20
11.858704
 11
-47.500000
 21
11.858704
  0
LINE
  8
0
 10
-56.750000
 20
13.858704
 11
-48.300003
 21
13.858704
  0
LINE
  8
0
 10
-56.750000
 20
13.858704
 11
-56.750000
 21
11.858704
  0
LINE
  8
0
 10
-57.500000
 20
11.858704
 11
-57.500000
 21
7.499992
  0
LINE
  8
0
 10
-47.500000
 20
11.858704
 11
-47.500000
 21
7.499992
  0
LINE
  8
0
 10
-48.250000
 20
13.858704
 11
-48.250000
 21
11.858704
  0
LINE
  8
0
 10
-51.500000
 20
11.858704
 11
-51.500000
 21
7.499992
  0
LINE
  8
0
 10
39.000000
 20
-66.500000
 11
39.000000
 21
-57.117119
  0
LINE
  8
0
 10
-60.000000
 20
-90.000000
 11
40.000000
 21
-90.000000
  0
LINE
  8
0
 10
40.000000
 20
-90.000000
 11
40.000000
 21
-57.117119
  0
LINE
  8
0
 10
48.000000
 20
-89.500000
 11
48.000000
 21
-57.117119
  0
LINE
  8
0
 10
40.000000
 20
-89.500000
 11
48.000000
 21
-89.500000
  0
LINE
  8
0
 10
31.000000
 20
-69.500000
 11
31.000000
 21
3.000000
  0
LINE
  8
0
 10
-60.000000
 20
-90.000000
 11
-60.000000
 21
7.000000
  0
LINE
  8
0
  6
CENTER
 62
     2
 10
-10.000000
 20
-93.778358
 11
-10.000000
 21
28.807716
  0
LINE
  8
0
 10
-60.000000
 20
-89.500000
 11
-68.000000
 21
-89.500000
  0
LINE
  8
0
 10
-68.000000
 20
-89.500000
 11
-68.000000
 21
7.000000
  0
LINE
  8
0
 10
-39.000000
 20
-69.500000
 11
-39.000000
 21
4.500000
  0
LINE
  8
0
 10
-59.000000
 20
-69.500000
 11
-59.000000
 21
4.500000
  0
LINE
  8
0
 10
-59.000000
 20
-54.000000
 11
-60.000000
 21
-54.000000
  0
LINE
  8
0
 10
-60.000000
 20
-57.500000
 11
-59.000000
 21
-57.500000
  0
LINE
  8
0
 10
-60.000000
 20
-65.500000
 11
-59.000000
 21
-65.500000
  0
LINE
  8
0
  6
CENTER
 62
     2
 10
-73.176498
 20
-35.000000
 11
52.620216
 21
-35.000000
  0
LINE
  8
0
 10
-60.000000
 20
25.000000
 11
40.000000
 21
25.000000
  0
LINE
  8
0
 10
-60.000000
 20
17.000000
 11
40.000000
 21
17.000000
  0
LINE
  8
0
 10
40.000000
 20
11.545219
 11
40.000000
 21
25.000000
  0
LINE
  8
0
 10
-60.000000
 20
17.000000
 11
-60.000000
 21
25.000000
  0
LINE
  8
0
 10
48.400002
 20
-42.500000
 11
48.400002
 21
-27.500000
  0
LINE
  8
0
 10
-39.000000
 20
2.000000
 11
9.000000
 21
2.000000
  0
LINE
  8
0
 10
9.000000
 20
3.000000
 11
9.000000
 21
-69.500000
  0
LINE
  8
0
 10
-60.000000
 20
-80.000000
 11
40.000000
 21
-80.000000
  0
LINE
  8
0
 10
-68.399994
 20
-42.500000
 11
-68.399994
 21
-27.500000
  0
LINE
  8
0
 10
-59.000000
 20
-16.000000
 11
-60.000000
 21
-16.000000
  0
LINE
  8
0
 10
-70.500000
 20
-67.500000
 11
-70.500000
 21
-55.500000
  0
LINE
  8
0
 10
-70.500000
 20
-67.500000
 11
-68.000000
 21
-67.500000
  0
LINE
  8
0
 10
-70.500000
 20
-55.500000
 11
-68.000000
 21
-55.500000
  0
LINE
  8
0
 10
39.000000
 20
-16.000000
 11
40.000000
 21
-16.000000
  0
LINE
  8
0
 10
-59.000000
 20
-33.000000
 11
-59.000000
 21
-28.000000
  0
LINE
  8
0
 10
31.000000
 20
-66.500000
 11
39.000000
 21
-66.500000
  0
LINE
  8
0
 10
31.000000
 20
-3.500000
 11
39.000000
 21
-3.500000
  0
LINE
  8
0
 10
46.000000
 20
-68.000000
 11
46.000000
 21
-57.117119
  0
LINE
  8
0
 10
46.000000
 20
2.000000
 11
48.000000
 21
2.000000
  0
LINE
  8
0
 10
34.000000
 20
-57.117119
 11
34.000000
 21
-49.117119
  0
LINE
  8
0
 10
9.000000
 20
3.000000
 11
31.000000
 21
3.000000
  0
LINE
  8
0
 10
42.500000
 20
7.000000
 11
46.000000
 21
7.000000
  0
LINE
  8
0
 10
-68.000000
 20
7.000000
 11
-60.000000
 21
7.000000
  0
LINE
  8
0
 10
-59.000000
 20
4.500000
 11
-39.000000
 21
4.500000
  0
LINE
  8
0
 10
-38.500000
 20
17.000000
 11
-38.500000
 21
2.000000
  0
LINE
  8
0
 10
8.500000
 20
2.000000
 11
8.500000
 21
6.716766
  0
LINE
  8
0
 10
39.000000
 20
-49.117119
 11
39.000000
 21
-3.500000
  0
LINE
  8
0
 10
40.000000
 20
-50.117119
 11
40.000000
 21
5.888435
  0
LINE
  8
0
 10
48.000000
 20
-49.117119
 11
48.000000
 21
2.000000
  0
LINE
  8
0
 10
46.000000
 20
-68.000000
 11
48.000000
 21
-68.000000
  0
LINE
  8
0
 10
46.000000
 20
-50.117119
 11
46.000000
 21
7.000000
  0
LINE
  8
0
 10
34.000000
 20
-57.117119
 11
50.500000
 21
-57.117119
  0
LINE
  8
0
 10
50.500000
 20
-57.117119
 11
50.500000
 21
-49.117119
  0
LINE
  8
0
 10
34.000000
 20
-49.117119
 11
40.000000
 21
-49.117119
  0
LINE
  8
0
 10
40.000000
 20
-50.117119
 11
46.000000
 21
-50.117119
  0
LINE
  8
0
 10
46.000000
 20
-49.117119
 11
50.500000
 21
-49.117119
  0
LINE
  8
0
 10
-38.500000
 20
9.000000
 11
-0.641136
 21
9.000000
  0
LINE
  8
0
 62
     2
 10
28.000000
 20
8.308365
 11
28.000000
 21
10.434875
  0
LINE
  8
0
 10
31.500000
 20
4.120636
 11
31.500000
 21
15.646454
  0
LINE
  8
0
 10
24.500000
 20
4.120636
 11
24.500000
 21
15.646454
  0
LINE
  8
0
 10
24.500000
 20
15.646454
 11
31.500000
 21
15.646454
  0
LINE
  8
0
 62
     2
 10
26.498703
 20
9.353561
 11
29.536575
 21
9.353561
  0
LINE
  8
0
 10
24.500000
 20
4.120636
 11
31.500000
 21
4.120636
  0
LINE
  8
0
 10
17.500000
 20
11.545219
 11
24.500000
 21
11.545219
  0
LINE
  8
0
 10
17.500000
 20
8.716766
 11
24.500000
 21
8.716766
  0
LINE
  8
0
 10
17.500000
 20
5.888435
 11
24.500000
 21
5.888435
  0
LINE
  8
0
 10
42.500000
 20
5.888435
 11
42.500000
 21
11.545219
  0
LINE
  8
0
 10
17.500000
 20
5.888435
 11
17.500000
 21
11.545219
  0
LINE
  8
0
 10
-0.010270
 20
10.716766
 11
17.500000
 21
10.716766
  0
LINE
  8
0
 10
-0.715578
 20
6.716766
 11
17.500000
 21
6.716766
  0
LINE
  8
0
 10
31.500000
 20
11.545219
 11
42.500000
 21
11.545219
  0
LINE
  8
0
 10
31.500000
 20
8.716766
 11
42.500000
 21
8.716766
  0
LINE
  8
0
 10
31.500000
 20
5.888435
 11
42.500000
 21
5.888435
  0
LINE
  8
0
 62
     2
 10
40.959999
 20
5.888435
 11
40.959999
 21
11.545219
  0
LINE
  8
0
 10
50.500000
 20
24.000000
 11
47.799988
 21
24.000000
  0
LINE
  8
0
 10
46.399994
 20
24.000000
 11
43.699982
 21
24.000000
  0
LINE
  8
0
 10
52.000000
 20
25.500000
 11
52.000000
 21
33.500000
  0
LINE
  8
0
 10
52.099976
 20
38.000000
 11
42.099976
 21
38.000000
  0
LINE
  8
0
 10
52.100006
 20
36.399994
 11
42.099976
 21
36.399994
  0
LINE
  8
0
 10
52.000000
 20
25.500000
 11
42.199982
 21
25.500000
  0
LINE
  8
0
 10
52.000000
 20
33.500000
 11
42.199982
 21
33.500000
  0
LINE
  8
0
 10
51.850006
 20
35.100006
 11
42.349976
 21
35.100006
  0
LINE
  8
0
 10
52.100006
 20
36.399994
 11
52.100006
 21
38.000000
  0
LINE
  8
0
 10
51.850006
 20
33.500000
 11
51.850006
 21
35.100006
  0
LINE
  8
0
 10
42.099976
 20
36.399994
 11
42.099976
 21
38.000000
  0
LINE
  8
0
 10
42.349976
 20
33.500000
 11
42.349976
 21
35.100006
  0
LINE
  8
0
 10
42.199982
 20
25.500000
 11
42.199982
 21
33.500000
  0
LINE
  8
0
 10
50.349976
 20
35.100006
 11
50.349976
 21
36.399994
  0
LINE
  8
0
 10
43.849976
 20
35.100006
 11
43.849976
 21
36.399994
  0
LINE
  8
0
 10
42.199963
 20
25.500010
 11
43.699951
 21
24.000015
  0
LINE
  8
0
 10
52.000000
 20
31.500000
 11
42.199982
 21
31.500000
  0
LINE
  8
0
 10
51.099976
 20
22.899994
 11
50.500000
 21
22.899994
  0
LINE
  8
0
 10
51.099976
 20
13.100006
 11
42.099976
 21
13.100006
  0
LINE
  8
0
 10
42.099976
 20
13.100006
 11
42.099976
 21
22.899994
  0
LINE
  8
0
 10
51.099976
 20
13.100006
 11
51.099976
 21
22.899994
  0
LINE
  8
0
 10
50.499985
 20
22.899988
 11
47.799984
 21
21.599987
  0
LINE
  8
0
 10
43.700035
 20
22.900095
 11
46.400043
 21
21.600094
  0
LINE
  8
0
 10
43.699982
 20
22.899994
 11
42.099976
 21
22.899994
  0
LINE
  8
0
 10
50.500000
 20
22.899994
 11
50.500000
 21
24.000000
  0
LINE
  8
0
 10
43.699982
 20
22.899994
 11
43.699982
 21
24.000000
  0
LINE
  8
0
 10
40.599976
 20
14.100006
 11
40.599976
 21
21.899994
  0
LINE
  8
0
 10
42.099976
 20
21.250000
 11
40.599976
 21
21.250000
  0
LINE
  8
0
 10
42.099976
 20
14.750000
 11
40.599976
 21
14.750000
  0
LINE
  8
0
 10
40.599976
 20
21.899994
 11
40.000000
 21
21.899994
  0
LINE
  8
0
 10
40.600006
 20
14.100006
 11
40.000000
 21
14.100006
  0
LINE
  8
0
 10
67.600006
 20
16.000015
 11
67.600006
 21
20.000015
  0
LINE
  8
0
 10
67.100006
 20
20.500000
 11
64.100006
 21
20.500000
  0
LINE
  8
0
 10
67.099998
 20
20.500076
 11
67.599991
 21
20.000078
  0
LINE
  8
0
 10
67.599976
 20
16.000032
 11
67.099976
 21
15.500032
  0
LINE
  8
0
 10
63.600006
 20
16.000000
 11
63.600006
 21
20.000000
  0
LINE
  8
0
 10
64.100105
 20
15.500135
 11
63.600082
 21
16.000134
  0
LINE
  8
0
 10
63.599937
 20
20.000051
 11
64.099953
 21
20.500055
  0
LINE
  8
0
 10
67.100006
 20
15.500015
 11
67.100006
 21
20.500015
  0
LINE
  8
0
 10
64.100006
 20
15.500000
 11
64.100006
 21
20.500000
  0
LINE
  8
0
 10
55.100006
 20
14.535889
 11
55.100006
 21
21.464111
  0
LINE
  8
0
 10
55.899994
 20
14.500000
 11
55.899994
 21
21.500000
  0
LINE
  8
0
 10
58.399994
 20
14.500000
 11
58.399994
 21
21.500000
  0
LINE
  8
0
 10
57.899994
 20
22.000000
 11
56.399994
 21
22.000000
  0
LINE
  8
0
 10
57.899994
 20
14.000000
 11
56.399994
 21
14.000000
  0
LINE
  8
0
 10
57.899971
 20
21.999979
 11
58.399960
 21
21.500000
  0
LINE
  8
0
 10
58.399982
 20
14.500032
 11
57.899982
 21
14.000030
  0
LINE
  8
0
 10
56.399918
 20
13.999995
 11
55.899899
 21
14.500010
  0
LINE
  8
0
 10
55.899967
 20
21.500051
 11
56.399967
 21
22.000055
  0
LINE
  8
0
 10
57.899994
 20
14.000000
 11
57.899994
 21
22.000000
  0
LINE
  8
0
 10
56.399994
 20
14.000000
 11
56.399994
 21
22.000000
  0
LINE
  8
0
 10
54.742737
 20
22.618805
 11
51.099976
 21
22.618805
  0
LINE
  8
0
 10
54.742737
 20
20.309387
 11
51.099976
 21
20.309387
  0
LINE
  8
0
 10
54.742737
 20
15.690582
 11
51.099976
 21
15.690582
  0
LINE
  8
0
 10
54.742737
 20
13.381195
 11
51.099976
 21
13.381195
  0
LINE
  8
0
 10
55.899994
 20
20.500000
 11
55.100006
 21
20.500000
  0
LINE
  8
0
 10
55.899994
 20
15.500000
 11
55.100006
 21
15.500000
  0
LINE
  8
0
 10
63.600006
 20
16.500000
 11
58.399994
 21
16.500000
  0
LINE
  8
0
 10
63.600006
 20
19.500000
 11
58.399994
 21
19.500000
  0
LINE
  8
0
 62
     2
 10
63.600006
 20
19.229492
 11
58.399994
 21
19.229492
  0
LINE
  8
0
 62
     2
 10
63.600006
 20
16.770508
 11
58.399994
 21
16.770508
  0
LINE
  8
0
 10
47.799988
 20
18.000000
 11
47.799988
 21
25.500000
  0
LINE
  8
0
 10
46.399994
 20
18.000000
 11
46.399994
 21
25.500000
  0
LINE
  8
0
 10
52.000076
 20
25.499945
 11
50.500076
 21
23.999943
  0
LINE
  8
0
 10
67.100006
 20
15.500000
 11
64.100006
 21
15.500000
  0
LINE
  8
0
 10
24.500000
 20
11.757393
 11
31.500000
 21
11.757393
  0
LINE
  8
0
 10
-59.000000
 20
-9.300003
 11
31.000000
 21
-9.300003
  0
LINE
  8
0
 10
-59.000000
 20
-60.699997
 11
31.000000
 21
-60.699997
  0
LINE
  8
0
 10
-59.000000
 20
-69.500000
 11
31.000000
 21
-69.500000
  0
LINE
  8
0
 10
-46.500000
 20
7.499992
 11
-46.500000
 21
4.500000
  0
LINE
  8
0
 10
-52.500000
 20
6.964096
 11
-52.500000
 21
4.500000
  0
LINE
  8
0
 10
-58.500000
 20
7.499992
 11
-58.500000
 21
4.500000
  0
LINE
  8
0
 62
     2
 10
-19.500000
 20
3.112137
 11
-19.500000
 21
9.000000
  0
LINE
  8
0
 62
     2
 10
-22.395996
 20
6.000000
 11
-16.577248
 21
6.000000
  0
LINE
  8
0
  6
PHANTOM
 62
     2
 10
-1.144737
 20
4.282887
 11
0.549241
 21
13.889914
  0
LINE
  8
0
 10
50.500000
 20
-229.117126
 11
50.500000
 21
-221.117126
  0
LINE
  8
0
 10
46.000000
 20
-221.117126
 11
50.500000
 21
-221.117126
  0
LINE
  8
0
 10
40.000000
 20
-229.117126
 11
50.500000
 21
-229.117126
  0
LINE
  8
0
  6
CENTER
 62
     2
 10
-76.156693
 20
-187.000000
 11
57.242233
 21
-187.000000
  0
LINE
  8
0
 10
-60.000000
 20
-138.999939
 11
-60.000000
 21
-235.000000
  0
LINE
  8
0
 10
40.000000
 20
-139.000122
 11
40.000000
 21
-235.000000
  0
LINE
  8
0
 10
-57.999992
 20
-237.000000
 11
38.000000
 21
-237.000000
  0
LINE
  8
0
 10
-60.000156
 20
-235.000168
 11
-58.000149
 21
-237.000168
  0
LINE
  8
0
 10
37.999878
 20
-236.999832
 11
39.999882
 21
-234.999832
  0
LINE
  8
0
 10
-68.000000
 20
-145.000000
 11
-68.000000
 21
-229.000000
  0
LINE
  8
0
 10
46.000000
 20
-220.000000
 11
46.000000
 21
-224.000000
  0
LINE
  8
0
 10
48.000000
 20
-152.882874
 11
48.000000
 21
-221.117126
  0
LINE
  8
0
 10
-68.000000
 20
-229.000000
 11
-60.000000
 21
-229.000000
  0
LINE
  8
0
 10
40.000000
 20
-224.000000
 11
46.000000
 21
-224.000000
  0
LINE
  8
0
  6
PHANTOM
 62
     2
 10
-13.668251
 20
-219.500000
 11
-6.448341
 21
-219.500000
  0
LINE
  8
0
  6
PHANTOM
 62
     2
 10
-47.806641
 20
-219.500000
 11
-36.971977
 21
-219.500000
  0
LINE
  8
0
  6
PHANTOM
 62
     2
 10
-42.500000
 20
-213.855209
 11
-42.500000
 21
-224.822006
  0
LINE
  8
0
  6
PHANTOM
 62
     2
 10
-13.473122
 20
-229.500000
 11
-5.862946
 21
-229.500000
  0
LINE
  8
0
 62
     2
 10
-52.500000
 20
-183.942322
 11
-52.500000
 21
-190.242310
  0
LINE
  8
0
 62
     2
 10
-42.500000
 20
-183.698044
 11
-42.500000
 21
-190.242310
  0
LINE
  8
0
 62
     2
 10
32.500015
 20
-190.220306
 11
32.500015
 21
-183.942322
  0
LINE
  8
0
 62
     2
 10
22.500015
 20
-190.220306
 11
22.500015
 21
-183.698044
  0
LINE
  8
0
  6
PHANTOM
 62
     2
 10
-58.905579
 20
-229.500000
 11
-46.617477
 21
-229.500000
  0
LINE
  8
0
  6
PHANTOM
 62
     2
 10
-52.500000
 20
-223.104309
 11
-52.500000
 21
-235.788803
  0
LINE
  8
0
 10
40.000000
 20
-220.000000
 11
48.000000
 21
-220.000000
  0
LINE
  8
0
 10
50.099976
 20
-192.100006
 11
48.000000
 21
-192.100006
  0
LINE
  8
0
 10
50.099976
 20
-192.100006
 11
50.099976
 21
-201.899994
  0
LINE
  8
0
 10
66.600006
 20
-195.000015
 11
66.600006
 21
-199.000015
  0
LINE
  8
0
 10
66.100006
 20
-199.500000
 11
63.100006
 21
-199.500000
  0
LINE
  8
0
 10
66.099861
 20
-199.499908
 11
66.599838
 21
-198.999939
  0
LINE
  8
0
 10
66.600021
 20
-195.000000
 11
66.100006
 21
-194.500000
  0
LINE
  8
0
 10
62.600006
 20
-195.000000
 11
62.600006
 21
-199.000000
  0
LINE
  8
0
 10
63.100094
 20
-194.500168
 11
62.600098
 21
-195.000168
  0
LINE
  8
0
 10
62.599987
 20
-199.000046
 11
63.099998
 21
-199.500046
  0
LINE
  8
0
 10
66.100006
 20
-194.500015
 11
66.100006
 21
-199.500015
  0
LINE
  8
0
 10
63.100006
 20
-194.500000
 11
63.100006
 21
-199.500000
  0
LINE
  8
0
 10
54.100006
 20
-193.535889
 11
54.100006
 21
-200.464111
  0
LINE
  8
0
 10
54.899994
 20
-193.500000
 11
54.899994
 21
-200.500000
  0
LINE
  8
0
 10
57.399994
 20
-193.500000
 11
57.399994
 21
-200.500000
  0
LINE
  8
0
 10
56.899994
 20
-201.000000
 11
55.399994
 21
-201.000000
  0
LINE
  8
0
 10
56.899994
 20
-193.000000
 11
55.399994
 21
-193.000000
  0
LINE
  8
0
 10
56.899849
 20
-200.999863
 11
57.399857
 21
-200.499878
  0
LINE
  8
0
 10
57.399998
 20
-193.500031
 11
56.899986
 21
-193.000015
  0
LINE
  8
0
 10
55.399891
 20
-192.999924
 11
54.899860
 21
-193.499939
  0
LINE
  8
0
 10
54.900028
 20
-200.500000
 11
55.400040
 21
-201.000015
  0
LINE
  8
0
 10
56.899994
 20
-193.000000
 11
56.899994
 21
-201.000000
  0
LINE
  8
0
 10
55.399994
 20
-193.000000
 11
55.399994
 21
-201.000000
  0
LINE
  8
0
 10
53.742737
 20
-201.618805
 11
50.099976
 21
-201.618805
  0
LINE
  8
0
 10
53.742737
 20
-199.309387
 11
50.099976
 21
-199.309387
  0
LINE
  8
0
 10
53.742737
 20
-194.690582
 11
50.099976
 21
-194.690582
  0
LINE
  8
0
 10
53.742737
 20
-192.381195
 11
50.099976
 21
-192.381195
  0
LINE
  8
0
 10
54.899994
 20
-199.500000
 11
54.100006
 21
-199.500000
  0
LINE
  8
0
 10
54.899994
 20
-194.500000
 11
54.100006
 21
-194.500000
  0
LINE
  8
0
 10
62.600006
 20
-195.500000
 11
57.399994
 21
-195.500000
  0
LINE
  8
0
 10
62.600006
 20
-198.500000
 11
57.399994
 21
-198.500000
  0
LINE
  8
0
 62
     2
 10
62.600006
 20
-198.229492
 11
57.399994
 21
-198.229492
  0
LINE
  8
0
 62
     2
 10
62.600006
 20
-195.770508
 11
57.399994
 21
-195.770508
  0
LINE
  8
0
 10
66.100006
 20
-194.500000
 11
63.100006
 21
-194.500000
  0
LINE
  8
0
 10
50.099976
 20
-201.899994
 11
48.000000
 21
-201.899994
  0
LINE
  8
0
 10
17.000000
 20
-164.000000
 11
17.000000
 21
-210.000000
  0
LINE
  8
0
 10
-37.000000
 20
-164.000000
 11
-37.000000
 21
-210.000000
  0
LINE
  8
0
 10
-33.000000
 20
-214.000000
 11
13.000000
 21
-214.000000
  0
LINE
  8
0
  6
PHANTOM
 62
     2
 10
-10.000000
 20
-134.371246
 11
-10.000000
 21
-240.328339
  0
LINE
  8
0
  6
PHANTOM
 62
     2
 10
27.806644
 20
-219.500000
 11
16.971977
 21
-219.500000
  0
LINE
  8
0
  6
PHANTOM
 62
     2
 10
22.500000
 20
-213.855209
 11
22.500000
 21
-224.822006
  0
LINE
  8
0
  6
PHANTOM
 62
     2
 10
38.905575
 20
-229.500000
 11
26.617474
 21
-229.500000
  0
LINE
  8
0
  6
PHANTOM
 62
     2
 10
32.500000
 20
-223.104309
 11
32.500000
 21
-235.788803
  0
LINE
  8
0
 10
50.500000
 20
-144.882874
 11
50.500000
 21
-152.882874
  0
LINE
  8
0
 10
46.000000
 20
-152.882874
 11
50.500000
 21
-152.882874
  0
LINE
  8
0
 10
40.000000
 20
-144.882874
 11
50.500000
 21
-144.882874
  0
LINE
  8
0
 10
-57.999992
 20
-137.000000
 11
38.000000
 21
-137.000000
  0
LINE
  8
0
 10
-60.000042
 20
-138.999985
 11
-58.000031
 21
-136.999985
  0
LINE
  8
0
 10
37.999950
 20
-137.000061
 11
39.999950
 21
-139.000061
  0
LINE
  8
0
 10
46.000000
 20
-154.000000
 11
46.000000
 21
-150.000000
  0
LINE
  8
0
 10
-68.000000
 20
-145.000000
 11
-60.000000
 21
-145.000000
  0
LINE
  8
0
 10
40.000000
 20
-150.000000
 11
46.000000
 21
-150.000000
  0
LINE
  8
0
  6
PHANTOM
 62
     2
 10
-47.806641
 20
-154.500000
 11
-36.971977
 21
-154.500000
  0
LINE
  8
0
  6
PHANTOM
 62
     2
 10
-42.500000
 20
-160.144791
 11
-42.500000
 21
-149.177994
  0
LINE
  8
0
  6
PHANTOM
 62
     2
 10
-52.500000
 20
-190.057678
 11
-52.500000
 21
-183.757690
  0
LINE
  8
0
  6
PHANTOM
 62
     2
 10
-42.500000
 20
-190.301956
 11
-42.500000
 21
-183.757690
  0
LINE
  8
0
  6
PHANTOM
 62
     2
 10
32.500015
 20
-183.779694
 11
32.500015
 21
-190.057678
  0
LINE
  8
0
  6
PHANTOM
 62
     2
 10
22.500015
 20
-183.779694
 11
22.500015
 21
-190.301956
  0
LINE
  8
0
  6
PHANTOM
 62
     2
 10
-58.905579
 20
-144.500000
 11
-46.617477
 21
-144.500000
  0
LINE
  8
0
  6
PHANTOM
 62
     2
 10
-52.500000
 20
-150.895691
 11
-52.500000
 21
-138.211197
  0
LINE
  8
0
 10
40.000000
 20
-154.000000
 11
48.000000
 21
-154.000000
  0
LINE
  8
0
 10
50.099976
 20
-181.899994
 11
48.000000
 21
-181.899994
  0
LINE
  8
0
 10
50.099976
 20
-181.899994
 11
50.099976
 21
-172.100006
  0
LINE
  8
0
 10
66.600006
 20
-178.999985
 11
66.600006
 21
-174.999985
  0
LINE
  8
0
 10
66.100006
 20
-174.500000
 11
63.100006
 21
-174.500000
  0
LINE
  8
0
 10
66.099968
 20
-174.500015
 11
66.599953
 21
-175.000015
  0
LINE
  8
0
 10
66.599945
 20
-178.999985
 11
66.099930
 21
-179.499985
  0
LINE
  8
0
 10
62.600006
 20
-179.000000
 11
62.600006
 21
-175.000000
  0
LINE
  8
0
 10
63.100002
 20
-179.499924
 11
62.600018
 21
-178.999924
  0
LINE
  8
0
 10
62.599888
 20
-174.999924
 11
63.099899
 21
-174.499908
  0
LINE
  8
0
 10
66.100006
 20
-179.499985
 11
66.100006
 21
-174.499985
  0
LINE
  8
0
 10
63.100006
 20
-179.500000
 11
63.100006
 21
-174.500000
  0
LINE
  8
0
 10
54.100006
 20
-180.464111
 11
54.100006
 21
-173.535889
  0
LINE
  8
0
 10
54.899994
 20
-180.500000
 11
54.899994
 21
-173.500000
  0
LINE
  8
0
 10
57.399994
 20
-180.500000
 11
57.399994
 21
-173.500000
  0
LINE
  8
0
 10
56.899994
 20
-173.000000
 11
55.399994
 21
-173.000000
  0
LINE
  8
0
 10
56.899994
 20
-181.000000
 11
55.399994
 21
-181.000000
  0
LINE
  8
0
 10
56.899918
 20
-173.000076
 11
57.399937
 21
-173.500076
  0
LINE
  8
0
 10
57.399940
 20
-180.499954
 11
56.899929
 21
-180.999954
  0
LINE
  8
0
 10
55.399986
 20
-181.000015
 11
54.899967
 21
-180.500015
  0
LINE
  8
0
 10
54.899925
 20
-173.499969
 11
55.399937
 21
-172.999954
  0
LINE
  8
0
 10
56.899994
 20
-181.000000
 11
56.899994
 21
-173.000000
  0
LINE
  8
0
 10
55.399994
 20
-181.000000
 11
55.399994
 21
-173.000000
  0
LINE
  8
0
 10
53.742737
 20
-172.381195
 11
50.099976
 21
-172.381195
  0
LINE
  8
0
 10
53.742737
 20
-174.690613
 11
50.099976
 21
-174.690613
  0
LINE
  8
0
 10
53.742737
 20
-179.309418
 11
50.099976
 21
-179.309418
  0
LINE
  8
0
 10
53.742737
 20
-181.618805
 11
50.099976
 21
-181.618805
  0
LINE
  8
0
 10
54.899994
 20
-174.500000
 11
54.100006
 21
-174.500000
  0
LINE
  8
0
 10
54.899994
 20
-179.500000
 11
54.100006
 21
-179.500000
  0
LINE
  8
0
 10
62.600006
 20
-178.500000
 11
57.399994
 21
-178.500000
  0
LINE
  8
0
 10
62.600006
 20
-175.500000
 11
57.399994
 21
-175.500000
  0
LINE
  8
0
 62
     2
 10
62.600006
 20
-175.770508
 11
57.399994
 21
-175.770508
  0
LINE
  8
0
 62
     2
 10
62.600006
 20
-178.229492
 11
57.399994
 21
-178.229492
  0
LINE
  8
0
 10
66.100006
 20
-179.500000
 11
63.100006
 21
-179.500000
  0
LINE
  8
0
 10
50.099976
 20
-172.100006
 11
48.000000
 21
-172.100006
  0
LINE
  8
0
 10
-33.000000
 20
-160.000000
 11
13.000000
 21
-160.000000
  0
LINE
  8
0
  6
PHANTOM
 62
     2
 10
27.806644
 20
-154.500000
 11
16.971977
 21
-154.500000
  0
LINE
  8
0
  6
PHANTOM
 62
     2
 10
22.500000
 20
-160.144791
 11
22.500000
 21
-149.177994
  0
LINE
  8
0
  6
PHANTOM
 62
     2
 10
38.905575
 20
-144.500000
 11
26.617474
 21
-144.500000
  0
LINE
  8
0
  6
PHANTOM
 62
     2
 10
32.500000
 20
-150.895691
 11
32.500000
 21
-138.211197
  0
LINE
  8
0
  6
PHANTOM
 62
     2
 10
-13.668251
 20
-154.500000
 11
-6.448341
 21
-154.500000
  0
LINE
  8
0
  6
PHANTOM
 62
     2
 10
-13.473122
 20
-144.500000
 11
-5.862946
 21
-144.500000
  0
CIRCLE
  8
0
 10
-52.500000
 20
110.500000
 40
1.600000
  0
ARC
  8
0
 10
-10.000000
 20
167.000000
 40
8.000000
 50
0.000000
 51
90.000031
  0
ARC
  8
0
 10
-29.000000
 20
167.000000
 40
8.000000
 50
90.000038
 51
180.000000
  0
CIRCLE
  8
0
 10
-10.000000
 20
153.000000
 40
35.000000
  0
CIRCLE
  8
0
 62
     2
 10
-52.500000
 20
195.500000
 40
2.500000
  0
CIRCLE
  8
0
 10
-52.500000
 20
195.500000
 40
1.600000
  0
CIRCLE
  8
0
 10
-52.500000
 20
153.000000
 40
3.000000
  0
ARC
  8
0
 10
31.500000
 20
153.000000
 40
3.000000
 50
90.000000
 51
270.000000
  0
CIRCLE
  8
0
 62
     2
 10
32.500000
 20
195.500000
 40
2.500000
  0
CIRCLE
  8
0
 10
32.500000
 20
195.500000
 40
1.600000
  0
ARC
  8
0
 10
-53.000000
 20
178.500000
 40
6.000000
 50
270.000000
 51
90.000000
  0
CIRCLE
  8
0
 10
-53.000000
 20
178.500000
 40
5.000000
  0
CIRCLE
  8
0
 62
     2
 10
-53.000000
 20
178.500000
 40
4.300000
  0
ARC
  8
0
 10
53.055328
 20
159.535889
 40
2.044652
 50
325.615875
 51
34.384491
  0
ARC
  8
0
 10
53.055328
 20
166.464111
 40
2.044660
 50
325.615509
 51
34.384140
  0
ARC
  8
0
 10
47.457275
 20
163.000000
 40
7.642724
 50
342.412018
 51
17.587980
  0
CIRCLE
  8
0
 10
47.099976
 20
163.000000
 40
2.000000
  0
CIRCLE
  8
0
 10
47.099976
 20
163.000000
 40
5.000000
  0
CIRCLE
  8
0
 10
-10.000000
 20
167.000000
 40
5.000000
  0
CIRCLE
  8
0
 10
-29.000000
 20
167.000000
 40
5.000000
  0
CIRCLE
  8
0
 10
-29.000000
 20
167.000000
 40
6.000000
  0
CIRCLE
  8
0
 10
-10.000000
 20
167.000000
 40
6.000000
  0
CIRCLE
  8
0
 10
-10.000000
 20
139.000000
 40
6.000000
  0
CIRCLE
  8
0
 62
     2
 10
32.500000
 20
110.500000
 40
2.500000
  0
CIRCLE
  8
0
 62
     2
 10
-53.000000
 20
127.500000
 40
4.300000
  0
CIRCLE
  8
0
 10
-10.000000
 20
139.000000
 40
5.000000
  0
CIRCLE
  8
0
 10
47.099976
 20
143.000000
 40
2.000000
  0
ARC
  8
0
 10
47.457275
 20
143.000000
 40
7.642724
 50
342.412018
 51
17.587990
  0
CIRCLE
  8
0
 10
-29.000000
 20
139.000000
 40
6.000000
  0
CIRCLE
  8
0
 10
47.099976
 20
143.000000
 40
5.000000
  0
ARC
  8
0
 10
53.055328
 20
139.535889
 40
2.044660
 50
325.615509
 51
34.384140
  0
ARC
  8
0
 10
53.055328
 20
146.464111
 40
2.044657
 50
325.615448
 51
34.384140
  0
CIRCLE
  8
0
 10
-53.000000
 20
127.500000
 40
5.000000
  0
ARC
  8
0
 10
-53.000000
 20
127.500000
 40
6.000000
 50
269.999969
 51
89.999924
  0
CIRCLE
  8
0
 10
-29.000000
 20
139.000000
 40
5.000000
  0
ARC
  8
0
 10
-10.000000
 20
139.000000
 40
8.000000
 50
269.999908
 51
359.999878
  0
ARC
  8
0
 10
-29.000000
 20
139.000000
 40
8.000000
 50
179.999893
 51
269.999878
  0
CIRCLE
  8
0
 10
32.500000
 20
110.500000
 40
1.600000
  0
CIRCLE
  8
0
 62
     2
 10
-52.500000
 20
110.500000
 40
2.500000
  0
ARC
  8
0
 10
-266.000000
 20
153.000000
 40
11.000000
 50
97.837479
 51
172.162598
  0
CIRCLE
  8
0
 10
-266.000000
 20
153.000000
 40
6.000000
  0
CIRCLE
  8
0
 62
     2
 10
-266.000000
 20
153.000000
 40
5.200000
  0
ARC
  8
0
 10
-266.000000
 20
153.000000
 40
11.000000
 50
7.837480
 51
82.162521
  0
ARC
  8
0
 10
-266.000000
 20
153.000000
 40
11.000000
 50
277.837494
 51
352.162598
  0
ARC
  8
0
 10
-266.000000
 20
153.000000
 40
11.000002
 50
187.837555
 51
262.162689
  0
CIRCLE
  8
0
 10
-258.000000
 20
166.856400
 40
3.500000
  0
CIRCLE
  8
0
 10
-250.000000
 20
153.000000
 40
3.500000
  0
CIRCLE
  8
0
 10
-258.000000
 20
139.143600
 40
3.500000
  0
CIRCLE
  8
0
 10
-274.000000
 20
139.143616
 40
3.500000
  0
CIRCLE
  8
0
 10
-282.000000
 20
153.000000
 40
3.500000
  0
CIRCLE
  8
0
 10
-274.000000
 20
166.856400
 40
3.500000
  0
ARC
  8
0
 10
-266.000000
 20
153.000000
 40
13.000002
 50
7.166724
 51
52.833214
  0
ARC
  8
0
 62
     2
 10
-266.000000
 20
153.000000
 40
26.499996
 50
85.576714
 51
94.036369
  0
ARC
  8
0
 10
-226.566986
 20
173.303833
 40
3.066972
 50
325.615448
 51
34.384319
  0
ARC
  8
0
 10
-234.964111
 20
178.500000
 40
11.464138
 50
342.412048
 51
17.587971
  0
ARC
  8
0
 10
-226.566956
 20
183.696136
 40
3.066976
 50
325.615845
 51
34.384556
  0
CIRCLE
  8
0
 10
-315.000000
 20
129.000015
 40
5.000000
  0
CIRCLE
  8
0
 10
-315.000000
 20
153.000015
 40
5.000000
  0
CIRCLE
  8
0
 10
-315.000000
 20
177.000015
 40
5.000000
  0
ARC
  8
0
 10
-266.000000
 20
153.000000
 40
42.000004
 50
233.950745
 51
126.049377
  0
ARC
  8
0
 10
-293.658630
 20
115.000000
 40
5.000006
 50
53.950645
 51
90.000000
  0
ARC
  8
0
 10
-293.658630
 20
191.000000
 40
5.000000
 50
270.000000
 51
306.049347
  0
CIRCLE
  8
0
 62
     2
 10
-243.050323
 20
166.250000
 40
5.000000
  0
CIRCLE
  8
0
 10
-243.050323
 20
166.250000
 40
4.200000
  0
CIRCLE
  8
0
 62
     2
 10
-239.500000
 20
153.000000
 40
5.000000
  0
CIRCLE
  8
0
 10
-239.500000
 20
153.000000
 40
4.200000
  0
CIRCLE
  8
0
 62
     2
 10
-243.050323
 20
139.749985
 40
5.000000
  0
CIRCLE
  8
0
 10
-243.050323
 20
139.749985
 40
4.200000
  0
CIRCLE
  8
0
 62
     2
 10
-252.750000
 20
130.050323
 40
5.000000
  0
CIRCLE
  8
0
 10
-252.750000
 20
130.050323
 40
4.200000
  0
CIRCLE
  8
0
 62
     2
 10
-266.000000
 20
126.500000
 40
5.000000
  0
CIRCLE
  8
0
 10
-266.000000
 20
126.500000
 40
4.200000
  0
CIRCLE
  8
0
 62
     2
 10
-279.250000
 20
130.050323
 40
5.000000
  0
CIRCLE
  8
0
 10
-279.250000
 20
130.050323
 40
4.200000
  0
CIRCLE
  8
0
 62
     2
 10
-288.949677
 20
166.250000
 40
5.000000
  0
CIRCLE
  8
0
 10
-288.949677
 20
166.250000
 40
4.200000
  0
CIRCLE
  8
0
 62
     2
 10
-279.250000
 20
175.949677
 40
5.000000
  0
CIRCLE
  8
0
 10
-279.250000
 20
175.949677
 40
4.200000
  0
CIRCLE
  8
0
 62
     2
 10
-252.750000
 20
175.949677
 40
5.000000
  0
CIRCLE
  8
0
 10
-252.750000
 20
175.949677
 40
4.200000
  0
CIRCLE
  8
0
 10
-288.949677
 20
139.750000
 40
4.200000
  0
CIRCLE
  8
0
 62
     2
 10
-288.949677
 20
139.750000
 40
5.000000
  0
CIRCLE
  8
0
 10
-292.500000
 20
153.000000
 40
6.000000
  0
CIRCLE
  8
0
 10
-266.000000
 20
153.000000
 40
20.000000
  0
ARC
  8
0
 10
-266.000000
 20
153.000000
 40
12.999994
 50
67.166786
 51
112.833344
  0
ARC
  8
0
 10
-266.000000
 20
153.000000
 40
12.999991
 50
127.166679
 51
172.833282
  0
ARC
  8
0
 10
-266.000000
 20
153.000000
 40
13.000002
 50
187.166718
 51
232.833328
  0
ARC
  8
0
 10
-266.000000
 20
153.000000
 40
12.999994
 50
247.166779
 51
292.833344
  0
ARC
  8
0
 10
-266.000000
 20
153.000000
 40
13.000010
 50
307.166779
 51
352.833282
  0
ARC
  8
0
 10
-289.814026
 20
122.114868
 40
4.999999
 50
52.366077
 51
134.999878
  0
ARC
  8
0
 10
-266.000000
 20
153.000000
 40
34.000008
 50
232.365997
 51
127.634148
  0
ARC
  8
0
 10
-289.814056
 20
183.885132
 40
4.999995
 50
225.000122
 51
307.634033
  0
CIRCLE
  8
0
 62
     2
 10
-266.000000
 20
179.500000
 40
5.000000
  0
CIRCLE
  8
0
 10
-266.000000
 20
179.500000
 40
4.200000
  0
ARC
  8
0
 10
-234.964142
 20
127.499985
 40
11.464138
 50
342.412048
 51
17.587971
  0
ARC
  8
0
 10
-226.566986
 20
132.696152
 40
3.066976
 50
325.615845
 51
34.384556
  0
ARC
  8
0
 10
-226.566986
 20
122.303848
 40
3.066972
 50
325.615448
 51
34.384319
  0
ARC
  8
0
 62
     2
 10
-266.000000
 20
153.000000
 40
26.499996
 50
115.576698
 51
124.036346
  0
ARC
  8
0
 62
     2
 10
-266.000000
 20
153.000000
 40
26.499998
 50
145.576660
 51
154.036301
  0
ARC
  8
0
 62
     2
 10
-266.000000
 20
153.000000
 40
26.500013
 50
175.576675
 51
184.036301
  0
ARC
  8
0
 62
     2
 10
-266.000000
 20
153.000000
 40
26.500011
 50
205.576691
 51
214.036331
  0
ARC
  8
0
 62
     2
 10
-266.000000
 20
153.000000
 40
26.499992
 50
235.576736
 51
244.036362
  0
ARC
  8
0
 62
     2
 10
-266.000000
 20
153.000000
 40
26.499996
 50
265.576721
 51
274.036316
  0
ARC
  8
0
 62
     2
 10
-266.000000
 20
153.000000
 40
26.500004
 50
295.576721
 51
304.036316
  0
ARC
  8
0
 62
     2
 10
-266.000000
 20
153.000000
 40
26.500002
 50
325.576721
 51
334.036346
  0
ARC
  8
0
 62
     2
 10
-266.000000
 20
153.000000
 40
26.499996
 50
355.576721
 51
4.036303
  0
ARC
  8
0
 62
     2
 10
-266.000000
 20
153.000000
 40
26.499996
 50
25.576700
 51
34.036320
  0
ARC
  8
0
 62
     2
 10
-266.000000
 20
153.000000
 40
26.500002
 50
55.576706
 51
64.036339
  0
CIRCLE
  8
0
 10
287.000000
 20
176.999985
 40
5.000000
  0
CIRCLE
  8
0
 10
287.000000
 20
152.999985
 40
5.000000
  0
CIRCLE
  8
0
 10
287.000000
 20
128.999985
 40
5.000000
  0
CIRCLE
  8
0
 10
255.471344
 20
116.462311
 40
1.500000
  0
CIRCLE
  8
0
 62
     2
 10
255.471344
 20
116.462311
 40
0.900000
  0
ARC
  8
0
 10
238.000000
 20
153.000000
 40
42.000004
 50
69.904884
 51
290.095062
  0
ARC
  8
0
 10
238.000000
 20
153.000000
 40
42.000004
 50
301.012665
 51
306.049316
  0
ARC
  8
0
 10
265.658630
 20
114.999985
 40
5.000000
 50
90.000000
 51
126.049355
  0
ARC
  8
0
 10
265.658630
 20
191.000000
 40
5.000006
 50
233.950638
 51
270.000000
  0
ARC
  8
0
 10
238.000000
 20
153.000000
 40
42.000000
 50
53.950737
 51
58.987289
  0
CIRCLE
  8
0
 10
256.117126
 20
190.891541
 40
4.000000
  0
CIRCLE
  8
0
 10
255.471344
 20
189.537659
 40
1.500000
  0
CIRCLE
  8
0
 62
     2
 10
255.471344
 20
189.537659
 40
0.900000
  0
CIRCLE
  8
0
 10
256.117126
 20
115.108429
 40
4.000000
  0
ARC
  8
0
 10
238.000000
 20
153.000000
 40
10.999998
 50
277.837402
 51
352.162506
  0
ARC
  8
0
 10
238.000000
 20
153.000000
 40
10.999998
 50
7.837401
 51
82.162521
  0
ARC
  8
0
 10
238.000000
 20
153.000000
 40
11.000000
 50
97.837479
 51
172.162521
  0
ARC
  8
0
 10
238.000000
 20
153.000000
 40
11.000000
 50
187.837479
 51
262.162506
  0
CIRCLE
  8
0
 10
238.000000
 20
153.000000
 40
6.000000
  0
CIRCLE
  8
0
 62
     2
 10
238.000000
 20
153.000000
 40
5.200000
  0
CIRCLE
  8
0
 10
238.000000
 20
153.000000
 40
19.000000
  0
CIRCLE
  8
0
 10
238.000000
 20
153.000000
 40
13.000000
  0
CIRCLE
  8
0
 10
185.000000
 20
163.000000
 40
4.900000
  0
CIRCLE
  8
0
 10
185.000000
 20
163.000000
 40
4.000000
  0
CIRCLE
  8
0
 10
185.000000
 20
163.000000
 40
2.500000
  0
CIRCLE
  8
0
 10
185.000000
 20
143.000000
 40
4.900000
  0
CIRCLE
  8
0
 10
185.000000
 20
143.000000
 40
4.000000
  0
CIRCLE
  8
0
 10
185.000000
 20
143.000000
 40
2.500000
  0
ARC
  8
0
 10
238.000000
 20
153.000000
 40
33.999996
 50
52.365978
 51
307.634155
  0
ARC
  8
0
 10
261.814026
 20
183.885132
 40
4.999999
 50
232.366074
 51
314.999878
  0
ARC
  8
0
 10
261.814056
 20
122.114853
 40
4.999995
 50
45.000122
 51
127.633972
  0
ARC
  8
0
 10
47.400002
 20
-27.500000
 40
1.000000
 50
0.000000
 51
53.130211
  0
ARC
  8
0
 10
47.400002
 20
-42.500000
 40
1.000002
 50
306.869720
 51
0.000000
  0
ARC
  8
0
 10
-67.399994
 20
-27.500000
 40
1.000000
 50
126.869789
 51
180.000000
  0
ARC
  8
0
 10
-67.399994
 20
-42.500000
 40
1.000000
 50
180.000000
 51
233.130280
  0
ARC
  8
0
 10
47.457275
 20
18.000000
 40
7.642726
 50
342.411957
 51
17.587954
  0
ARC
  8
0
 10
53.055328
 20
21.464111
 40
2.044657
 50
325.615631
 51
34.384270
  0
ARC
  8
0
 10
53.055328
 20
14.535889
 40
2.044655
 50
325.615692
 51
34.384338
  0
ARC
  8
0
 10
-49.500000
 20
-1.165100
 40
8.665095
 50
69.743919
 51
110.256104
  0
ARC
  8
0
 10
-55.500000
 20
-1.165100
 40
8.665095
 50
69.743866
 51
110.256050
  0
CIRCLE
  8
0
 62
     2
 10
-19.500000
 20
6.000000
 40
1.500000
  0
CIRCLE
  8
0
 10
-19.500000
 20
6.000000
 40
1.000000
  0
CIRCLE
  8
0
 10
-42.500000
 20
-219.500000
 40
2.250000
  0
CIRCLE
  8
0
 10
-10.000000
 20
-219.500000
 40
2.000000
  0
CIRCLE
  8
0
 10
-10.000000
 20
-229.500000
 40
2.000000
  0
CIRCLE
  8
0
 10
-52.500000
 20
-187.000000
 40
2.000000
  0
CIRCLE
  8
0
 10
-42.500000
 20
-187.000000
 40
2.000000
  0
CIRCLE
  8
0
 10
32.500000
 20
-187.000000
 40
2.000000
  0
CIRCLE
  8
0
 10
22.500000
 20
-187.000000
 40
2.000000
  0
CIRCLE
  8
0
 10
-52.500000
 20
-229.500000
 40
2.750000
  0
CIRCLE
  8
0
 10
22.500000
 20
-219.500000
 40
2.250000
  0
CIRCLE
  8
0
 10
32.500000
 20
-229.500000
 40
2.750000
  0
ARC
  8
0
 10
52.055328
 20
-193.535889
 40
2.044657
 50
325.615448
 51
34.384140
  0
ARC
  8
0
 10
52.055328
 20
-200.464111
 40
2.044660
 50
325.615509
 51
34.384140
  0
ARC
  8
0
 10
46.457275
 20
-197.000000
 40
7.642724
 50
342.412018
 51
17.587990
  0
ARC
  8
0
 10
13.000000
 20
-210.000000
 40
4.000000
 50
270.000000
 51
0.000000
  0
ARC
  8
0
 10
-33.000000
 20
-210.000000
 40
4.000000
 50
180.000000
 51
270.000000
  0
CIRCLE
  8
0
  6
DASHED
 62
     2
 10
-52.500000
 20
-229.500000
 40
4.750000
  0
CIRCLE
  8
0
  6
DASHED
 62
     2
 10
-42.500000
 20
-219.500000
 40
4.000000
  0
CIRCLE
  8
0
  6
DASHED
 62
     2
 10
22.500000
 20
-219.500000
 40
4.000000
  0
CIRCLE
  8
0
  6
DASHED
 62
     2
 10
32.500000
 20
-229.500000
 40
4.750000
  0
CIRCLE
  8
0
  6
DASHED
 62
     2
 10
22.500000
 20
-154.500000
 40
4.000000
  0
ARC
  8
0
 10
-33.000000
 20
-164.000000
 40
4.000000
 50
89.999947
 51
180.000000
  0
CIRCLE
  8
0
  6
DASHED
 62
     2
 10
32.500000
 20
-144.500000
 40
4.750000
  0
ARC
  8
0
 10
13.000000
 20
-164.000000
 40
4.000000
 50
0.000000
 51
89.999931
  0
CIRCLE
  8
0
  6
DASHED
 62
     2
 10
-52.500000
 20
-144.500000
 40
4.750000
  0
CIRCLE
  8
0
  6
DASHED
 62
     2
 10
-42.500000
 20
-154.500000
 40
4.000000
  0
CIRCLE
  8
0
 10
-42.500000
 20
-154.500000
 40
2.250000
  0
CIRCLE
  8
0
 10
-10.000000
 20
-154.500000
 40
2.000000
  0
CIRCLE
  8
0
 10
-10.000000
 20
-144.500000
 40
2.000000
  0
CIRCLE
  8
0
 10
-52.500000
 20
-187.000000
 40
2.000000
  0
CIRCLE
  8
0
 10
-42.500000
 20
-187.000000
 40
2.000000
  0
CIRCLE
  8
0
 10
32.500000
 20
-187.000000
 40
2.000000
  0
CIRCLE
  8
0
 10
22.500000
 20
-187.000000
 40
2.000000
  0
CIRCLE
  8
0
 10
-52.500000
 20
-144.500000
 40
2.750000
  0
CIRCLE
  8
0
 10
22.500000
 20
-154.500000
 40
2.250000
  0
CIRCLE
  8
0
 10
32.500000
 20
-144.500000
 40
2.750000
  0
ARC
  8
0
 10
52.055328
 20
-180.464111
 40
2.044652
 50
325.615875
 51
34.384491
  0
ARC
  8
0
 10
52.055328
 20
-173.535889
 40
2.044660
 50
325.615509
 51
34.384140
  0
ARC
  8
0
 10
46.457275
 20
-177.000000
 40
7.642724
 50
342.412018
 51
17.587980
  0
ARC
  8
0
 10
28.893164
 20
9.353561
 40
1.606836
 50
347.517761
 51
12.482242
  0
ARC
  8
0
 10
28.656096
 20
9.276744
 40
1.855056
 50
13.216199
 51
47.258335
  0
ARC
  8
0
 10
28.000000
 20
8.429493
 40
2.924069
 50
49.084335
 51
130.915665
  0
ARC
  8
0
 10
27.343904
 20
9.276744
 40
1.855057
 50
132.741669
 51
166.783798
  0
ARC
  8
0
 10
27.106836
 20
9.353561
 40
1.606836
 50
167.517761
 51
192.482239
  0
ARC
  8
0
 10
27.343904
 20
9.430379
 40
1.855056
 50
193.216202
 51
227.258331
  0
ARC
  8
0
 10
28.000000
 20
10.277630
 40
2.924069
 50
229.084335
 51
310.915649
  0
ARC
  8
0
 10
28.656096
 20
9.430379
 40
1.855057
 50
312.741669
 51
346.783813
  0
TEXT
  8
0
 10
-387.785309
 20
256.649994
 40
9.000000
  1
HANDLING MODULE
 50
0.000000
 41
1.052632
 51
0.000000
  7
STANDARD
  0
TEXT
  8
0
 10
242.014816
 20
-274.500000
 40
12.500000
  1
KOGANEI CORP.
 50
0.000000
 41
1.052632
 51
0.000000
  7
STANDARD
  0
TEXT
  8
0
 10
251.264664
 20
256.649994
 40
9.000000
  1
DATE: AUG ,1994
 50
0.000000
 41
1.052632
 51
0.000000
  7
STANDARD
  0
TEXT
  8
0
 10
-384.785309
 20
224.149994
 40
9.000000
  1
MODEL:SHM31L
 50
0.000000
 41
1.052632
 51
0.000000
  7
STANDARD
  0
ENDSEC
  0
EOF
