  0
SECTION
  2
HEADER
  0
ENDSEC
  0
SECTION
  2
TABLES
  0
TABLE
  2
LTYPE
 70
     4
  0
LTYPE
  2
CONTINUOUS
 70
    64
  3
Solid line
 72
    65
 73
     0
 40
0.000000
  0
LTYPE
  2
DASHED
 70
    64
  3
__ __ __ __ __ __ __ __ __ __ __ __ __ __ __
 72
    65
 73
     2
 40
3.500000
 49
2.000000
 49
-1.500000
  0
LTYPE
  2
CENTER
 70
    64
  3
____ _ ____ _ ____ _ ____ _ ____ _ ____ _ ____
 72
    65
 73
     4
 40
17.500000
 49
13.000000
 49
-1.500000
 49
1.500000
 49
-1.500000
  0
LTYPE
  2
PHANTOM
 70
    64
  3
_____ _ _ _____ _ _ _____ _ _ _____ _ _ ____  
 72
    65
 73
     6
 40
15.500000
 49
8.000000
 49
-1.500000
 49
1.500000
 49
-1.500000
 49
1.500000
 49
-1.500000
  0
LTYPE
  2
DASHED1
 70
    64
  3
__ __ __ __ __ __ __ __ __ __ __ __ __ __ __
 72
    65
 73
     2
 40
1.500000
 49
1.000000
 49
-0.500000
  0
LTYPE
  2
DASHED2
 70
    64
  3
__ __ __ __ __ __ __ __ __ __ __ __ __ __ __
 72
    65
 73
     2
 40
3.500000
 49
2.500000
 49
-1.000000
  0
LTYPE
  2
DASHED3
 70
    64
  3
__ __ __ __ __ __ __ __ __ __ __ __ __ __ __
 72
    65
 73
     2
 40
6.000000
 49
4.000000
 49
-2.000000
  0
LTYPE
  2
DASHED4
 70
    64
  3
__ __ __ __ __ __ __ __ __ __ __ __ __ __ __
 72
    65
 73
     2
 40
12.000000
 49
10.000000
 49
-2.000000
  0
LTYPE
  2
DASHED5
 70
    64
  3
__ __ __ __ __ __ __ __ __ __ __ __ __ __ __
 72
    65
 73
     2
 40
17.000000
 49
15.000000
 49
-2.000000
  0
LTYPE
  2
DASHED6
 70
    64
  3
__ __ __ __ __ __ __ __ __ __ __ __ __ __ __
 72
    65
 73
     2
 40
29.000000
 49
27.000000
 49
-2.000000
  0
LTYPE
  2
PHANTOM1
 70
    64
  3
_____ _ _ _____ _ _ _____ _ _ _____ _ _ ____  
 72
    65
 73
     6
 40
31.000000
 49
25.000000
 49
-1.500000
 49
1.000000
 49
-1.000000
 49
1.000000
 49
-1.500000
  0
LTYPE
  2
PHANTOM2
 70
    64
  3
_____ _ _ _____ _ _ _____ _ _ _____ _ _ ____  
 72
    65
 73
     6
 40
36.000000
 49
27.000000
 49
-1.500000
 49
2.500000
 49
-1.000000
 49
2.500000
 49
-1.500000
  0
LTYPE
  2
PHANTOM3
 70
    64
  3
_____ _ _ _____ _ _ _____ _ _ _____ _ _ ____  
 72
    65
 73
     6
 40
78.000000
 49
64.000000
 49
-2.000000
 49
4.000000
 49
-2.000000
 49
4.000000
 49
-2.000000
  0
LTYPE
  2
CENTER1
 70
    64
  3
____ _ ____ _ ____ _ ____ _ ____ _ ____ _ ____
 72
    65
 73
     4
 40
19.000000
 49
14.000000
 49
-1.000000
 49
3.000000
 49
-1.000000
  0
LTYPE
  2
CENTER2
 70
    64
  3
____ _ ____ _ ____ _ ____ _ ____ _ ____ _ ____
 72
    65
 73
     4
 40
28.500000
 49
25.000000
 49
-1.000000
 49
1.500000
 49
-1.000000
  0
LTYPE
  2
CENTER3
 70
    64
  3
____ _ ____ _ ____ _ ____ _ ____ _ ____ _ ____
 72
    65
 73
     4
 40
31.500000
 49
27.000000
 49
-1.000000
 49
2.500000
 49
-1.000000
  0
LTYPE
  2
CENTER4
 70
    64
  3
____ _ ____ _ ____ _ ____ _ ____ _ ____ _ ____
 72
    65
 73
     4
 40
50.000000
 49
45.000000
 49
-1.000000
 49
3.000000
 49
-1.000000
  0
LTYPE
  2
CENTER5
 70
    64
  3
____ _ ____ _ ____ _ ____ _ ____ _ ____ _ ____
 72
    65
 73
     4
 40
100.000000
 49
92.000000
 49
-2.000000
 49
4.000000
 49
-2.000000
  0
LTYPE
  2
SBK1
 70
    64
  3
______ _ _ _ ______ _ _ _ ______ _ _ _ _____  
 72
    65
 73
     8
 40
60.500000
 49
45.000000
 49
-2.000000
 49
2.500000
 49
-2.000000
 49
2.500000
 49
-2.000000
 49
2.500000
 49
-2.000000
  0
LTYPE
  2
SBK2
 70
    64
  3
______ _ _ _ ______ _ _ _ ______ _ _ _ _____  
 72
    65
 73
     8
 40
84.000000
 49
64.000000
 49
-2.000000
 49
4.000000
 49
-2.000000
 49
4.000000
 49
-2.000000
 49
4.000000
 49
-2.000000
  0
LTYPE
  2
STCH
 70
    64
  3
__ __ __ __ __ __ __ __ __ __ __ __ __ __ __
 72
    65
 73
     2
 40
3.000000
 49
1.000000
 49
-2.000000
  0
LTYPE
  2
MTCH
 70
    64
  3
_____ _ _ _____ _ _ _____ _ _ _____ _ _ ____  
 72
    65
 73
     6
 40
80.000000
 49
66.000000
 49
-2.000000
 49
4.000000
 49
-2.000000
 49
4.000000
 49
-2.000000
  0
ENDTAB
  0
TABLE
  2
LAYER
 70
     1
  0
LAYER
  2
0
 70
     0
 62
     7
  6
CONTINUOUS
  0
ENDTAB
  0
TABLE
  2
STYLE
 70
     1
  0
STYLE
  2
STANDARD
 70
     0
 40
0.000000
 41
1.000000
 50
0.000000
 71
     0
 42
0.200000
  3
txt
  4
BIGFONT
  0
ENDTAB
  0
TABLE
  2
VIEW
 70
     0
  0
ENDTAB
  0
ENDSEC
  0
SECTION
  2
BLOCKS
  0
ENDSEC
  0
SECTION
  2
ENTITIES
  0
LINE
  8
0
 10
-194.250000
 20
132.600006
 11
194.800003
 21
132.600006
  0
LINE
  8
0
 10
194.800003
 20
132.600006
 11
194.800003
 21
-133.500000
  0
LINE
  8
0
 10
-194.250000
 20
132.600006
 11
-194.250000
 21
-133.500000
  0
LINE
  8
0
 10
-194.250000
 20
-133.500000
 11
194.800003
 21
-133.500000
  0
LINE
  8
0
 10
109.800003
 20
-118.500000
 11
109.800003
 21
-133.500000
  0
LINE
  8
0
 10
109.800003
 20
-118.500000
 11
194.800003
 21
-118.500000
  0
LINE
  8
0
 10
109.800003
 20
132.600006
 11
109.800003
 21
117.600006
  0
LINE
  8
0
 10
109.800003
 20
117.600006
 11
194.800003
 21
117.600006
  0
LINE
  8
0
 10
-194.250000
 20
117.600006
 11
-109.250000
 21
117.600006
  0
LINE
  8
0
 10
-109.250000
 20
132.600006
 11
-109.250000
 21
117.600006
  0
LINE
  8
0
 10
67.500000
 20
33.000000
 11
127.500008
 21
33.000000
  0
LINE
  8
0
 10
67.500000
 20
33.000000
 11
67.500000
 21
-27.000000
  0
LINE
  8
0
 10
56.035889
 20
8.071779
 11
57.964325
 21
8.071779
  0
LINE
  8
0
 10
56.035889
 20
18.464113
 11
57.964081
 21
18.464113
  0
LINE
  8
0
 10
56.035797
 20
21.928194
 11
57.964142
 21
21.928194
  0
LINE
  8
0
 10
55.499977
 20
8.999998
 11
55.499977
 21
20.999998
  0
LINE
  8
0
 10
56.035542
 20
8.071738
 11
55.499653
 21
8.999925
  0
LINE
  8
0
 10
56.035889
 20
11.535891
 11
57.964081
 21
11.535891
  0
LINE
  8
0
 10
56.035553
 20
21.928331
 11
55.499634
 21
21.000093
  0
LINE
  8
0
 10
57.964142
 20
21.928185
 11
58.500046
 21
20.999973
  0
LINE
  8
0
 10
57.964344
 20
8.071764
 11
58.500233
 21
8.999950
  0
LINE
  8
0
 10
64.999969
 20
-49.100037
 11
59.999973
 21
-49.100037
  0
LINE
  8
0
 10
59.999969
 20
-49.100037
 11
59.999969
 21
-45.100037
  0
LINE
  8
0
 10
64.999969
 20
-49.100037
 11
64.999969
 21
-45.100037
  0
LINE
  8
0
 10
64.999969
 20
-45.100037
 11
59.999973
 21
-45.100037
  0
LINE
  8
0
 10
66.499992
 20
-22.100035
 11
58.600029
 21
-22.100035
  0
LINE
  8
0
 10
66.500031
 20
-36.600037
 11
58.500027
 21
-36.600037
  0
LINE
  8
0
 10
66.499969
 20
-37.400024
 11
58.499973
 21
-37.400024
  0
LINE
  8
0
 10
66.499969
 20
-39.900024
 11
58.499973
 21
-39.900024
  0
LINE
  8
0
 10
58.499969
 20
-39.900024
 11
58.499969
 21
-37.400024
  0
LINE
  8
0
 10
66.499969
 20
-39.900024
 11
66.499969
 21
-37.400024
  0
LINE
  8
0
 10
59.999969
 20
-37.400024
 11
59.999969
 21
-36.600037
  0
LINE
  8
0
 10
64.999969
 20
-37.400024
 11
64.999969
 21
-36.600037
  0
LINE
  8
0
 10
63.999969
 20
-45.100037
 11
63.999969
 21
-39.900024
  0
LINE
  8
0
 10
60.999969
 20
-45.100037
 11
60.999969
 21
-39.900024
  0
LINE
  8
0
 62
     2
 10
61.270477
 20
-45.100037
 11
61.270477
 21
-39.900024
  0
LINE
  8
0
 62
     2
 10
63.729462
 20
-45.100037
 11
63.729462
 21
-39.900024
  0
LINE
  8
0
 10
59.249969
 20
-23.600039
 11
59.249969
 21
-22.100039
  0
LINE
  8
0
 10
58.599976
 20
-22.100039
 11
58.599976
 21
-21.500063
  0
LINE
  8
0
 10
57.599976
 20
-32.600037
 11
57.599976
 21
-29.595034
  0
LINE
  8
0
 10
67.500000
 20
-23.600035
 11
57.599979
 21
-23.600035
  0
LINE
  8
0
 10
58.499969
 20
-36.600037
 11
58.499969
 21
-32.600037
  0
LINE
  8
0
 10
66.499969
 20
-36.600037
 11
66.499969
 21
-32.600037
  0
LINE
  8
0
 10
62.499969
 20
-36.242798
 11
62.499969
 21
-33.600037
  0
LINE
  8
0
 10
57.599976
 20
-27.605043
 11
57.599976
 21
-23.600039
  0
LINE
  8
0
 10
59.500027
 20
-32.600037
 11
57.600033
 21
-32.600037
  0
LINE
  8
0
 10
100.500000
 20
27.000002
 11
100.500000
 21
33.000000
  0
LINE
  8
0
 10
94.500000
 20
27.000002
 11
94.500000
 21
33.000000
  0
LINE
  8
0
 10
127.500008
 20
33.000004
 11
127.500008
 21
-26.999996
  0
LINE
  8
0
 10
66.500000
 20
-21.499998
 11
58.500008
 21
-21.499998
  0
LINE
  8
0
 10
65.750092
 20
-23.600037
 11
65.750092
 21
-22.100037
  0
LINE
  8
0
 10
67.400063
 20
-32.600037
 11
65.500069
 21
-32.600037
  0
LINE
  8
0
 10
67.400085
 20
-32.600037
 11
67.400085
 21
-31.999998
  0
LINE
  8
0
 10
62.500031
 20
-33.600006
 11
62.500031
 21
-36.242744
  0
LINE
  8
0
 10
67.500000
 20
-21.499998
 11
58.000000
 21
-21.499998
  0
LINE
  8
0
 10
67.400085
 20
-32.600037
 11
67.400085
 21
-29.595034
  0
LINE
  8
0
 10
83.000015
 20
-27.000000
 11
83.000015
 21
-31.214163
  0
LINE
  8
0
 62
     2
 10
82.500015
 20
-27.000000
 11
82.500015
 21
-31.214163
  0
LINE
  8
0
 62
     2
 10
80.500015
 20
-27.000000
 11
80.500015
 21
-31.214163
  0
LINE
  8
0
 10
80.000015
 20
-27.000000
 11
80.000015
 21
-31.214163
  0
LINE
  8
0
 10
67.500000
 20
21.000002
 11
127.500008
 21
21.000002
  0
LINE
  8
0
 10
67.500000
 20
-14.999998
 11
127.500008
 21
-14.999998
  0
LINE
  8
0
 10
66.400085
 20
-22.100037
 11
66.400085
 21
-21.500061
  0
LINE
  8
0
 10
111.999985
 20
-26.999996
 11
111.999985
 21
-31.214163
  0
LINE
  8
0
 62
     2
 10
112.499985
 20
-26.999996
 11
112.499985
 21
-31.214163
  0
LINE
  8
0
 62
     2
 10
114.499985
 20
-26.999996
 11
114.499985
 21
-31.214163
  0
LINE
  8
0
 10
114.999985
 20
-26.999996
 11
114.999985
 21
-31.214163
  0
LINE
  8
0
 10
61.500000
 20
6.499999
 11
61.500000
 21
25.000000
  0
LINE
  8
0
 10
138.964111
 20
21.928194
 11
137.035675
 21
21.928194
  0
LINE
  8
0
 10
138.800018
 20
11.535891
 11
137.035919
 21
11.535891
  0
LINE
  8
0
 10
138.964203
 20
8.071779
 11
137.035858
 21
8.071779
  0
LINE
  8
0
 10
139.500000
 20
21.000006
 11
139.500000
 21
9.000006
  0
LINE
  8
0
 10
138.963943
 20
21.927935
 11
139.499832
 21
20.999748
  0
LINE
  8
0
 10
138.964111
 20
18.464113
 11
137.035919
 21
18.464113
  0
LINE
  8
0
 10
138.964432
 20
8.071673
 11
139.500336
 21
8.999887
  0
LINE
  8
0
 10
136.500031
 20
21.000006
 11
136.500031
 21
9.000005
  0
LINE
  8
0
 10
137.035950
 20
8.071857
 11
136.500031
 21
9.000096
  0
LINE
  8
0
 10
137.035934
 20
21.928125
 11
136.500015
 21
20.999886
  0
LINE
  8
0
 10
58.000000
 20
6.500002
 11
61.500000
 21
6.500002
  0
LINE
  8
0
 10
58.000000
 20
6.499999
 11
58.000000
 21
-21.500002
  0
LINE
  8
0
 10
61.500000
 20
25.000002
 11
67.500000
 21
25.000002
  0
LINE
  8
0
 10
133.500000
 20
25.000002
 11
127.500008
 21
25.000002
  0
LINE
  8
0
 10
130.000046
 20
-49.100037
 11
135.000046
 21
-49.100037
  0
LINE
  8
0
 10
135.000031
 20
-49.100029
 11
135.000031
 21
-45.100029
  0
LINE
  8
0
 10
130.000031
 20
-49.100029
 11
130.000031
 21
-45.100029
  0
LINE
  8
0
 10
130.000046
 20
-45.100037
 11
135.000046
 21
-45.100037
  0
LINE
  8
0
 10
128.599930
 20
-22.100035
 11
136.399963
 21
-22.100035
  0
LINE
  8
0
 10
128.499985
 20
-36.600037
 11
136.499985
 21
-36.600037
  0
LINE
  8
0
 10
128.500046
 20
-37.400024
 11
136.500046
 21
-37.400024
  0
LINE
  8
0
 10
128.500046
 20
-39.900024
 11
136.500046
 21
-39.900024
  0
LINE
  8
0
 10
136.500031
 20
-39.900017
 11
136.500031
 21
-37.400017
  0
LINE
  8
0
 10
128.500031
 20
-39.900017
 11
128.500031
 21
-37.400017
  0
LINE
  8
0
 10
135.000031
 20
-37.400017
 11
135.000031
 21
-36.600029
  0
LINE
  8
0
 10
130.000031
 20
-37.400017
 11
130.000031
 21
-36.600029
  0
LINE
  8
0
 10
131.000031
 20
-45.100029
 11
131.000031
 21
-39.900017
  0
LINE
  8
0
 10
134.000031
 20
-45.100029
 11
134.000031
 21
-39.900017
  0
LINE
  8
0
 62
     2
 10
133.729523
 20
-45.100029
 11
133.729523
 21
-39.900017
  0
LINE
  8
0
 62
     2
 10
131.270538
 20
-45.100029
 11
131.270538
 21
-39.900017
  0
LINE
  8
0
 10
135.750031
 20
-23.600031
 11
135.750031
 21
-22.100031
  0
LINE
  8
0
 10
136.400024
 20
-22.100031
 11
136.400024
 21
-21.500055
  0
LINE
  8
0
 10
137.400024
 20
-32.600029
 11
137.400024
 21
-29.595026
  0
LINE
  8
0
 10
127.500008
 20
-23.600035
 11
137.400040
 21
-23.600035
  0
LINE
  8
0
 10
136.500031
 20
-36.600029
 11
136.500031
 21
-32.600029
  0
LINE
  8
0
 10
128.500031
 20
-36.600029
 11
128.500031
 21
-32.600029
  0
LINE
  8
0
 10
132.500031
 20
-36.242790
 11
132.500031
 21
-33.600029
  0
LINE
  8
0
 10
137.400024
 20
-27.605036
 11
137.400024
 21
-23.600031
  0
LINE
  8
0
 10
135.499985
 20
-32.600037
 11
137.399979
 21
-32.600037
  0
LINE
  8
0
 10
128.500015
 20
-21.499998
 11
136.500000
 21
-21.499998
  0
LINE
  8
0
 10
129.249908
 20
-23.600033
 11
129.249908
 21
-22.100033
  0
LINE
  8
0
 10
127.599937
 20
-32.600037
 11
129.499939
 21
-32.600037
  0
LINE
  8
0
 10
127.599922
 20
-32.600029
 11
127.599922
 21
-31.999994
  0
LINE
  8
0
 10
132.499969
 20
-33.599998
 11
132.499969
 21
-36.242737
  0
LINE
  8
0
 10
127.500008
 20
-21.499998
 11
137.000000
 21
-21.499998
  0
LINE
  8
0
 10
127.599922
 20
-32.600029
 11
127.599922
 21
-29.595026
  0
LINE
  8
0
 10
137.000000
 20
6.500002
 11
133.500000
 21
6.500002
  0
LINE
  8
0
 10
133.500000
 20
6.500005
 11
133.500000
 21
25.000004
  0
LINE
  8
0
 10
128.599915
 20
-22.100033
 11
128.599915
 21
-21.500057
  0
LINE
  8
0
 10
137.000000
 20
6.500005
 11
137.000000
 21
-21.499994
  0
LINE
  8
0
 10
61.500000
 20
21.699999
 11
67.500000
 21
21.699999
  0
LINE
  8
0
 10
133.500000
 20
21.699999
 11
127.500008
 21
21.699999
  0
LINE
  8
0
 10
114.999985
 20
-31.214163
 11
111.999985
 21
-31.214163
  0
LINE
  8
0
 10
80.000015
 20
-31.214163
 11
83.000015
 21
-31.214163
  0
LINE
  8
0
 10
146.800018
 20
9.999994
 11
139.500000
 21
9.999994
  0
LINE
  8
0
 62
     2
 10
147.600006
 20
10.799997
 11
139.500000
 21
10.799997
  0
LINE
  8
0
 10
150.600006
 20
10.799997
 11
147.600006
 21
10.799997
  0
LINE
  8
0
 62
     2
 10
147.600006
 20
19.199991
 11
139.500000
 21
19.199991
  0
LINE
  8
0
 10
146.800018
 20
19.999994
 11
139.500000
 21
19.999994
  0
LINE
  8
0
 10
150.600006
 20
19.199991
 11
147.600006
 21
19.199991
  0
LINE
  8
0
 10
151.600006
 20
18.199987
 11
151.600006
 21
11.799994
  0
LINE
  8
0
 10
146.800262
 20
9.999680
 11
147.600266
 21
10.799686
  0
LINE
  8
0
 10
147.600006
 20
19.199987
 11
147.600006
 21
10.799994
  0
LINE
  8
0
 10
146.800018
 20
19.999990
 11
146.800018
 21
9.999990
  0
LINE
  8
0
 10
147.599976
 20
19.199900
 11
146.799973
 21
19.999907
  0
LINE
  8
0
 10
150.599960
 20
10.800048
 11
151.599960
 21
11.800038
  0
LINE
  8
0
 10
150.599915
 20
19.199907
 11
151.599915
 21
18.199907
  0
LINE
  8
0
 10
150.599396
 20
10.800001
 11
150.599396
 21
19.199987
  0
LINE
  8
0
 10
48.199974
 20
9.999994
 11
55.499977
 21
9.999994
  0
LINE
  8
0
 62
     2
 10
47.399986
 20
10.799997
 11
55.499977
 21
10.799997
  0
LINE
  8
0
 10
44.399994
 20
10.799997
 11
47.399986
 21
10.799997
  0
LINE
  8
0
 62
     2
 10
47.399986
 20
19.199991
 11
55.499977
 21
19.199991
  0
LINE
  8
0
 10
48.199974
 20
19.999994
 11
55.499977
 21
19.999994
  0
LINE
  8
0
 10
44.399994
 20
19.199991
 11
47.399986
 21
19.199991
  0
LINE
  8
0
 10
43.399986
 20
18.199980
 11
43.399986
 21
11.799986
  0
LINE
  8
0
 10
48.199741
 20
9.999695
 11
47.399746
 21
10.799690
  0
LINE
  8
0
 10
47.399986
 20
19.199980
 11
47.399986
 21
10.799986
  0
LINE
  8
0
 10
48.199974
 20
19.999983
 11
48.199974
 21
9.999983
  0
LINE
  8
0
 10
47.400074
 20
19.199856
 11
48.200077
 21
19.999865
  0
LINE
  8
0
 10
44.400017
 20
10.800010
 11
43.400017
 21
11.800011
  0
LINE
  8
0
 10
44.400066
 20
19.199919
 11
43.400063
 21
18.199917
  0
LINE
  8
0
 10
44.400597
 20
10.799994
 11
44.400597
 21
19.199980
  0
LINE
  8
0
 10
59.035889
 20
8.071779
 11
60.964325
 21
8.071779
  0
LINE
  8
0
 10
59.035889
 20
18.464113
 11
60.964081
 21
18.464113
  0
LINE
  8
0
 10
59.035797
 20
21.928194
 11
60.964142
 21
21.928194
  0
LINE
  8
0
 10
58.499977
 20
8.999999
 11
58.499977
 21
20.999998
  0
LINE
  8
0
 10
59.035538
 20
8.071741
 11
58.499649
 21
8.999928
  0
LINE
  8
0
 10
59.035889
 20
11.535891
 11
60.964081
 21
11.535891
  0
LINE
  8
0
 10
59.035538
 20
21.928345
 11
58.499619
 21
21.000109
  0
LINE
  8
0
 10
60.964149
 20
21.928173
 11
61.500053
 21
20.999960
  0
LINE
  8
0
 10
60.964314
 20
8.071764
 11
61.500202
 21
8.999950
  0
LINE
  8
0
 10
135.964111
 20
21.928194
 11
134.035675
 21
21.928194
  0
LINE
  8
0
 10
135.800018
 20
11.535891
 11
134.035919
 21
11.535891
  0
LINE
  8
0
 10
135.964203
 20
8.071779
 11
134.035858
 21
8.071779
  0
LINE
  8
0
 10
136.500000
 20
21.000006
 11
136.500000
 21
9.000005
  0
LINE
  8
0
 10
135.963913
 20
21.927940
 11
136.499802
 21
20.999754
  0
LINE
  8
0
 10
135.964111
 20
18.464113
 11
134.035919
 21
18.464113
  0
LINE
  8
0
 10
135.964447
 20
8.071670
 11
136.500351
 21
8.999883
  0
LINE
  8
0
 10
133.500031
 20
21.000004
 11
133.500031
 21
9.000005
  0
LINE
  8
0
 10
134.035904
 20
8.071823
 11
133.499985
 21
9.000062
  0
LINE
  8
0
 10
134.035919
 20
21.928131
 11
133.500000
 21
20.999891
  0
LINE
  8
0
  6
CENTER
 62
     2
 10
97.500000
 20
-31.859850
 11
97.500000
 21
37.027542
  0
LINE
  8
0
  6
CENTER
 62
     2
 10
53.512390
 20
3.000002
 11
138.713669
 21
3.000002
  0
LINE
  8
0
 10
67.500000
 20
-26.999998
 11
127.500008
 21
-26.999998
  0
LINE
  8
0
  6
CENTER
 62
     2
 10
122.500008
 20
31.000004
 11
122.500008
 21
25.000004
  0
LINE
  8
0
  6
CENTER
 62
     2
 10
122.500008
 20
-18.999996
 11
122.500008
 21
-24.999996
  0
LINE
  8
0
  6
CENTER
 62
     2
 10
72.499992
 20
-19.000000
 11
72.499992
 21
-25.000000
  0
LINE
  8
0
  6
CENTER
 62
     2
 10
72.499992
 20
31.000000
 11
72.499992
 21
25.000000
  0
LINE
  8
0
  6
CENTER
 62
     2
 10
69.499992
 20
28.000002
 11
75.499992
 21
28.000002
  0
LINE
  8
0
  6
CENTER
 62
     2
 10
125.500008
 20
-21.999998
 11
119.500008
 21
-21.999998
  0
LINE
  8
0
  6
CENTER
 62
     2
 10
125.500008
 20
28.000002
 11
119.500008
 21
28.000002
  0
LINE
  8
0
  6
CENTER
 62
     2
 10
75.499992
 20
-21.999998
 11
69.499992
 21
-21.999998
  0
LINE
  8
0
  6
CENTER
 62
     2
 10
102.500000
 20
-21.999998
 11
92.500000
 21
-21.999998
  0
LINE
  8
0
 10
-32.661385
 20
5.199920
 11
-32.661385
 21
0.799926
  0
LINE
  8
0
 10
-32.661385
 20
32.999908
 11
-32.661385
 21
-27.000092
  0
LINE
  8
0
 10
-5.661383
 20
18.752741
 11
-5.661383
 21
11.247187
  0
LINE
  8
0
 10
-18.661383
 20
18.752728
 11
-18.661383
 21
11.247173
  0
LINE
  8
0
 10
-12.161472
 20
22.505602
 11
-18.661472
 21
18.752825
  0
LINE
  8
0
 10
-5.661440
 20
11.247247
 11
-12.161443
 21
7.494470
  0
LINE
  8
0
 10
-18.661316
 20
11.247202
 11
-12.161316
 21
7.494423
  0
LINE
  8
0
 10
-12.161319
 20
22.505611
 11
-5.661343
 21
18.752848
  0
LINE
  8
0
 10
-2.161360
 20
-21.000059
 11
-22.161360
 21
-21.000059
  0
LINE
  8
0
 10
-7.261389
 20
-32.600052
 11
-7.261389
 21
-32.000072
  0
LINE
  8
0
 10
-17.061377
 20
-32.600056
 11
-17.061377
 21
-23.600056
  0
LINE
  8
0
 10
-17.061352
 20
-23.600039
 11
-7.261364
 21
-23.600039
  0
LINE
  8
0
 10
-17.061344
 20
-32.600040
 11
-7.261356
 21
-32.600040
  0
LINE
  8
0
 10
-12.161352
 20
-29.300051
 11
-4.661352
 21
-29.300051
  0
LINE
  8
0
 10
-12.161354
 20
-27.900057
 11
-4.661354
 21
-27.900057
  0
LINE
  8
0
 10
-7.261469
 20
-32.000172
 11
-8.561473
 21
-29.300163
  0
LINE
  8
0
 10
-7.261480
 20
-25.199924
 11
-8.561500
 21
-27.899963
  0
LINE
  8
0
 10
-7.261389
 20
-25.200052
 11
-7.261389
 21
-23.600046
  0
LINE
  8
0
 10
-4.661348
 20
-33.500065
 11
3.338652
 21
-33.500065
  0
LINE
  8
0
 10
7.838617
 20
-33.600037
 11
7.838617
 21
-23.600033
  0
LINE
  8
0
 10
6.238611
 20
-33.600037
 11
6.238611
 21
-23.600035
  0
LINE
  8
0
 10
-7.261354
 20
-32.000065
 11
-6.161348
 21
-32.000065
  0
LINE
  8
0
 10
-4.661383
 20
-33.500072
 11
-4.661383
 21
-23.700050
  0
LINE
  8
0
 10
-6.161383
 20
-32.000072
 11
-6.161383
 21
-29.300058
  0
LINE
  8
0
 10
3.338617
 20
-33.500065
 11
3.338617
 21
-23.700045
  0
LINE
  8
0
 10
4.938623
 20
-33.350037
 11
4.938623
 21
-23.850037
  0
LINE
  8
0
 10
6.238638
 20
-33.600040
 11
7.838644
 21
-33.600040
  0
LINE
  8
0
 10
3.338652
 20
-33.350040
 11
4.938650
 21
-33.350040
  0
LINE
  8
0
 10
6.238634
 20
-23.600039
 11
7.838640
 21
-23.600039
  0
LINE
  8
0
 10
3.338640
 20
-23.850039
 11
4.938646
 21
-23.850039
  0
LINE
  8
0
 10
-4.661358
 20
-23.700045
 11
3.338640
 21
-23.700045
  0
LINE
  8
0
 10
-7.261370
 20
-25.200045
 11
-6.161364
 21
-25.200045
  0
LINE
  8
0
 10
4.938646
 20
-31.850039
 11
6.238634
 21
-31.850039
  0
LINE
  8
0
 10
4.938650
 20
-25.350039
 11
6.238638
 21
-25.350039
  0
LINE
  8
0
 10
-6.161383
 20
-27.900064
 11
-6.161383
 21
-25.200052
  0
LINE
  8
0
 10
-4.661436
 20
-33.500141
 11
-6.161427
 21
-32.000153
  0
LINE
  8
0
 10
-4.661310
 20
-23.700163
 11
-6.161312
 21
-25.200165
  0
LINE
  8
0
 10
-16.061354
 20
-22.100039
 11
-8.261366
 21
-22.100039
  0
LINE
  8
0
 10
-8.911383
 20
-23.600048
 11
-8.911383
 21
-22.100048
  0
LINE
  8
0
 10
-15.411383
 20
-23.600058
 11
-15.411383
 21
-22.100058
  0
LINE
  8
0
 10
-8.261389
 20
-22.100048
 11
-8.261389
 21
-21.000059
  0
LINE
  8
0
 10
-16.061377
 20
-22.100058
 11
-16.061377
 21
-21.000059
  0
LINE
  8
0
 10
-14.661333
 20
-49.100040
 11
-9.661333
 21
-49.100040
  0
LINE
  8
0
 10
-9.661383
 20
-49.100052
 11
-9.661383
 21
-45.100052
  0
LINE
  8
0
 10
-14.661383
 20
-49.100056
 11
-14.661383
 21
-45.100056
  0
LINE
  8
0
 10
-14.661337
 20
-45.100040
 11
-9.661337
 21
-45.100040
  0
LINE
  8
0
 10
-15.625456
 20
-36.600040
 11
-8.697235
 21
-36.600040
  0
LINE
  8
0
 10
-16.161345
 20
-37.400028
 11
-8.161345
 21
-37.400028
  0
LINE
  8
0
 10
-16.161341
 20
-39.900028
 11
-8.161345
 21
-39.900028
  0
LINE
  8
0
 10
-8.161383
 20
-39.900040
 11
-8.161383
 21
-37.400040
  0
LINE
  8
0
 10
-16.161383
 20
-39.900043
 11
-16.161383
 21
-37.400043
  0
LINE
  8
0
 10
-7.542578
 20
-36.242813
 11
-7.542578
 21
-32.600052
  0
LINE
  8
0
 10
-9.851995
 20
-36.242813
 11
-9.851995
 21
-32.600052
  0
LINE
  8
0
 10
-14.470800
 20
-36.242813
 11
-14.470800
 21
-32.600052
  0
LINE
  8
0
 10
-16.780188
 20
-36.242817
 11
-16.780188
 21
-32.600056
  0
LINE
  8
0
 10
-9.661383
 20
-37.400040
 11
-9.661383
 21
-36.600052
  0
LINE
  8
0
 10
-14.661383
 20
-37.400043
 11
-14.661383
 21
-36.600056
  0
LINE
  8
0
 10
-13.661383
 20
-45.100052
 11
-13.661383
 21
-39.900040
  0
LINE
  8
0
 10
-10.661383
 20
-45.100048
 11
-10.661383
 21
-39.900036
  0
LINE
  8
0
 62
     2
 10
-10.931890
 20
-45.100052
 11
-10.931890
 21
-39.900040
  0
LINE
  8
0
 62
     2
 10
-13.390875
 20
-45.100052
 11
-13.390875
 21
-39.900040
  0
LINE
  8
0
 10
-26.661411
 20
32.999939
 11
-32.661415
 21
32.999939
  0
LINE
  8
0
 10
-24.661383
 20
-21.900078
 11
-24.661383
 21
-31.200060
  0
LINE
  8
0
 10
-21.661383
 20
-21.900076
 11
-21.661383
 21
-31.200056
  0
LINE
  8
0
 62
     2
 10
-24.161383
 20
-21.900078
 11
-24.161383
 21
-31.200060
  0
LINE
  8
0
 62
     2
 10
-22.161383
 20
-21.900076
 11
-22.161383
 21
-31.200056
  0
LINE
  8
0
  6
CENTER
 62
     2
 10
5.216768
 20
2.999940
 11
-35.686348
 21
2.999940
  0
LINE
  8
0
 10
-26.661383
 20
-27.000086
 11
-26.661383
 21
32.999912
  0
LINE
  8
0
 10
-26.661354
 20
-27.000059
 11
-32.661354
 21
-27.000059
  0
LINE
  8
0
 10
2.338617
 20
32.999939
 11
2.338617
 21
20.999941
  0
LINE
  8
0
 10
2.338598
 20
32.999939
 11
-3.161404
 21
32.999939
  0
LINE
  8
0
 10
-26.161383
 20
-19.500086
 11
-26.161383
 21
25.499914
  0
LINE
  8
0
 10
-20.761366
 20
-21.900053
 11
-25.561354
 21
-21.900053
  0
LINE
  8
0
 10
-21.561377
 20
-21.400076
 11
-21.561377
 21
-21.000082
  0
LINE
  8
0
 10
-24.761389
 20
-21.400080
 11
-24.761389
 21
-19.500086
  0
LINE
  8
0
 10
-26.361380
 20
-21.400080
 11
-26.361380
 21
-19.500086
  0
LINE
  8
0
 62
     4
 10
-7.644792
 20
29.999756
 11
-4.661530
 21
29.030434
  0
LINE
  8
0
 62
     4
 10
-4.661383
 20
29.030621
 11
-4.661383
 21
26.927700
  0
LINE
  8
0
 62
     4
 10
-8.099114
 20
27.999771
 11
-4.520753
 21
26.837090
  0
LINE
  8
0
 62
     4
 10
-4.520486
 20
26.837137
 11
-5.756550
 21
23.032927
  0
LINE
  8
0
 10
-4.429298
 20
25.499891
 11
-5.281052
 21
22.878464
  0
LINE
  8
0
 10
-9.561062
 20
24.268902
 11
-5.281278
 21
22.878315
  0
LINE
  8
0
 62
     4
 10
-8.324773
 20
28.073235
 11
-8.673521
 21
26.999901
  0
LINE
  8
0
 62
     4
 10
-16.677950
 20
29.999941
 11
-7.644655
 21
29.999941
  0
LINE
  8
0
 62
     4
 10
-16.223722
 20
27.999941
 11
-7.961424
 21
27.999941
  0
LINE
  8
0
 62
     4
 10
-15.649084
 20
26.999941
 11
-8.673605
 21
26.999941
  0
LINE
  8
0
 10
-14.761727
 20
24.269110
 11
-19.041506
 21
22.878527
  0
LINE
  8
0
 62
     4
 10
-15.997809
 20
28.073345
 11
-15.649039
 21
26.999939
  0
LINE
  8
0
 62
     4
 10
-16.223755
 20
27.999891
 11
-19.802126
 21
26.837208
  0
LINE
  8
0
 62
     4
 10
-19.802105
 20
26.837263
 11
-18.566048
 21
23.033066
  0
LINE
  8
0
 10
-19.893253
 20
25.499928
 11
-19.041506
 21
22.878515
  0
LINE
  8
0
 10
-3.161383
 20
32.999935
 11
-3.161383
 21
25.499935
  0
LINE
  8
0
 10
-21.161383
 20
25.499918
 11
-21.161383
 21
21.725489
  0
LINE
  8
0
 10
-19.961386
 20
-21.400074
 11
-19.961386
 21
-21.000080
  0
LINE
  8
0
 62
     4
 10
-16.678118
 20
29.999857
 11
-19.661371
 21
29.030540
  0
LINE
  8
0
 62
     4
 10
-19.661383
 20
29.030605
 11
-19.661383
 21
26.927685
  0
LINE
  8
0
 10
-2.161386
 20
6.499940
 11
-22.161386
 21
6.499940
  0
LINE
  8
0
 10
-10.161396
 20
23.999941
 11
-14.161402
 21
23.999941
  0
LINE
  8
0
 10
-10.161451
 20
23.999811
 11
-2.161437
 21
21.400446
  0
LINE
  8
0
 10
-14.161397
 20
23.999962
 11
-22.161400
 21
21.400606
  0
LINE
  8
0
 10
-21.661352
 20
-31.200033
 11
-24.661352
 21
-31.200033
  0
LINE
  8
0
 10
-19.893276
 20
25.499941
 11
-26.661404
 21
25.499941
  0
LINE
  8
0
 10
-4.429516
 20
25.499941
 11
-3.161404
 21
25.499941
  0
LINE
  8
0
 62
     4
 10
-13.661383
 20
27.999926
 11
-13.661383
 21
26.999926
  0
LINE
  8
0
 62
     4
 10
-10.661383
 20
27.999928
 11
-10.661383
 21
26.999928
  0
LINE
  8
0
 10
1.838617
 20
20.499941
 11
1.838617
 21
-14.500059
  0
LINE
  8
0
 10
1.838479
 20
20.500057
 11
2.338480
 21
21.000059
  0
LINE
  8
0
 10
1.838641
 20
-14.500077
 11
2.338649
 21
-15.000086
  0
LINE
  8
0
 10
2.338617
 20
-15.000059
 11
2.338617
 21
-23.700045
  0
LINE
  8
0
 10
-3.161383
 20
-23.700045
 11
-3.161383
 21
-21.000065
  0
LINE
  8
0
 10
-22.161362
 20
-19.500059
 11
-26.661362
 21
-19.500059
  0
LINE
  8
0
 10
-2.161383
 20
21.238096
 11
-2.161383
 21
-21.000063
  0
LINE
  8
0
 10
-22.161383
 20
21.238108
 11
-22.161383
 21
-21.000082
  0
LINE
  8
0
 62
     4
 10
-15.649039
 20
26.999939
 11
-14.761743
 21
24.269119
  0
LINE
  8
0
 62
     4
 10
-8.673521
 20
26.999901
 11
-9.560833
 21
24.269037
  0
LINE
  8
0
  6
CENTER
 62
     2
 10
-12.161375
 20
-53.470730
 11
-12.161375
 21
37.674885
  0
LINE
  8
0
  6
CENTER
 62
     2
 10
5.216745
 20
27.999941
 11
-5.627790
 21
27.999941
  0
LINE
  8
0
  6
CENTER
 62
     2
 10
5.216791
 20
-22.000059
 11
-4.528370
 21
-22.000059
  0
LINE
  8
0
  6
CENTER
 62
     2
 10
-24.417059
 20
27.999941
 11
-35.686371
 21
27.999941
  0
LINE
  8
0
  6
CENTER
 62
     2
 10
-25.416443
 20
-22.000059
 11
-35.686325
 21
-22.000059
  0
LINE
  8
0
 10
-14.761757
 20
24.269096
 11
-9.560846
 21
24.269096
  0
LINE
  8
0
 10
127.499985
 20
108.000046
 11
67.500061
 21
108.000046
  0
LINE
  8
0
 10
127.499954
 20
73.000046
 11
67.499954
 21
73.000046
  0
LINE
  8
0
 10
133.500000
 20
77.499977
 11
133.500000
 21
97.499977
  0
LINE
  8
0
 10
100.499962
 20
77.000046
 11
94.499962
 21
77.000046
  0
LINE
  8
0
 10
94.500000
 20
73.000038
 11
94.500000
 21
77.000038
  0
LINE
  8
0
 10
100.500000
 20
73.000023
 11
100.500000
 21
77.000023
  0
LINE
  8
0
 10
127.499962
 20
102.000046
 11
67.500046
 21
102.000046
  0
LINE
  8
0
 10
127.500000
 20
72.999969
 11
127.500000
 21
97.499985
  0
LINE
  8
0
 10
67.500000
 20
73.000092
 11
67.500000
 21
74.667374
  0
LINE
  8
0
 62
     4
 10
106.500000
 20
79.901947
 11
106.500000
 21
84.000031
  0
LINE
  8
0
 62
     4
 10
81.500000
 20
79.500076
 11
81.500000
 21
84.000076
  0
LINE
  8
0
 62
     4
 10
105.000000
 20
79.500015
 11
105.000000
 21
84.000031
  0
LINE
  8
0
 62
     4
 10
106.499886
 20
79.902336
 11
104.999878
 21
79.500412
  0
LINE
  8
0
 62
     4
 10
113.500000
 20
95.098083
 11
113.500000
 21
91.000015
  0
LINE
  8
0
 62
     4
 10
113.500130
 20
95.098427
 11
112.000114
 21
95.500351
  0
LINE
  8
0
 62
     4
 10
112.000000
 20
95.500000
 11
112.000000
 21
91.000015
  0
LINE
  8
0
 62
     4
 10
88.500000
 20
95.500046
 11
88.500000
 21
91.500061
  0
LINE
  8
0
 62
     4
 10
101.100006
 20
95.000008
 11
101.100006
 21
83.500023
  0
LINE
  8
0
 62
     4
 10
93.899994
 20
95.000038
 11
93.899994
 21
83.500038
  0
LINE
  8
0
 62
     4
 10
96.439224
 20
86.439507
 11
98.560547
 21
88.560822
  0
LINE
  8
0
 62
     4
 10
96.439377
 20
88.560852
 11
98.560692
 21
86.439529
  0
LINE
  8
0
 62
     4
 10
93.899971
 20
83.500015
 11
101.099983
 21
83.500015
  0
LINE
  8
0
 10
83.900024
 20
91.000046
 11
67.500031
 21
91.000046
  0
LINE
  8
0
 10
83.900009
 20
84.000046
 11
67.499985
 21
84.000046
  0
LINE
  8
0
 62
     4
 10
93.899994
 20
95.000015
 11
101.100006
 21
95.000015
  0
LINE
  8
0
  6
CENTER
 62
     2
 10
97.500000
 20
68.052383
 11
97.500000
 21
111.644424
  0
LINE
  8
0
 62
     4
 10
91.099998
 20
91.500046
 11
83.899986
 21
91.500046
  0
LINE
  8
0
 62
     4
 10
91.100006
 20
80.000046
 11
91.100006
 21
91.500046
  0
LINE
  8
0
 62
     4
 10
83.899994
 20
80.000053
 11
83.899994
 21
91.500053
  0
LINE
  8
0
 62
     4
 10
88.560608
 20
88.560799
 11
86.439285
 21
86.439476
  0
LINE
  8
0
 62
     4
 10
88.560730
 20
86.439461
 11
86.439415
 21
88.560783
  0
LINE
  8
0
 62
     4
 10
91.099976
 20
80.000046
 11
83.899963
 21
80.000046
  0
LINE
  8
0
 10
93.900009
 20
84.000046
 11
91.100021
 21
84.000046
  0
LINE
  8
0
 10
93.900024
 20
91.000046
 11
91.100037
 21
91.000046
  0
LINE
  8
0
 62
     4
 10
105.000008
 20
79.500046
 11
81.500015
 21
79.500046
  0
LINE
  8
0
 10
127.499985
 20
84.000046
 11
101.100021
 21
84.000046
  0
LINE
  8
0
 10
127.499992
 20
91.000046
 11
101.100037
 21
91.000046
  0
LINE
  8
0
 10
127.500015
 20
80.600052
 11
106.499969
 21
80.600052
  0
LINE
  8
0
 10
127.499992
 20
94.400040
 11
113.499992
 21
94.400040
  0
LINE
  8
0
 62
     4
 10
88.500000
 20
95.200043
 11
73.875427
 21
95.200043
  0
LINE
  8
0
 10
121.000046
 20
101.500046
 11
74.000046
 21
101.500046
  0
LINE
  8
0
 10
127.500000
 20
101.999969
 11
127.500000
 21
107.999969
  0
LINE
  8
0
 10
67.500000
 20
102.000092
 11
67.500000
 21
108.000092
  0
LINE
  8
0
 10
137.000000
 20
77.499969
 11
137.000000
 21
81.000046
  0
LINE
  8
0
 10
133.499985
 20
85.500046
 11
127.499985
 21
85.500046
  0
LINE
  8
0
 10
133.499985
 20
89.500046
 11
127.499985
 21
89.500046
  0
LINE
  8
0
 10
61.499996
 20
77.500114
 11
61.499996
 21
97.500114
  0
LINE
  8
0
 10
57.999996
 20
77.500122
 11
57.999996
 21
81.000046
  0
LINE
  8
0
 10
61.499981
 20
85.500046
 11
67.499985
 21
85.500046
  0
LINE
  8
0
 10
61.499989
 20
89.500046
 11
67.499985
 21
89.500046
  0
LINE
  8
0
 10
137.000000
 20
94.000038
 11
137.000000
 21
97.499969
  0
LINE
  8
0
 10
57.999996
 20
94.000038
 11
57.999996
 21
97.500122
  0
LINE
  8
0
 10
48.200024
 20
82.500031
 11
55.499996
 21
82.500031
  0
LINE
  8
0
 62
     2
 10
47.400043
 20
83.300049
 11
55.500004
 21
83.300049
  0
LINE
  8
0
 62
     2
 10
47.400059
 20
91.700043
 11
55.500019
 21
91.700043
  0
LINE
  8
0
 10
48.200047
 20
92.500031
 11
55.500019
 21
92.500031
  0
LINE
  8
0
 10
48.199780
 20
82.499825
 11
47.399776
 21
83.299828
  0
LINE
  8
0
 10
47.400021
 20
91.700119
 11
47.400021
 21
83.300125
  0
LINE
  8
0
 10
48.200008
 20
92.500122
 11
48.200008
 21
82.500122
  0
LINE
  8
0
 10
47.400143
 20
91.700005
 11
48.200142
 21
92.500015
  0
LINE
  8
0
 10
43.400051
 20
90.700027
 11
47.400051
 21
90.700027
  0
LINE
  8
0
 10
43.400043
 20
84.300034
 11
47.400043
 21
84.300034
  0
LINE
  8
0
 10
44.400631
 20
84.300125
 11
44.400631
 21
90.700119
  0
LINE
  8
0
 10
43.400021
 20
90.700134
 11
43.400021
 21
84.300140
  0
LINE
  8
0
 62
     4
 10
59.354588
 20
102.821449
 11
69.125687
 21
93.050354
  0
LINE
  8
0
 62
     4
 10
62.183048
 20
105.649902
 11
71.754150
 21
96.078804
  0
LINE
  8
0
 62
     4
 10
62.182877
 20
105.650078
 11
59.354450
 21
102.821648
  0
LINE
  8
0
 10
71.332779
 20
96.500046
 11
91.500038
 21
96.500046
  0
LINE
  8
0
 62
     4
 10
62.182892
 20
69.350372
 11
71.753998
 21
78.921478
  0
LINE
  8
0
 62
     4
 10
62.182930
 20
69.350372
 11
59.354523
 21
72.178780
  0
LINE
  8
0
 62
     4
 10
59.354450
 20
72.178825
 11
69.125549
 21
81.949928
  0
LINE
  8
0
 10
67.500000
 20
80.324203
 11
67.500000
 21
94.675995
  0
LINE
  8
0
 62
     4
 10
81.500015
 20
79.800049
 11
73.875397
 21
79.800049
  0
LINE
  8
0
 10
151.599991
 20
84.300034
 11
147.599991
 21
84.300034
  0
LINE
  8
0
 10
150.599365
 20
84.299942
 11
150.599365
 21
90.699936
  0
LINE
  8
0
 10
146.800003
 20
82.500031
 11
139.500000
 21
82.500031
  0
LINE
  8
0
 62
     2
 10
147.599991
 20
83.300049
 11
139.500000
 21
83.300049
  0
LINE
  8
0
 62
     2
 10
147.600006
 20
91.700043
 11
139.500015
 21
91.700043
  0
LINE
  8
0
 10
146.800018
 20
92.500031
 11
139.500015
 21
92.500031
  0
LINE
  8
0
 10
151.599976
 20
90.699921
 11
151.599976
 21
84.299927
  0
LINE
  8
0
 10
146.800186
 20
82.499771
 11
147.600159
 21
83.299759
  0
LINE
  8
0
 10
147.599976
 20
91.699936
 11
147.599976
 21
83.299942
  0
LINE
  8
0
 10
146.799988
 20
92.499939
 11
146.799988
 21
82.499939
  0
LINE
  8
0
 10
147.600021
 20
91.699936
 11
146.800018
 21
92.499947
  0
LINE
  8
0
 10
151.600006
 20
90.700027
 11
147.600006
 21
90.700027
  0
LINE
  8
0
 10
121.000000
 20
96.500000
 11
121.000000
 21
101.500000
  0
LINE
  8
0
 10
103.500000
 20
96.500031
 11
103.500000
 21
101.500031
  0
LINE
  8
0
 10
91.500000
 20
96.500061
 11
91.500000
 21
101.500061
  0
LINE
  8
0
 10
74.000000
 20
96.500092
 11
74.000000
 21
101.500092
  0
LINE
  8
0
 62
     4
 10
112.000038
 20
95.500046
 11
88.500038
 21
95.500046
  0
LINE
  8
0
 10
58.000004
 20
97.500046
 11
64.175964
 21
97.500046
  0
LINE
  8
0
 10
137.000046
 20
97.500046
 11
127.500038
 21
97.500046
  0
LINE
  8
0
 10
136.999969
 20
77.500046
 11
127.500000
 21
77.500046
  0
LINE
  8
0
 10
64.675667
 20
77.500046
 11
57.999966
 21
77.500046
  0
LINE
  8
0
 10
127.499969
 20
78.500046
 11
71.332703
 21
78.500046
  0
LINE
  8
0
 10
127.500038
 20
96.500046
 11
103.500038
 21
96.500046
  0
LINE
  8
0
  6
CENTER
 62
     2
 10
122.500000
 20
68.052338
 11
122.500000
 21
81.832504
  0
LINE
  8
0
  6
CENTER
 62
     2
 10
72.500000
 20
68.052429
 11
72.500000
 21
80.486504
  0
LINE
  8
0
  6
CENTER
 62
     2
 10
122.500000
 20
99.331596
 11
122.500000
 21
111.644379
  0
LINE
  8
0
  6
CENTER
 62
     2
 10
72.500000
 20
98.370193
 11
72.500000
 21
111.644470
  0
LINE
  8
0
 10
57.600006
 20
81.000046
 11
57.600006
 21
72.000092
  0
LINE
  8
0
 10
57.499985
 20
67.500046
 11
67.499985
 21
67.500046
  0
LINE
  8
0
 10
57.499985
 20
69.100052
 11
67.500000
 21
69.100052
  0
LINE
  8
0
 10
57.599991
 20
72.000046
 11
59.533237
 21
72.000046
  0
LINE
  8
0
 10
57.749985
 20
70.400040
 11
61.133244
 21
70.400040
  0
LINE
  8
0
 10
57.500000
 20
69.100098
 11
57.500000
 21
67.500092
  0
LINE
  8
0
 10
57.750000
 20
72.000092
 11
57.750000
 21
70.400085
  0
LINE
  8
0
 10
67.500000
 20
69.100082
 11
67.500000
 21
67.500076
  0
LINE
  8
0
 10
67.250000
 20
72.000076
 11
67.250000
 21
70.400063
  0
LINE
  8
0
 10
59.250000
 20
70.400085
 11
59.250000
 21
69.100098
  0
LINE
  8
0
 10
65.750000
 20
70.400070
 11
65.750000
 21
69.100082
  0
LINE
  8
0
 10
127.500000
 20
72.000076
 11
127.500000
 21
73.000046
  0
LINE
  8
0
 10
137.399994
 20
81.000046
 11
137.399994
 21
72.000053
  0
LINE
  8
0
 10
137.500000
 20
67.500046
 11
127.500000
 21
67.500046
  0
LINE
  8
0
 10
137.500000
 20
69.100052
 11
127.500000
 21
69.100052
  0
LINE
  8
0
 10
137.399994
 20
72.000046
 11
127.500000
 21
72.000046
  0
LINE
  8
0
 10
137.250000
 20
70.400040
 11
127.750000
 21
70.400040
  0
LINE
  8
0
 10
137.500000
 20
69.100060
 11
137.500000
 21
67.500053
  0
LINE
  8
0
 10
137.250000
 20
72.000053
 11
137.250000
 21
70.400047
  0
LINE
  8
0
 10
127.500000
 20
69.100082
 11
127.500000
 21
67.500076
  0
LINE
  8
0
 10
127.750000
 20
72.000076
 11
127.750000
 21
70.400070
  0
LINE
  8
0
 10
135.750000
 20
70.400047
 11
135.750000
 21
69.100060
  0
LINE
  8
0
 10
129.250000
 20
70.400063
 11
129.250000
 21
69.100075
  0
LINE
  8
0
 10
67.500000
 20
73.000046
 11
67.500000
 21
72.000069
  0
LINE
  8
0
 10
61.499996
 20
81.000046
 11
61.499996
 21
94.000038
  0
LINE
  8
0
 10
55.499996
 20
81.000046
 11
55.499996
 21
94.000046
  0
LINE
  8
0
 10
59.035892
 20
87.500046
 11
60.964100
 21
87.500046
  0
LINE
  8
0
 10
55.499996
 20
81.000046
 11
61.499996
 21
81.000046
  0
LINE
  8
0
 10
55.499996
 20
94.000038
 11
61.499996
 21
94.000038
  0
LINE
  8
0
 10
58.499996
 20
81.000046
 11
58.499996
 21
94.000046
  0
LINE
  8
0
 10
56.035892
 20
87.500046
 11
57.964100
 21
87.500046
  0
LINE
  8
0
 10
139.500000
 20
94.000038
 11
133.500000
 21
94.000038
  0
LINE
  8
0
 10
136.500000
 20
81.000046
 11
136.500000
 21
94.000046
  0
LINE
  8
0
 10
139.500000
 20
81.000046
 11
139.500000
 21
94.000046
  0
LINE
  8
0
 10
138.964111
 20
87.500046
 11
137.035904
 21
87.500046
  0
LINE
  8
0
 10
135.964111
 20
87.500046
 11
134.035904
 21
87.500046
  0
LINE
  8
0
 10
139.500000
 20
81.000046
 11
133.500000
 21
81.000046
  0
LINE
  8
0
  6
CENTER
 62
     2
 10
40.515858
 20
87.500046
 11
155.505920
 21
87.500046
  0
LINE
  8
0
 10
64.832565
 20
72.000046
 11
67.500000
 21
72.000046
  0
LINE
  8
0
 10
63.232555
 20
70.400040
 11
67.250000
 21
70.400040
  0
LINE
  8
0
 10
67.500000
 20
-75.591469
 11
127.500000
 21
-75.591469
  0
LINE
  8
0
 62
     2
 10
69.007980
 20
-104.591469
 11
80.259171
 21
-104.591469
  0
LINE
  8
0
 10
128.500092
 20
-92.400810
 11
132.500092
 21
-94.710213
  0
LINE
  8
0
 10
132.500107
 20
-85.472572
 11
136.500092
 21
-87.781960
  0
LINE
  8
0
 10
136.500000
 20
-92.400864
 11
136.500000
 21
-87.782059
  0
LINE
  8
0
 10
128.500015
 20
-92.400879
 11
128.500015
 21
-87.782074
  0
LINE
  8
0
 10
132.500061
 20
-94.710411
 11
136.500076
 21
-92.401001
  0
LINE
  8
0
 10
128.500046
 20
-87.782181
 11
132.500061
 21
-85.472771
  0
LINE
  8
0
 10
135.899994
 20
-86.563034
 11
135.899994
 21
-84.091476
  0
LINE
  8
0
 10
137.399994
 20
-82.591469
 11
127.500000
 21
-82.591469
  0
LINE
  8
0
 10
135.899994
 20
-84.091469
 11
129.100021
 21
-84.091469
  0
LINE
  8
0
 10
129.100021
 20
-86.563019
 11
129.100021
 21
-84.091461
  0
LINE
  8
0
 10
137.400238
 20
-82.591721
 11
135.900238
 21
-84.091728
  0
LINE
  8
0
 10
127.600159
 20
-82.591316
 11
129.100159
 21
-84.091316
  0
LINE
  8
0
 62
     2
 10
125.992035
 20
-104.591469
 11
114.740829
 21
-104.591469
  0
LINE
  8
0
 10
67.499992
 20
-110.591469
 11
127.499992
 21
-110.591469
  0
LINE
  8
0
 10
67.500000
 20
-104.591469
 11
127.500000
 21
-104.591469
  0
LINE
  8
0
 10
81.499962
 20
-104.266975
 11
78.749962
 21
-102.679268
  0
LINE
  8
0
 10
84.250000
 20
-99.503830
 11
81.500008
 21
-97.916122
  0
LINE
  8
0
 10
78.750008
 20
-99.503761
 11
81.500008
 21
-97.916046
  0
LINE
  8
0
 10
81.500008
 20
-104.266899
 11
84.250008
 21
-102.679184
  0
LINE
  8
0
 10
78.750000
 20
-102.679176
 11
78.750000
 21
-99.503746
  0
LINE
  8
0
 10
84.250000
 20
-102.679184
 11
84.250000
 21
-99.503754
  0
LINE
  8
0
 10
110.750000
 20
-102.679184
 11
110.750000
 21
-99.503754
  0
LINE
  8
0
 10
110.749931
 20
-99.503654
 11
113.499939
 21
-97.915947
  0
LINE
  8
0
 10
113.499947
 20
-104.266953
 11
110.749954
 21
-102.679245
  0
LINE
  8
0
 10
113.499947
 20
-104.266830
 11
116.249954
 21
-102.679115
  0
LINE
  8
0
 10
116.250000
 20
-102.679169
 11
116.250000
 21
-99.503754
  0
LINE
  8
0
 10
116.250015
 20
-99.503784
 11
113.500023
 21
-97.916069
  0
LINE
  8
0
 10
113.196167
 20
-104.091469
 11
81.803848
 21
-104.091469
  0
LINE
  8
0
 10
81.500000
 20
-104.091469
 11
74.000000
 21
-104.091469
  0
LINE
  8
0
 10
67.500000
 20
-81.091469
 11
127.500000
 21
-81.091469
  0
LINE
  8
0
 10
137.000000
 20
-92.030548
 11
137.000000
 21
-100.091469
  0
LINE
  8
0
 10
66.499908
 20
-92.400803
 11
62.499905
 21
-94.710205
  0
LINE
  8
0
 10
62.499908
 20
-85.472534
 11
58.499935
 21
-87.781921
  0
LINE
  8
0
 10
58.499992
 20
-92.400841
 11
58.499992
 21
-87.782036
  0
LINE
  8
0
 10
66.499992
 20
-92.400887
 11
66.499992
 21
-87.782082
  0
LINE
  8
0
 10
62.500053
 20
-94.710220
 11
58.500046
 21
-92.400810
  0
LINE
  8
0
 10
66.500015
 20
-87.782089
 11
62.500000
 21
-85.472679
  0
LINE
  8
0
 10
59.099998
 20
-86.563011
 11
59.099998
 21
-84.091454
  0
LINE
  8
0
 10
57.599998
 20
-82.591469
 11
67.500000
 21
-82.591469
  0
LINE
  8
0
 10
59.099998
 20
-84.091469
 11
65.899986
 21
-84.091469
  0
LINE
  8
0
 10
65.899986
 20
-86.563026
 11
65.899986
 21
-84.091469
  0
LINE
  8
0
 10
57.599762
 20
-82.591728
 11
59.099766
 21
-84.091736
  0
LINE
  8
0
 10
67.399834
 20
-82.591309
 11
65.899841
 21
-84.091309
  0
LINE
  8
0
  6
CENTER
 62
     2
 10
97.500000
 20
-71.120262
 11
97.500000
 21
-115.663307
  0
LINE
  8
0
 10
57.999992
 20
-92.030525
 11
57.999992
 21
-100.091461
  0
LINE
  8
0
 10
121.000000
 20
-104.091469
 11
113.803833
 21
-104.091469
  0
LINE
  8
0
 10
67.500000
 20
-93.591469
 11
127.500000
 21
-93.591469
  0
LINE
  8
0
 10
67.500000
 20
-86.591469
 11
127.500000
 21
-86.591469
  0
LINE
  8
0
 10
67.500000
 20
-99.091469
 11
77.500000
 21
-99.091469
  0
LINE
  8
0
 10
127.500000
 20
-99.091469
 11
117.500000
 21
-99.091469
  0
LINE
  8
0
 10
150.599365
 20
-93.291481
 11
150.599365
 21
-86.891487
  0
LINE
  8
0
 10
146.799988
 20
-95.091484
 11
137.000000
 21
-95.091484
  0
LINE
  8
0
 62
     2
 10
147.599976
 20
-94.291466
 11
137.000000
 21
-94.291466
  0
LINE
  8
0
 62
     2
 10
147.599976
 20
-85.891472
 11
137.399994
 21
-85.891472
  0
LINE
  8
0
 10
146.799988
 20
-85.091484
 11
137.399994
 21
-85.091484
  0
LINE
  8
0
 10
151.599976
 20
-86.891487
 11
151.599976
 21
-93.291481
  0
LINE
  8
0
 10
146.800278
 20
-95.091835
 11
147.600266
 21
-94.291840
  0
LINE
  8
0
 10
147.599976
 20
-85.891487
 11
147.599976
 21
-94.291481
  0
LINE
  8
0
 10
146.799988
 20
-85.091484
 11
146.799988
 21
-95.091484
  0
LINE
  8
0
 10
147.599854
 20
-85.891647
 11
146.799850
 21
-85.091637
  0
LINE
  8
0
 10
151.599976
 20
-86.891487
 11
147.599976
 21
-86.891487
  0
LINE
  8
0
 10
151.599976
 20
-93.291481
 11
147.599976
 21
-93.291481
  0
LINE
  8
0
 10
117.500000
 20
-99.091461
 11
117.500000
 21
-104.091461
  0
LINE
  8
0
 10
77.500000
 20
-99.091469
 11
77.500000
 21
-104.091469
  0
LINE
  8
0
 10
121.000000
 20
-99.091461
 11
121.000000
 21
-104.091461
  0
LINE
  8
0
 10
74.000000
 20
-99.091469
 11
74.000000
 21
-104.091469
  0
LINE
  8
0
 10
137.000000
 20
-100.091469
 11
127.500000
 21
-100.091469
  0
LINE
  8
0
 10
57.999992
 20
-100.091469
 11
67.500000
 21
-100.091469
  0
LINE
  8
0
 62
     2
 10
47.400024
 20
-85.891472
 11
57.599998
 21
-85.891472
  0
LINE
  8
0
 10
48.200012
 20
-85.091484
 11
57.599998
 21
-85.091484
  0
LINE
  8
0
 10
48.200012
 20
-85.091476
 11
48.200012
 21
-95.091476
  0
LINE
  8
0
 10
47.400024
 20
-85.891479
 11
47.400024
 21
-94.291473
  0
LINE
  8
0
 10
43.400024
 20
-86.891487
 11
47.400024
 21
-86.891487
  0
LINE
  8
0
 10
44.400635
 20
-93.291473
 11
44.400635
 21
-86.891479
  0
LINE
  8
0
 10
43.400024
 20
-86.891479
 11
43.400024
 21
-93.291473
  0
LINE
  8
0
 10
43.400024
 20
-93.291481
 11
47.400024
 21
-93.291481
  0
LINE
  8
0
 10
48.199726
 20
-95.091843
 11
47.399734
 21
-94.291847
  0
LINE
  8
0
 62
     2
 10
47.400024
 20
-94.291466
 11
57.999992
 21
-94.291466
  0
LINE
  8
0
 10
48.200012
 20
-95.091484
 11
57.999992
 21
-95.091484
  0
LINE
  8
0
  6
CENTER
 62
     2
 10
39.940437
 20
-90.091469
 11
154.863174
 21
-90.091469
  0
LINE
  8
0
  6
CENTER
 62
     2
 10
122.500000
 20
-71.120255
 11
122.500000
 21
-83.369003
  0
LINE
  8
0
  6
CENTER
 62
     2
 10
72.500000
 20
-71.120262
 11
72.500000
 21
-83.725548
  0
LINE
  8
0
  6
CENTER
 62
     2
 10
122.500000
 20
-102.087349
 11
122.500000
 21
-115.663307
  0
LINE
  8
0
  6
CENTER
 62
     2
 10
72.500000
 20
-101.195999
 11
72.500000
 21
-115.663307
  0
LINE
  8
0
 10
127.500000
 20
-104.591461
 11
127.500000
 21
-110.591461
  0
LINE
  8
0
 10
67.500000
 20
-104.591469
 11
67.500000
 21
-110.591476
  0
LINE
  8
0
 10
137.399994
 20
-90.091476
 11
137.399994
 21
-74.591476
  0
LINE
  8
0
 10
137.500015
 20
-70.091469
 11
127.500015
 21
-70.091469
  0
LINE
  8
0
 10
137.500015
 20
-71.691475
 11
127.500008
 21
-71.691475
  0
LINE
  8
0
 10
137.400009
 20
-74.591469
 11
127.500000
 21
-74.591469
  0
LINE
  8
0
 10
137.250015
 20
-72.991463
 11
127.750008
 21
-72.991463
  0
LINE
  8
0
 10
137.500000
 20
-71.691483
 11
137.500000
 21
-70.091476
  0
LINE
  8
0
 10
137.250000
 20
-74.591476
 11
137.250000
 21
-72.991470
  0
LINE
  8
0
 10
127.500008
 20
-71.691475
 11
127.500008
 21
-70.091469
  0
LINE
  8
0
 10
127.750008
 20
-74.591469
 11
127.750008
 21
-72.991455
  0
LINE
  8
0
 10
135.750000
 20
-72.991470
 11
135.750000
 21
-71.691483
  0
LINE
  8
0
 10
129.250015
 20
-72.991463
 11
129.250015
 21
-71.691475
  0
LINE
  8
0
 10
127.500000
 20
-100.091461
 11
127.500000
 21
-74.591461
  0
LINE
  8
0
 10
67.500000
 20
-74.591469
 11
67.500000
 21
-100.091469
  0
LINE
  8
0
 10
57.599998
 20
-90.091454
 11
57.599998
 21
-74.591454
  0
LINE
  8
0
 10
57.500000
 20
-70.091469
 11
67.500000
 21
-70.091469
  0
LINE
  8
0
 10
57.500000
 20
-71.691475
 11
67.499992
 21
-71.691475
  0
LINE
  8
0
 10
57.600006
 20
-74.591469
 11
67.500000
 21
-74.591469
  0
LINE
  8
0
 10
57.750000
 20
-72.991463
 11
67.249992
 21
-72.991463
  0
LINE
  8
0
 10
57.499992
 20
-71.691460
 11
57.499992
 21
-70.091454
  0
LINE
  8
0
 10
57.749992
 20
-74.591454
 11
57.749992
 21
-72.991447
  0
LINE
  8
0
 10
67.499992
 20
-71.691475
 11
67.499992
 21
-70.091469
  0
LINE
  8
0
 10
67.249992
 20
-74.591469
 11
67.249992
 21
-72.991463
  0
LINE
  8
0
 10
59.249992
 20
-72.991447
 11
59.249992
 21
-71.691460
  0
LINE
  8
0
 10
65.749992
 20
-72.991455
 11
65.749992
 21
-71.691467
  0
LINE
  8
0
  6
CENTER
 62
     2
 10
-166.467361
 20
3.000025
 11
-81.169357
 21
3.000025
  0
LINE
  8
0
 10
-154.231079
 20
33.000023
 11
-94.231079
 21
33.000023
  0
LINE
  8
0
 10
-154.231079
 20
-26.999975
 11
-94.231079
 21
-26.999975
  0
LINE
  8
0
 10
-154.231079
 20
-26.999981
 11
-154.231079
 21
33.000019
  0
LINE
  8
0
 10
-94.231079
 20
-26.999969
 11
-94.231079
 21
33.000031
  0
LINE
  8
0
 10
-161.731049
 20
-49.099968
 11
-156.731049
 21
-49.099968
  0
LINE
  8
0
 10
-156.731064
 20
-49.099976
 11
-156.731064
 21
-45.099976
  0
LINE
  8
0
 10
-161.731049
 20
-49.099976
 11
-161.731049
 21
-45.099976
  0
LINE
  8
0
 10
-161.731049
 20
-45.099968
 11
-156.731049
 21
-45.099968
  0
LINE
  8
0
 10
-163.131104
 20
-22.099981
 11
-155.331116
 21
-22.099981
  0
LINE
  8
0
 10
-163.231125
 20
-36.599968
 11
-155.231110
 21
-36.599968
  0
LINE
  8
0
 10
-163.231049
 20
-37.399956
 11
-155.231064
 21
-37.399956
  0
LINE
  8
0
 10
-163.231049
 20
-39.899956
 11
-155.231064
 21
-39.899956
  0
LINE
  8
0
 10
-155.231064
 20
-39.899963
 11
-155.231064
 21
-37.399963
  0
LINE
  8
0
 10
-163.231049
 20
-39.899963
 11
-163.231049
 21
-37.399963
  0
LINE
  8
0
 10
-156.731064
 20
-37.399979
 11
-156.731064
 21
-36.599991
  0
LINE
  8
0
 10
-161.731049
 20
-37.399979
 11
-161.731049
 21
-36.599991
  0
LINE
  8
0
 10
-160.731064
 20
-45.099991
 11
-160.731064
 21
-39.899979
  0
LINE
  8
0
 10
-157.731064
 20
-45.099991
 11
-157.731064
 21
-39.899979
  0
LINE
  8
0
 62
     2
 10
-158.001572
 20
-45.099991
 11
-158.001572
 21
-39.899979
  0
LINE
  8
0
 62
     2
 10
-160.460556
 20
-45.099991
 11
-160.460556
 21
-39.899979
  0
LINE
  8
0
 10
-155.981064
 20
-23.599987
 11
-155.981064
 21
-22.099987
  0
LINE
  8
0
 10
-162.481049
 20
-23.599987
 11
-162.481049
 21
-22.099987
  0
LINE
  8
0
 10
-155.331070
 20
-22.099987
 11
-155.331070
 21
-20.999950
  0
LINE
  8
0
 10
-163.131042
 20
-22.099987
 11
-163.131042
 21
-20.999950
  0
LINE
  8
0
 10
-164.131119
 20
-32.599968
 11
-154.331039
 21
-32.599968
  0
LINE
  8
0
 10
-164.131119
 20
-23.599981
 11
-154.331039
 21
-23.599981
  0
LINE
  8
0
 10
-155.231064
 20
-36.599991
 11
-155.231064
 21
-32.599991
  0
LINE
  8
0
 10
-163.231049
 20
-36.599991
 11
-163.231049
 21
-32.599991
  0
LINE
  8
0
 10
-159.231064
 20
-36.242752
 11
-159.231064
 21
-33.599991
  0
LINE
  8
0
 10
-164.131042
 20
-32.599991
 11
-164.131042
 21
-23.599987
  0
LINE
  8
0
 10
-154.331039
 20
-32.599983
 11
-154.331039
 21
-23.599987
  0
LINE
  8
0
 10
-159.231064
 20
-36.599991
 11
-159.231064
 21
-32.599991
  0
LINE
  8
0
 10
-106.731094
 20
-26.999973
 11
-106.731094
 21
-31.199984
  0
LINE
  8
0
 10
-138.731064
 20
-26.999977
 11
-138.731064
 21
-31.199976
  0
LINE
  8
0
 62
     2
 10
-139.231064
 20
-26.999977
 11
-139.231064
 21
-31.199976
  0
LINE
  8
0
 62
     2
 10
-141.231064
 20
-26.999977
 11
-141.231064
 21
-31.199976
  0
LINE
  8
0
 10
-141.731064
 20
-26.999977
 11
-141.731064
 21
-31.199976
  0
LINE
  8
0
 10
-109.731094
 20
-26.999973
 11
-109.731094
 21
-31.199984
  0
LINE
  8
0
 62
     2
 10
-109.231094
 20
-26.999973
 11
-109.231094
 21
-31.199984
  0
LINE
  8
0
 62
     2
 10
-107.231094
 20
-26.999973
 11
-107.231094
 21
-31.199984
  0
LINE
  8
0
 10
-165.695160
 20
21.928217
 11
-163.766724
 21
21.928217
  0
LINE
  8
0
 10
-165.531067
 20
11.535913
 11
-163.766968
 21
11.535913
  0
LINE
  8
0
 10
-165.695251
 20
8.071802
 11
-163.766907
 21
8.071802
  0
LINE
  8
0
 10
-166.231049
 20
21.000017
 11
-166.231049
 21
9.000017
  0
LINE
  8
0
 10
-165.695404
 20
21.928265
 11
-166.231308
 21
21.000048
  0
LINE
  8
0
 10
-165.695160
 20
18.464136
 11
-163.766968
 21
18.464136
  0
LINE
  8
0
 10
-165.695160
 20
8.071876
 11
-166.231079
 21
9.000114
  0
LINE
  8
0
 10
-163.231079
 20
21.000019
 11
-163.231079
 21
9.000017
  0
LINE
  8
0
 10
-163.766876
 20
8.071885
 11
-163.230988
 21
9.000072
  0
LINE
  8
0
 10
-163.766556
 20
21.928419
 11
-163.230652
 21
21.000175
  0
LINE
  8
0
 10
-173.531097
 20
20.000040
 11
-166.231049
 21
20.000040
  0
LINE
  8
0
 62
     2
 10
-174.331085
 20
19.200022
 11
-166.231049
 21
19.200022
  0
LINE
  8
0
 10
-177.331085
 20
19.200022
 11
-174.331085
 21
19.200022
  0
LINE
  8
0
 62
     2
 10
-174.331085
 20
10.800028
 11
-166.231049
 21
10.800028
  0
LINE
  8
0
 10
-173.531097
 20
10.000040
 11
-166.231049
 21
10.000040
  0
LINE
  8
0
 10
-177.331085
 20
10.800028
 11
-174.331085
 21
10.800028
  0
LINE
  8
0
 10
-178.331085
 20
11.800049
 11
-178.331085
 21
18.200043
  0
LINE
  8
0
 10
-173.531525
 20
20.000587
 11
-174.331512
 21
19.200590
  0
LINE
  8
0
 10
-174.331085
 20
10.800035
 11
-174.331085
 21
19.200027
  0
LINE
  8
0
 10
-173.531097
 20
10.000047
 11
-173.531097
 21
20.000046
  0
LINE
  8
0
 10
-174.330811
 20
10.800323
 11
-173.530807
 21
10.000316
  0
LINE
  8
0
 10
-177.330872
 20
19.199856
 11
-178.330872
 21
18.199856
  0
LINE
  8
0
 10
-177.331085
 20
10.800011
 11
-178.331085
 21
11.800014
  0
LINE
  8
0
 10
-177.330475
 20
19.200012
 11
-177.330475
 21
10.800049
  0
LINE
  8
0
 10
-160.231079
 20
6.500018
 11
-160.231079
 21
25.000017
  0
LINE
  8
0
 10
-154.231079
 20
-20.999975
 11
-163.731079
 21
-20.999975
  0
LINE
  8
0
 10
-163.731079
 20
6.500025
 11
-160.231079
 21
6.500025
  0
LINE
  8
0
 10
-163.731079
 20
6.500018
 11
-163.731079
 21
-20.999981
  0
LINE
  8
0
 10
-160.231079
 20
25.000025
 11
-154.231079
 21
25.000025
  0
LINE
  8
0
 10
-154.231079
 20
21.725519
 11
-160.231079
 21
21.725519
  0
LINE
  8
0
 10
-124.938271
 20
-6.206964
 11
-123.524048
 21
-4.792741
  0
LINE
  8
0
 10
-124.938110
 20
-4.792831
 11
-123.523895
 21
-6.207046
  0
LINE
  8
0
 10
-106.731094
 20
-31.199972
 11
-109.731094
 21
-31.199972
  0
LINE
  8
0
 10
-141.731064
 20
-31.199972
 11
-138.731064
 21
-31.199972
  0
LINE
  8
0
 10
-116.438278
 20
2.293005
 11
-115.024071
 21
3.707218
  0
LINE
  8
0
 10
-115.023895
 20
2.292993
 11
-116.438118
 21
3.707218
  0
LINE
  8
0
 10
-123.523888
 20
10.792995
 11
-124.938103
 21
12.207210
  0
LINE
  8
0
 10
-123.524063
 20
12.207241
 11
-124.938278
 21
10.793028
  0
LINE
  8
0
 10
-132.024063
 20
3.707247
 11
-133.438278
 21
2.293034
  0
LINE
  8
0
 10
-133.438095
 20
3.707200
 11
-132.023880
 21
2.292985
  0
LINE
  8
0
 10
-162.695160
 20
21.928217
 11
-160.766724
 21
21.928217
  0
LINE
  8
0
 10
-162.531067
 20
11.535913
 11
-160.766968
 21
11.535913
  0
LINE
  8
0
 10
-162.695251
 20
8.071802
 11
-160.766907
 21
8.071802
  0
LINE
  8
0
 10
-163.231049
 20
21.000019
 11
-163.231049
 21
9.000017
  0
LINE
  8
0
 10
-162.695358
 20
21.928226
 11
-163.231247
 21
21.000013
  0
LINE
  8
0
 10
-162.695160
 20
18.464136
 11
-160.766968
 21
18.464136
  0
LINE
  8
0
 10
-162.695160
 20
8.071894
 11
-163.231079
 21
9.000133
  0
LINE
  8
0
 10
-160.231079
 20
21.000017
 11
-160.231079
 21
9.000019
  0
LINE
  8
0
 10
-160.766876
 20
8.071883
 11
-160.230988
 21
9.000071
  0
LINE
  8
0
 10
-160.766571
 20
21.928410
 11
-160.230667
 21
21.000168
  0
LINE
  8
0
 10
-135.070663
 20
-0.947386
 11
-144.263138
 21
-4.755038
  0
LINE
  8
0
 10
-134.687958
 20
-1.871314
 11
-143.880463
 21
-5.678975
  0
LINE
  8
0
 10
-129.102570
 20
13.456825
 11
-132.910217
 21
22.649315
  0
LINE
  8
0
 10
-128.178680
 20
13.839488
 11
-131.986343
 21
23.032005
  0
LINE
  8
0
 10
-86.731094
 20
-49.099968
 11
-91.731079
 21
-49.099968
  0
LINE
  8
0
 10
-91.731094
 20
-49.099960
 11
-91.731094
 21
-45.099960
  0
LINE
  8
0
 10
-86.731102
 20
-49.099960
 11
-86.731102
 21
-45.099960
  0
LINE
  8
0
 10
-86.731094
 20
-45.099968
 11
-91.731079
 21
-45.099968
  0
LINE
  8
0
 10
-85.331032
 20
-22.099981
 11
-93.131027
 21
-22.099981
  0
LINE
  8
0
 10
-85.231033
 20
-36.599968
 11
-93.231033
 21
-36.599968
  0
LINE
  8
0
 10
-85.231094
 20
-37.399956
 11
-93.231087
 21
-37.399956
  0
LINE
  8
0
 10
-85.231094
 20
-39.899956
 11
-93.231087
 21
-39.899956
  0
LINE
  8
0
 10
-93.231094
 20
-39.899948
 11
-93.231094
 21
-37.399948
  0
LINE
  8
0
 10
-85.231102
 20
-39.899948
 11
-85.231102
 21
-37.399948
  0
LINE
  8
0
 10
-91.731094
 20
-37.399963
 11
-91.731094
 21
-36.599976
  0
LINE
  8
0
 10
-86.731102
 20
-37.399963
 11
-86.731102
 21
-36.599976
  0
LINE
  8
0
 10
-87.731094
 20
-45.099976
 11
-87.731094
 21
-39.899963
  0
LINE
  8
0
 10
-90.731094
 20
-45.099976
 11
-90.731094
 21
-39.899963
  0
LINE
  8
0
 62
     2
 10
-90.460587
 20
-45.099976
 11
-90.460587
 21
-39.899963
  0
LINE
  8
0
 62
     2
 10
-88.001602
 20
-45.099976
 11
-88.001602
 21
-39.899963
  0
LINE
  8
0
 10
-92.481094
 20
-23.599976
 11
-92.481094
 21
-22.099976
  0
LINE
  8
0
 10
-85.981102
 20
-23.599976
 11
-85.981102
 21
-22.099976
  0
LINE
  8
0
 10
-93.131088
 20
-22.099976
 11
-93.131088
 21
-20.999939
  0
LINE
  8
0
 10
-85.331108
 20
-22.099976
 11
-85.331108
 21
-20.999939
  0
LINE
  8
0
 10
-84.331039
 20
-32.599968
 11
-94.131104
 21
-32.599968
  0
LINE
  8
0
 10
-84.331039
 20
-23.599981
 11
-94.131104
 21
-23.599981
  0
LINE
  8
0
 10
-93.231094
 20
-36.599976
 11
-93.231094
 21
-32.599976
  0
LINE
  8
0
 10
-85.231102
 20
-36.599976
 11
-85.231102
 21
-32.599976
  0
LINE
  8
0
 10
-89.231094
 20
-36.242737
 11
-89.231094
 21
-33.599976
  0
LINE
  8
0
 10
-84.331108
 20
-32.599976
 11
-84.331108
 21
-23.599976
  0
LINE
  8
0
 10
-94.131119
 20
-32.599976
 11
-94.131119
 21
-23.599976
  0
LINE
  8
0
 10
-89.231094
 20
-36.599976
 11
-89.231094
 21
-32.599976
  0
LINE
  8
0
 10
-82.767021
 20
21.928217
 11
-84.695442
 21
21.928217
  0
LINE
  8
0
 10
-82.931099
 20
11.535913
 11
-84.695190
 21
11.535913
  0
LINE
  8
0
 10
-82.766914
 20
8.071802
 11
-84.695251
 21
8.071802
  0
LINE
  8
0
 10
-82.231117
 20
21.000032
 11
-82.231117
 21
9.000032
  0
LINE
  8
0
 10
-82.766777
 20
21.928305
 11
-82.230873
 21
21.000097
  0
LINE
  8
0
 10
-82.767021
 20
18.464136
 11
-84.695198
 21
18.464136
  0
LINE
  8
0
 10
-82.767014
 20
8.071873
 11
-82.231094
 21
9.000112
  0
LINE
  8
0
 10
-85.231079
 20
21.000031
 11
-85.231079
 21
9.000032
  0
LINE
  8
0
 10
-84.695274
 20
8.071887
 11
-85.231163
 21
9.000080
  0
LINE
  8
0
 10
-84.695633
 20
21.928387
 11
-85.231552
 21
21.000145
  0
LINE
  8
0
 10
-74.931084
 20
20.000040
 11
-82.231125
 21
20.000040
  0
LINE
  8
0
 62
     2
 10
-71.131088
 20
19.200022
 11
-82.231125
 21
19.200022
  0
LINE
  8
0
 62
     2
 10
-71.131081
 20
10.800028
 11
-82.231117
 21
10.800028
  0
LINE
  8
0
 10
-74.931068
 20
10.000040
 11
-82.231117
 21
10.000040
  0
LINE
  8
0
 10
-70.131081
 20
11.800068
 11
-70.131081
 21
18.200062
  0
LINE
  8
0
 10
-74.930626
 20
20.000593
 11
-74.130646
 21
19.200607
  0
LINE
  8
0
 10
-74.131081
 20
10.800052
 11
-74.131081
 21
19.200047
  0
LINE
  8
0
 10
-74.931068
 20
10.000064
 11
-74.931068
 21
20.000065
  0
LINE
  8
0
 10
-74.131294
 20
10.800347
 11
-74.931297
 21
10.000340
  0
LINE
  8
0
 10
-71.131287
 20
19.199875
 11
-70.131279
 21
18.199875
  0
LINE
  8
0
 10
-71.131050
 20
10.800001
 11
-70.131027
 21
11.800026
  0
LINE
  8
0
 10
-71.131081
 20
19.200047
 11
-71.131081
 21
10.799993
  0
LINE
  8
0
 10
-88.231079
 20
6.500031
 11
-88.231079
 21
25.000032
  0
LINE
  8
0
 10
-94.231064
 20
-20.999975
 11
-84.731056
 21
-20.999975
  0
LINE
  8
0
 10
-84.731071
 20
6.500025
 11
-88.231079
 21
6.500025
  0
LINE
  8
0
 10
-84.731071
 20
6.500031
 11
-84.731071
 21
-20.999969
  0
LINE
  8
0
 10
-88.231087
 20
25.000025
 11
-94.231079
 21
25.000025
  0
LINE
  8
0
 10
-94.231079
 20
21.725519
 11
-88.231087
 21
21.725519
  0
LINE
  8
0
 10
-85.767021
 20
21.928217
 11
-87.695442
 21
21.928217
  0
LINE
  8
0
 10
-85.931099
 20
11.535913
 11
-87.695190
 21
11.535913
  0
LINE
  8
0
 10
-85.766914
 20
8.071802
 11
-87.695251
 21
8.071802
  0
LINE
  8
0
 10
-85.231117
 20
21.000031
 11
-85.231117
 21
9.000032
  0
LINE
  8
0
 10
-85.766777
 20
21.928268
 11
-85.230873
 21
21.000061
  0
LINE
  8
0
 10
-85.767021
 20
18.464136
 11
-87.695198
 21
18.464136
  0
LINE
  8
0
 10
-85.767014
 20
8.071885
 11
-85.231094
 21
9.000124
  0
LINE
  8
0
 10
-87.695282
 20
8.071917
 11
-88.231171
 21
9.000104
  0
LINE
  8
0
 10
-87.695641
 20
21.928375
 11
-88.231544
 21
21.000158
  0
LINE
  8
0
  6
CENTER
 62
     2
 10
-124.231079
 20
-31.207602
 11
-124.231079
 21
35.751839
  0
LINE
  8
0
  6
CENTER
 62
     2
 10
-104.014900
 20
27.999994
 11
-94.175636
 21
27.999994
  0
LINE
  8
0
  6
CENTER
 62
     2
 10
-127.231079
 20
-21.999975
 11
-121.231079
 21
-21.999975
  0
LINE
  8
0
  6
CENTER
 62
     2
 10
-127.231079
 20
27.999994
 11
-121.231079
 21
27.999994
  0
LINE
  8
0
  6
CENTER
 62
     2
 10
-149.231049
 20
0.000020
 11
-149.231049
 21
6.000020
  0
LINE
  8
0
  6
CENTER
 62
     2
 10
-99.231071
 20
22.682070
 11
-99.231071
 21
33.562027
  0
LINE
  8
0
  6
CENTER
 62
     2
 10
-99.231079
 20
0.000029
 11
-99.231079
 21
6.000030
  0
LINE
  8
0
  6
CENTER
 62
     2
 10
-99.231071
 20
-16.682013
 11
-99.231071
 21
-27.561968
  0
LINE
  8
0
  6
CENTER
 62
     2
 10
-104.014893
 20
-21.999945
 11
-94.175621
 21
-21.999945
  0
LINE
  8
0
  6
CENTER
 62
     2
 10
-144.447250
 20
-21.999945
 11
-154.286514
 21
-21.999945
  0
LINE
  8
0
  6
CENTER
 62
     2
 10
-149.231079
 20
-16.682020
 11
-149.231079
 21
-27.561975
  0
LINE
  8
0
  6
CENTER
 62
     2
 10
-149.231079
 20
22.682062
 11
-149.231079
 21
33.562016
  0
LINE
  8
0
  6
CENTER
 62
     2
 10
-144.447266
 20
27.999994
 11
-154.286530
 21
27.999994
  0
ARC
  8
0
 10
58.432999
 20
9.803832
 40
3.066969
 50
325.615387
 51
34.384254
  0
ARC
  8
0
 10
133.433044
 20
20.196171
 40
3.066975
 50
325.615875
 51
34.384613
  0
ARC
  8
0
 10
61.566956
 20
20.196167
 40
3.066971
 50
145.615341
 51
214.384216
  0
ARC
  8
0
 10
61.566956
 20
9.803832
 40
3.066969
 50
145.615768
 51
214.384644
  0
ARC
  8
0
 10
133.433044
 20
9.803868
 40
3.066973
 50
325.615387
 51
34.384144
  0
ARC
  8
0
 10
144.964172
 20
15.000006
 40
11.464125
 50
162.412003
 51
197.587967
  0
ARC
  8
0
 10
136.567017
 20
20.196173
 40
3.066973
 50
145.615417
 51
214.384155
  0
ARC
  8
0
 10
125.035896
 20
15.000004
 40
11.464130
 50
342.412048
 51
17.588005
  0
ARC
  8
0
 10
136.567017
 20
9.803868
 40
3.066975
 50
145.615875
 51
214.384613
  0
ARC
  8
0
 10
58.566956
 20
20.196165
 40
3.066971
 50
145.615341
 51
214.384216
  0
ARC
  8
0
 10
55.432999
 20
9.803831
 40
3.066969
 50
325.615387
 51
34.384254
  0
ARC
  8
0
 10
55.432999
 20
20.196165
 40
3.066972
 50
325.615845
 51
34.384682
  0
ARC
  8
0
 10
66.964111
 20
15.000000
 40
11.464130
 50
162.412048
 51
197.588013
  0
ARC
  8
0
 10
47.035843
 20
14.999998
 40
11.464131
 50
342.412018
 51
17.587976
  0
ARC
  8
0
 10
58.566956
 20
9.803832
 40
3.066969
 50
145.615768
 51
214.384644
  0
ARC
  8
0
 10
60.500011
 20
-30.823305
 40
5.776709
 50
249.743835
 51
290.256195
  0
CIRCLE
  8
0
 10
62.500011
 20
-28.600006
 40
2.000000
  0
ARC
  8
0
 10
64.500015
 20
-30.823305
 40
5.776710
 50
249.743805
 51
290.256134
  0
CIRCLE
  8
0
 10
62.500011
 20
-28.600006
 40
5.000000
  0
ARC
  8
0
 10
97.500000
 20
27.000002
 40
3.000000
 50
180.000031
 51
0.000036
  0
CIRCLE
  8
0
 62
     2
 10
122.500008
 20
28.000004
 40
2.000000
  0
CIRCLE
  8
0
 10
122.500008
 20
28.000004
 40
1.200000
  0
CIRCLE
  8
0
 10
97.500000
 20
-21.999998
 40
3.000000
  0
CIRCLE
  8
0
 10
97.500000
 20
3.000002
 40
10.000000
  0
CIRCLE
  8
0
 62
     2
 10
122.500008
 20
-21.999996
 40
2.000000
  0
CIRCLE
  8
0
 10
122.500008
 20
-21.999996
 40
1.200000
  0
CIRCLE
  8
0
 62
     2
 10
72.499992
 20
28.000000
 40
2.000000
  0
CIRCLE
  8
0
 10
72.499992
 20
28.000000
 40
1.200000
  0
CIRCLE
  8
0
 62
     2
 10
72.499992
 20
-22.000000
 40
2.000000
  0
CIRCLE
  8
0
 10
72.499992
 20
-22.000000
 40
1.200000
  0
ARC
  8
0
 10
128.035889
 20
15.000004
 40
11.464137
 50
342.412048
 51
17.588017
  0
ARC
  8
0
 10
139.567017
 20
20.196173
 40
3.066973
 50
145.615417
 51
214.384155
  0
ARC
  8
0
 10
136.433044
 20
20.196173
 40
3.066975
 50
325.615875
 51
34.384613
  0
ARC
  8
0
 10
139.567017
 20
9.803869
 40
3.066975
 50
145.615875
 51
214.384613
  0
ARC
  8
0
 10
147.964172
 20
15.000006
 40
11.464125
 50
162.412003
 51
197.587967
  0
ARC
  8
0
 10
136.433044
 20
9.803868
 40
3.066973
 50
325.615387
 51
34.384144
  0
ARC
  8
0
 10
130.500000
 20
-30.823298
 40
5.776712
 50
249.743851
 51
290.256165
  0
CIRCLE
  8
0
 10
132.500000
 20
-28.600002
 40
5.000000
  0
ARC
  8
0
 10
134.500000
 20
-30.823298
 40
5.776709
 50
249.743835
 51
290.256165
  0
CIRCLE
  8
0
 10
132.500000
 20
-28.600002
 40
2.000000
  0
ARC
  8
0
 10
50.035843
 20
14.999998
 40
11.464131
 50
342.412018
 51
17.587976
  0
ARC
  8
0
 10
69.964111
 20
15.000000
 40
11.464130
 50
162.412048
 51
197.588013
  0
ARC
  8
0
 10
58.432999
 20
20.196165
 40
3.066972
 50
325.615845
 51
34.384682
  0
CIRCLE
  8
0
 10
-12.161394
 20
14.999928
 40
5.000000
  0
CIRCLE
  8
0
 62
     2
 10
-12.161394
 20
14.999928
 40
4.200000
  0
CIRCLE
  8
0
 10
-12.161394
 20
14.999928
 40
6.500000
  0
ARC
  8
0
 10
-15.625460
 20
-34.555408
 40
2.044655
 50
235.615723
 51
304.384430
  0
ARC
  8
0
 10
-8.697237
 20
-34.555405
 40
2.044657
 50
235.615662
 51
304.384308
  0
ARC
  8
0
 10
-12.161352
 20
-28.957354
 40
7.642726
 50
252.412003
 51
287.587982
  0
ARC
  8
0
 10
-25.561354
 20
-21.010080
 40
0.890001
 50
205.989441
 51
334.010620
  0
ARC
  8
0
 10
-23.161362
 20
-19.090080
 40
2.810009
 50
235.292068
 51
304.707977
  0
ARC
  8
0
 10
-20.761366
 20
-21.010075
 40
0.890001
 50
205.989441
 51
334.010437
  0
ARC
  8
0
 62
     4
 10
-12.161400
 20
29.449923
 40
3.050000
 50
10.388952
 51
169.611115
  0
CIRCLE
  8
0
 62
     4
 10
97.499992
 20
87.500031
 40
2.600000
  0
CIRCLE
  8
0
 62
     4
 10
87.499992
 20
87.500046
 40
2.600000
  0
ARC
  8
0
 62
     4
 10
73.875427
 20
98.200089
 40
3.000003
 50
225.000000
 51
270.000000
  0
ARC
  8
0
 62
     4
 10
74.075424
 20
98.000092
 40
7.000002
 50
225.000046
 51
270.000000
  0
ARC
  8
0
 62
     4
 10
73.875397
 20
76.800095
 40
3.000000
 50
90.000000
 51
135.000000
  0
ARC
  8
0
 62
     4
 10
74.075394
 20
77.000092
 40
7.000000
 50
90.000061
 51
135.000000
  0
ARC
  8
0
 10
68.622925
 20
84.250046
 40
10.122935
 50
161.273331
 51
198.726669
  0
ARC
  8
0
 10
51.377064
 20
84.250046
 40
10.122933
 50
341.273285
 51
18.726583
  0
ARC
  8
0
 10
68.622925
 20
90.750046
 40
10.122933
 50
161.273285
 51
198.726624
  0
ARC
  8
0
 10
51.377064
 20
90.750046
 40
10.122933
 50
341.273407
 51
18.726671
  0
ARC
  8
0
 10
48.377064
 20
90.750046
 40
10.122933
 50
341.273407
 51
18.726671
  0
ARC
  8
0
 10
65.622925
 20
84.250046
 40
10.122935
 50
161.273331
 51
198.726669
  0
ARC
  8
0
 10
48.377064
 20
84.250046
 40
10.122933
 50
341.273285
 51
18.726583
  0
ARC
  8
0
 10
65.622925
 20
90.750046
 40
10.122933
 50
161.273285
 51
198.726624
  0
ARC
  8
0
 10
143.622940
 20
90.750046
 40
10.122935
 50
161.273331
 51
198.726624
  0
ARC
  8
0
 10
126.377075
 20
90.750046
 40
10.122930
 50
341.273407
 51
18.726713
  0
ARC
  8
0
 10
146.622940
 20
90.750046
 40
10.122935
 50
161.273331
 51
198.726624
  0
ARC
  8
0
 10
129.377075
 20
90.750046
 40
10.122930
 50
341.273407
 51
18.726713
  0
ARC
  8
0
 10
129.377075
 20
84.250046
 40
10.122932
 50
341.273376
 51
18.726671
  0
ARC
  8
0
 10
146.622940
 20
84.250046
 40
10.122928
 50
161.273453
 51
198.726715
  0
ARC
  8
0
 10
126.377075
 20
84.250046
 40
10.122932
 50
341.273376
 51
18.726671
  0
ARC
  8
0
 10
143.622940
 20
84.250046
 40
10.122928
 50
161.273453
 51
198.726715
  0
CIRCLE
  8
0
 62
     2
 10
113.500000
 20
-101.091469
 40
1.000000
  0
CIRCLE
  8
0
 10
113.500000
 20
-101.091469
 40
1.500000
  0
CIRCLE
  8
0
 10
62.499992
 20
-90.091461
 40
4.900000
  0
CIRCLE
  8
0
 10
62.499992
 20
-90.091461
 40
4.000000
  0
CIRCLE
  8
0
 10
62.499992
 20
-90.091461
 40
2.500000
  0
CIRCLE
  8
0
 10
132.500000
 20
-90.091476
 40
2.500000
  0
CIRCLE
  8
0
 10
132.500000
 20
-90.091476
 40
4.000000
  0
CIRCLE
  8
0
 10
132.500000
 20
-90.091476
 40
4.900000
  0
CIRCLE
  8
0
 10
81.500000
 20
-101.091469
 40
1.500000
  0
CIRCLE
  8
0
 62
     2
 10
81.500000
 20
-101.091469
 40
1.000000
  0
CIRCLE
  8
0
 10
91.500000
 20
-101.091469
 40
1.000000
  0
CIRCLE
  8
0
 62
     2
 10
91.500000
 20
-101.091469
 40
1.500000
  0
CIRCLE
  8
0
 10
81.500000
 20
-101.091469
 40
2.750000
  0
CIRCLE
  8
0
 10
113.500000
 20
-101.091469
 40
2.750000
  0
ARC
  8
0
 10
-82.164101
 20
9.803896
 40
3.066970
 50
145.615753
 51
214.384567
  0
ARC
  8
0
 10
-73.766953
 20
15.000033
 40
11.464129
 50
162.411926
 51
197.587875
  0
ARC
  8
0
 10
-85.298065
 20
9.803896
 40
3.066969
 50
325.615265
 51
34.384182
  0
ARC
  8
0
 10
-85.298065
 20
20.196198
 40
3.066971
 50
325.615723
 51
34.384556
  0
ARC
  8
0
 10
-85.164101
 20
9.803896
 40
3.066970
 50
145.615753
 51
214.384567
  0
ARC
  8
0
 10
-93.695221
 20
15.000031
 40
11.464134
 50
342.411987
 51
17.587940
  0
ARC
  8
0
 10
-88.298065
 20
9.803894
 40
3.066969
 50
325.615265
 51
34.384182
  0
CIRCLE
  8
0
 62
     2
 10
-108.987099
 20
9.314328
 40
4.000000
  0
CIRCLE
  8
0
 10
-149.231079
 20
27.999990
 40
2.250000
  0
CIRCLE
  8
0
 10
-99.231079
 20
3.000029
 40
2.000000
  0
CIRCLE
  8
0
 10
-149.231079
 20
-21.999979
 40
2.250000
  0
CIRCLE
  8
0
 10
-99.231079
 20
-21.999971
 40
2.250000
  0
CIRCLE
  8
0
 10
-149.231049
 20
3.000020
 40
2.000000
  0
CIRCLE
  8
0
 10
-124.231079
 20
27.999994
 40
2.000000
  0
CIRCLE
  8
0
 10
-124.231079
 20
-21.999975
 40
2.000000
  0
CIRCLE
  8
0
 10
-99.231079
 20
27.999998
 40
2.250000
  0
CIRCLE
  8
0
 62
     2
 10
-130.545319
 20
-12.243996
 40
4.000000
  0
CIRCLE
  8
0
 62
     2
 10
-139.475098
 20
9.314261
 40
4.000000
  0
CIRCLE
  8
0
 62
     2
 10
-117.916847
 20
18.244030
 40
4.000000
  0
CIRCLE
  8
0
 10
-124.231079
 20
3.000025
 40
22.000000
  0
ARC
  8
0
 10
-161.231094
 20
-30.823236
 40
5.776712
 50
249.743851
 51
290.256165
  0
ARC
  8
0
 10
-157.231094
 20
-30.823236
 40
5.776709
 50
249.743835
 51
290.256165
  0
ARC
  8
0
 10
-166.298050
 20
20.196184
 40
3.066976
 50
325.615845
 51
34.384583
  0
ARC
  8
0
 10
-163.164093
 20
20.196186
 40
3.066974
 50
145.615387
 51
214.384155
  0
ARC
  8
0
 10
-166.298065
 20
9.803881
 40
3.066974
 50
325.615387
 51
34.384129
  0
ARC
  8
0
 10
-174.695221
 20
15.000016
 40
11.464137
 50
342.412079
 51
17.588003
  0
ARC
  8
0
 10
-163.164093
 20
9.803881
 40
3.066975
 50
145.615860
 51
214.384598
  0
ARC
  8
0
 10
-154.766937
 20
15.000019
 40
11.464126
 50
162.411987
 51
197.587967
  0
CIRCLE
  8
0
 10
-124.231079
 20
3.000025
 40
1.500000
  0
CIRCLE
  8
0
 10
-124.231079
 20
3.000025
 40
11.300000
  0
CIRCLE
  8
0
 10
-124.231079
 20
3.000025
 40
5.500000
  0
CIRCLE
  8
0
 10
-124.231079
 20
-5.499975
 40
2.400000
  0
CIRCLE
  8
0
 10
-132.731079
 20
3.000023
 40
2.400000
  0
CIRCLE
  8
0
 10
-124.231079
 20
11.500025
 40
2.400000
  0
CIRCLE
  8
0
 10
-115.731079
 20
3.000026
 40
2.400000
  0
CIRCLE
  8
0
 62
     2
 10
-117.916763
 20
-12.243961
 40
4.000000
  0
CIRCLE
  8
0
 62
     2
 10
-108.987061
 20
-3.314212
 40
4.000000
  0
ARC
  8
0
 10
-160.164093
 20
9.803883
 40
3.066975
 50
145.615860
 51
214.384598
  0
ARC
  8
0
 10
-163.298065
 20
9.803881
 40
3.066974
 50
325.615387
 51
34.384129
  0
ARC
  8
0
 10
-151.766937
 20
15.000020
 40
11.464126
 50
162.411987
 51
197.587967
  0
ARC
  8
0
 10
-163.298050
 20
20.196186
 40
3.066976
 50
325.615845
 51
34.384583
  0
ARC
  8
0
 10
-160.164093
 20
20.196184
 40
3.066974
 50
145.615387
 51
214.384155
  0
ARC
  8
0
 10
-171.695221
 20
15.000016
 40
11.464137
 50
342.412079
 51
17.588003
  0
CIRCLE
  8
0
 10
-139.475464
 20
-3.313333
 40
5.000000
  0
CIRCLE
  8
0
 10
-130.544479
 20
18.244392
 40
5.000000
  0
ARC
  8
0
 10
-88.298065
 20
20.196199
 40
3.066971
 50
325.615723
 51
34.384556
  0
ARC
  8
0
 10
-96.695221
 20
15.000030
 40
11.464134
 50
342.411987
 51
17.587946
  0
ARC
  8
0
 10
-76.766953
 20
15.000033
 40
11.464129
 50
162.411926
 51
197.587875
  0
ARC
  8
0
 10
-85.164108
 20
20.196198
 40
3.066969
 50
145.615280
 51
214.384186
  0
ARC
  8
0
 10
-87.231064
 20
-30.823229
 40
5.776708
 50
249.743759
 51
290.256073
  0
ARC
  8
0
 10
-91.231064
 20
-30.823229
 40
5.776711
 50
249.743774
 51
290.256134
  0
ARC
  8
0
 10
-82.164108
 20
20.196199
 40
3.066969
 50
145.615280
 51
214.384186
  0
CIRCLE
  8
0
  6
DASHED
 62
     2
 10
-99.231079
 20
27.999998
 40
4.000000
  0
CIRCLE
  8
0
  6
DASHED
 62
     2
 10
-99.231071
 20
-21.999941
 40
4.000000
  0
CIRCLE
  8
0
  6
DASHED
 62
     2
 10
-149.231079
 20
-21.999949
 40
4.000000
  0
CIRCLE
  8
0
  6
DASHED
 62
     2
 10
-149.231079
 20
27.999990
 40
4.000000
  0
CIRCLE
  8
0
 10
-108.987061
 20
-3.314212
 40
3.500000
  0
CIRCLE
  8
0
 10
-130.545319
 20
-12.243996
 40
3.500000
  0
CIRCLE
  8
0
 10
-117.916763
 20
-12.243961
 40
3.500000
  0
CIRCLE
  8
0
 10
-139.475098
 20
9.314261
 40
3.500000
  0
CIRCLE
  8
0
 10
-117.916847
 20
18.244030
 40
3.500000
  0
CIRCLE
  8
0
 10
-108.987099
 20
9.314328
 40
3.500000
  0
TEXT
  8
0
 10
115.907150
 20
122.050003
 40
4.500000
  1
DATE : MAY ,1993
 50
0.000000
 41
1.052631
 51
0.000000
  7
STANDARD
  0
TEXT
  8
0
 10
113.700279
 20
-130.669998
 40
6.300000
  1
KOGANEI CORP.
 50
0.000000
 41
1.052632
 51
0.000000
  7
STANDARD
  0
TEXT
  8
0
 10
-185.892654
 20
122.050003
 40
4.500000
  1
HANDLING MODULE
 50
0.000000
 41
1.052632
 51
0.000000
  7
STANDARD
  0
TEXT
  8
0
 10
-186.892654
 20
104.550003
 40
4.500000
  1
MODEL:SHM21S-NA
 50
0.000000
 41
1.052632
 51
0.000000
  7
STANDARD
  0
ENDSEC
  0
EOF
