  0
SECTION
  2
HEADER
  0
ENDSEC
  0
SECTION
  2
TABLES
  0
TABLE
  2
LTYPE
 70
     4
  0
LTYPE
  2
CONTINUOUS
 70
    64
  3
Solid line
 72
    65
 73
     0
 40
0.000000
  0
LTYPE
  2
DASHED
 70
    64
  3
__ __ __ __ __ __ __ __ __ __ __ __ __ __ __
 72
    65
 73
     2
 40
3.500000
 49
2.000000
 49
-1.500000
  0
LTYPE
  2
CENTER
 70
    64
  3
____ _ ____ _ ____ _ ____ _ ____ _ ____ _ ____
 72
    65
 73
     4
 40
17.500000
 49
13.000000
 49
-1.500000
 49
1.500000
 49
-1.500000
  0
LTYPE
  2
PHANTOM
 70
    64
  3
_____ _ _ _____ _ _ _____ _ _ _____ _ _ ____  
 72
    65
 73
     6
 40
15.500000
 49
8.000000
 49
-1.500000
 49
1.500000
 49
-1.500000
 49
1.500000
 49
-1.500000
  0
LTYPE
  2
DASHED1
 70
    64
  3
__ __ __ __ __ __ __ __ __ __ __ __ __ __ __
 72
    65
 73
     2
 40
1.500000
 49
1.000000
 49
-0.500000
  0
LTYPE
  2
DASHED2
 70
    64
  3
__ __ __ __ __ __ __ __ __ __ __ __ __ __ __
 72
    65
 73
     2
 40
3.500000
 49
2.500000
 49
-1.000000
  0
LTYPE
  2
DASHED3
 70
    64
  3
__ __ __ __ __ __ __ __ __ __ __ __ __ __ __
 72
    65
 73
     2
 40
6.000000
 49
4.000000
 49
-2.000000
  0
LTYPE
  2
DASHED4
 70
    64
  3
__ __ __ __ __ __ __ __ __ __ __ __ __ __ __
 72
    65
 73
     2
 40
12.000000
 49
10.000000
 49
-2.000000
  0
LTYPE
  2
DASHED5
 70
    64
  3
__ __ __ __ __ __ __ __ __ __ __ __ __ __ __
 72
    65
 73
     2
 40
17.000000
 49
15.000000
 49
-2.000000
  0
LTYPE
  2
DASHED6
 70
    64
  3
__ __ __ __ __ __ __ __ __ __ __ __ __ __ __
 72
    65
 73
     2
 40
29.000000
 49
27.000000
 49
-2.000000
  0
LTYPE
  2
PHANTOM1
 70
    64
  3
_____ _ _ _____ _ _ _____ _ _ _____ _ _ ____  
 72
    65
 73
     6
 40
31.000000
 49
25.000000
 49
-1.500000
 49
1.000000
 49
-1.000000
 49
1.000000
 49
-1.500000
  0
LTYPE
  2
PHANTOM2
 70
    64
  3
_____ _ _ _____ _ _ _____ _ _ _____ _ _ ____  
 72
    65
 73
     6
 40
36.000000
 49
27.000000
 49
-1.500000
 49
2.500000
 49
-1.000000
 49
2.500000
 49
-1.500000
  0
LTYPE
  2
PHANTOM3
 70
    64
  3
_____ _ _ _____ _ _ _____ _ _ _____ _ _ ____  
 72
    65
 73
     6
 40
78.000000
 49
64.000000
 49
-2.000000
 49
4.000000
 49
-2.000000
 49
4.000000
 49
-2.000000
  0
LTYPE
  2
CENTER1
 70
    64
  3
____ _ ____ _ ____ _ ____ _ ____ _ ____ _ ____
 72
    65
 73
     4
 40
19.000000
 49
14.000000
 49
-1.000000
 49
3.000000
 49
-1.000000
  0
LTYPE
  2
CENTER2
 70
    64
  3
____ _ ____ _ ____ _ ____ _ ____ _ ____ _ ____
 72
    65
 73
     4
 40
28.500000
 49
25.000000
 49
-1.000000
 49
1.500000
 49
-1.000000
  0
LTYPE
  2
CENTER3
 70
    64
  3
____ _ ____ _ ____ _ ____ _ ____ _ ____ _ ____
 72
    65
 73
     4
 40
31.500000
 49
27.000000
 49
-1.000000
 49
2.500000
 49
-1.000000
  0
LTYPE
  2
CENTER4
 70
    64
  3
____ _ ____ _ ____ _ ____ _ ____ _ ____ _ ____
 72
    65
 73
     4
 40
50.000000
 49
45.000000
 49
-1.000000
 49
3.000000
 49
-1.000000
  0
LTYPE
  2
CENTER5
 70
    64
  3
____ _ ____ _ ____ _ ____ _ ____ _ ____ _ ____
 72
    65
 73
     4
 40
100.000000
 49
92.000000
 49
-2.000000
 49
4.000000
 49
-2.000000
  0
LTYPE
  2
SBK1
 70
    64
  3
______ _ _ _ ______ _ _ _ ______ _ _ _ _____  
 72
    65
 73
     8
 40
60.500000
 49
45.000000
 49
-2.000000
 49
2.500000
 49
-2.000000
 49
2.500000
 49
-2.000000
 49
2.500000
 49
-2.000000
  0
LTYPE
  2
SBK2
 70
    64
  3
______ _ _ _ ______ _ _ _ ______ _ _ _ _____  
 72
    65
 73
     8
 40
84.000000
 49
64.000000
 49
-2.000000
 49
4.000000
 49
-2.000000
 49
4.000000
 49
-2.000000
 49
4.000000
 49
-2.000000
  0
LTYPE
  2
STCH
 70
    64
  3
__ __ __ __ __ __ __ __ __ __ __ __ __ __ __
 72
    65
 73
     2
 40
3.000000
 49
1.000000
 49
-2.000000
  0
LTYPE
  2
MTCH
 70
    64
  3
_____ _ _ _____ _ _ _____ _ _ _____ _ _ ____  
 72
    65
 73
     6
 40
80.000000
 49
66.000000
 49
-2.000000
 49
4.000000
 49
-2.000000
 49
4.000000
 49
-2.000000
  0
ENDTAB
  0
TABLE
  2
LAYER
 70
     1
  0
LAYER
  2
0
 70
     0
 62
     7
  6
CONTINUOUS
  0
ENDTAB
  0
TABLE
  2
STYLE
 70
     1
  0
STYLE
  2
STANDARD
 70
     0
 40
0.000000
 41
1.000000
 50
0.000000
 71
     0
 42
0.200000
  3
txt
  4
BIGFONT
  0
ENDTAB
  0
TABLE
  2
VIEW
 70
     0
  0
ENDTAB
  0
ENDSEC
  0
SECTION
  2
BLOCKS
  0
ENDSEC
  0
SECTION
  2
ENTITIES
  0
LINE
  8
0
 10
-194.250000
 20
132.600006
 11
194.800003
 21
132.600006
  0
LINE
  8
0
 10
194.800003
 20
132.600006
 11
194.800003
 21
-133.500000
  0
LINE
  8
0
 10
-194.250000
 20
132.600006
 11
-194.250000
 21
-133.500000
  0
LINE
  8
0
 10
-194.250000
 20
-133.500000
 11
194.800003
 21
-133.500000
  0
LINE
  8
0
 10
109.800003
 20
-118.500000
 11
109.800003
 21
-133.500000
  0
LINE
  8
0
 10
109.800003
 20
-118.500000
 11
194.800003
 21
-118.500000
  0
LINE
  8
0
 10
109.800003
 20
132.600006
 11
109.800003
 21
117.600006
  0
LINE
  8
0
 10
109.800003
 20
117.600006
 11
194.800003
 21
117.600006
  0
LINE
  8
0
 10
-194.250000
 20
117.600006
 11
-109.250000
 21
117.600006
  0
LINE
  8
0
 10
-109.250000
 20
132.600006
 11
-109.250000
 21
117.600006
  0
LINE
  8
0
  6
CENTER
 62
     2
 10
43.759422
 20
10.440668
 11
154.639435
 21
10.440668
  0
LINE
  8
0
  6
CENTER
 62
     2
 10
99.619423
 20
-24.419180
 11
99.619423
 21
44.468208
  0
LINE
  8
0
 10
69.619415
 20
40.440666
 11
129.619415
 21
40.440666
  0
LINE
  8
0
 10
69.619423
 20
40.440659
 11
69.619423
 21
-19.559340
  0
LINE
  8
0
 10
69.619431
 20
-19.559332
 11
129.619446
 21
-19.559332
  0
LINE
  8
0
 10
102.619423
 20
34.440666
 11
102.619423
 21
40.440666
  0
LINE
  8
0
 10
96.619423
 20
34.440666
 11
96.619423
 21
40.440666
  0
LINE
  8
0
 10
129.619431
 20
40.440674
 11
129.619431
 21
-19.559324
  0
LINE
  8
0
 10
85.119438
 20
-19.559336
 11
85.119438
 21
-23.773497
  0
LINE
  8
0
 62
     2
 10
84.619438
 20
-19.559338
 11
84.619438
 21
-23.773497
  0
LINE
  8
0
 62
     2
 10
82.619438
 20
-19.559338
 11
82.619438
 21
-23.773497
  0
LINE
  8
0
 10
82.119438
 20
-19.559338
 11
82.119438
 21
-23.773497
  0
LINE
  8
0
 10
69.619423
 20
28.440668
 11
129.619431
 21
28.440668
  0
LINE
  8
0
 10
69.619431
 20
-7.559332
 11
129.619431
 21
-7.559332
  0
LINE
  8
0
 10
114.119408
 20
-19.559328
 11
114.119408
 21
-23.773497
  0
LINE
  8
0
 62
     2
 10
114.619408
 20
-19.559326
 11
114.619408
 21
-23.773497
  0
LINE
  8
0
 62
     2
 10
116.619408
 20
-19.559326
 11
116.619408
 21
-23.773497
  0
LINE
  8
0
 10
117.119408
 20
-19.559326
 11
117.119408
 21
-23.773497
  0
LINE
  8
0
 10
151.083527
 20
29.368860
 11
149.155106
 21
29.368860
  0
LINE
  8
0
 10
150.919434
 20
18.976557
 11
149.155350
 21
18.976557
  0
LINE
  8
0
 10
151.083618
 20
15.512445
 11
149.155289
 21
15.512445
  0
LINE
  8
0
 10
151.619415
 20
28.440681
 11
151.619415
 21
16.440681
  0
LINE
  8
0
 10
151.083344
 20
29.368616
 11
151.619232
 21
28.440430
  0
LINE
  8
0
 10
151.083527
 20
25.904779
 11
149.155350
 21
25.904779
  0
LINE
  8
0
 10
151.083878
 20
15.512356
 11
151.619781
 21
16.440569
  0
LINE
  8
0
 10
148.619461
 20
28.440681
 11
148.619461
 21
16.440681
  0
LINE
  8
0
 10
149.155365
 20
15.512525
 11
148.619446
 21
16.440763
  0
LINE
  8
0
 10
149.155380
 20
29.368792
 11
148.619461
 21
28.440552
  0
LINE
  8
0
 10
145.619415
 20
32.440666
 11
139.619415
 21
32.440666
  0
LINE
  8
0
 10
142.119476
 20
-41.659370
 11
147.119476
 21
-41.659370
  0
LINE
  8
0
 10
147.119461
 20
-41.659355
 11
147.119461
 21
-37.659355
  0
LINE
  8
0
 10
142.119461
 20
-41.659355
 11
142.119461
 21
-37.659355
  0
LINE
  8
0
 10
142.119476
 20
-37.659370
 11
147.119476
 21
-37.659370
  0
LINE
  8
0
 10
140.719360
 20
-14.659369
 11
148.519409
 21
-14.659369
  0
LINE
  8
0
 10
140.619415
 20
-29.159369
 11
148.619415
 21
-29.159369
  0
LINE
  8
0
 10
140.619476
 20
-29.959356
 11
148.619476
 21
-29.959356
  0
LINE
  8
0
 10
140.619476
 20
-32.459358
 11
148.619476
 21
-32.459358
  0
LINE
  8
0
 10
148.619461
 20
-32.459343
 11
148.619461
 21
-29.959341
  0
LINE
  8
0
 10
140.619461
 20
-32.459343
 11
140.619461
 21
-29.959341
  0
LINE
  8
0
 10
147.119461
 20
-29.959341
 11
147.119461
 21
-29.159353
  0
LINE
  8
0
 10
142.119461
 20
-29.959341
 11
142.119461
 21
-29.159353
  0
LINE
  8
0
 10
143.119461
 20
-37.659355
 11
143.119461
 21
-32.459343
  0
LINE
  8
0
 10
146.119461
 20
-37.659355
 11
146.119461
 21
-32.459343
  0
LINE
  8
0
 62
     2
 10
145.848953
 20
-37.659355
 11
145.848953
 21
-32.459343
  0
LINE
  8
0
 62
     2
 10
143.389969
 20
-37.659355
 11
143.389969
 21
-32.459343
  0
LINE
  8
0
 10
147.869461
 20
-16.159355
 11
147.869461
 21
-14.659355
  0
LINE
  8
0
 10
148.519455
 20
-14.659355
 11
148.519455
 21
-14.059380
  0
LINE
  8
0
 10
149.519455
 20
-25.159353
 11
149.519455
 21
-22.154348
  0
LINE
  8
0
 10
139.719360
 20
-16.159369
 11
149.519470
 21
-16.159369
  0
LINE
  8
0
 10
148.619461
 20
-29.159353
 11
148.619461
 21
-25.159353
  0
LINE
  8
0
 10
140.619461
 20
-29.159353
 11
140.619461
 21
-25.159353
  0
LINE
  8
0
 10
144.619461
 20
-28.802114
 11
144.619461
 21
-26.159353
  0
LINE
  8
0
 10
149.519455
 20
-20.164360
 11
149.519455
 21
-16.159355
  0
LINE
  8
0
 10
147.619415
 20
-25.159369
 11
149.519409
 21
-25.159369
  0
LINE
  8
0
 10
140.619446
 20
-14.059332
 11
148.619415
 21
-14.059332
  0
LINE
  8
0
 10
141.369339
 20
-16.159357
 11
141.369339
 21
-14.659357
  0
LINE
  8
0
 10
139.719376
 20
-25.159369
 11
141.619370
 21
-25.159369
  0
LINE
  8
0
 10
139.719345
 20
-25.159353
 11
139.719345
 21
-24.559317
  0
LINE
  8
0
 10
144.619400
 20
-26.159323
 11
144.619400
 21
-28.802061
  0
LINE
  8
0
 10
139.619446
 20
-14.059332
 11
149.119446
 21
-14.059332
  0
LINE
  8
0
 10
139.719345
 20
-25.159353
 11
139.719345
 21
-22.154348
  0
LINE
  8
0
 10
149.119431
 20
13.940668
 11
145.619431
 21
13.940668
  0
LINE
  8
0
 10
145.619431
 20
13.940681
 11
145.619431
 21
32.440681
  0
LINE
  8
0
 10
140.719345
 20
-14.659357
 11
140.719345
 21
-14.059381
  0
LINE
  8
0
 10
149.119431
 20
13.940681
 11
149.119431
 21
-14.059319
  0
LINE
  8
0
 10
145.619431
 20
29.140665
 11
139.619431
 21
29.140665
  0
LINE
  8
0
 10
117.119415
 20
-23.773497
 11
114.119423
 21
-23.773497
  0
LINE
  8
0
 10
82.119446
 20
-23.773497
 11
85.119453
 21
-23.773497
  0
LINE
  8
0
 10
158.919434
 20
17.440660
 11
151.619415
 21
17.440660
  0
LINE
  8
0
 62
     2
 10
162.719421
 20
18.240664
 11
151.619415
 21
18.240664
  0
LINE
  8
0
 62
     2
 10
162.719421
 20
26.640657
 11
151.619415
 21
26.640657
  0
LINE
  8
0
 10
158.919434
 20
27.440660
 11
151.619415
 21
27.440660
  0
LINE
  8
0
 10
163.719421
 20
25.640667
 11
163.719421
 21
19.240673
  0
LINE
  8
0
 10
158.919724
 20
17.440355
 11
159.719727
 21
18.240362
  0
LINE
  8
0
 10
159.719421
 20
26.640665
 11
159.719421
 21
18.240673
  0
LINE
  8
0
 10
158.919434
 20
27.440668
 11
158.919434
 21
17.440668
  0
LINE
  8
0
 10
159.719345
 20
26.640560
 11
158.919342
 21
27.440567
  0
LINE
  8
0
 10
162.719376
 20
18.240730
 11
163.719360
 21
19.240715
  0
LINE
  8
0
 10
162.719330
 20
26.640574
 11
163.719330
 21
25.640572
  0
LINE
  8
0
 10
162.719421
 20
18.240673
 11
162.719421
 21
26.640514
  0
LINE
  8
0
 10
148.083542
 20
29.368860
 11
146.155106
 21
29.368860
  0
LINE
  8
0
 10
147.919449
 20
18.976557
 11
146.155350
 21
18.976557
  0
LINE
  8
0
 10
148.083633
 20
15.512445
 11
146.155289
 21
15.512445
  0
LINE
  8
0
 10
148.619431
 20
28.440681
 11
148.619431
 21
16.440681
  0
LINE
  8
0
 10
148.083344
 20
29.368610
 11
148.619232
 21
28.440426
  0
LINE
  8
0
 10
148.083542
 20
25.904779
 11
146.155350
 21
25.904779
  0
LINE
  8
0
 10
148.083893
 20
15.512341
 11
148.619797
 21
16.440554
  0
LINE
  8
0
 10
145.619461
 20
28.440681
 11
145.619461
 21
16.440680
  0
LINE
  8
0
 10
146.155334
 20
15.512494
 11
145.619415
 21
16.440733
  0
LINE
  8
0
 10
146.155365
 20
29.368780
 11
145.619446
 21
28.440540
  0
LINE
  8
0
 10
139.619431
 20
35.440681
 11
139.619431
 21
-14.559320
  0
LINE
  8
0
 10
139.719345
 20
-20.164362
 11
139.719345
 21
-16.159357
  0
LINE
  8
0
 10
129.619446
 20
-14.559332
 11
139.619446
 21
-14.559332
  0
LINE
  8
0
 10
129.619415
 20
35.440666
 11
139.619415
 21
35.440666
  0
LINE
  8
0
 10
129.619415
 20
33.440666
 11
139.619415
 21
33.440666
  0
LINE
  8
0
 10
129.619446
 20
-12.559332
 11
139.619446
 21
-12.559332
  0
LINE
  8
0
 10
48.155312
 20
29.368860
 11
50.083740
 21
29.368860
  0
LINE
  8
0
 10
48.319405
 20
18.976557
 11
50.083496
 21
18.976557
  0
LINE
  8
0
 10
48.155220
 20
15.512445
 11
50.083557
 21
15.512445
  0
LINE
  8
0
 10
47.619423
 20
28.440655
 11
47.619423
 21
16.440655
  0
LINE
  8
0
 10
48.155460
 20
29.368599
 11
47.619568
 21
28.440405
  0
LINE
  8
0
 10
48.155312
 20
25.904779
 11
50.083496
 21
25.904779
  0
LINE
  8
0
 10
48.155010
 20
15.512343
 11
47.619102
 21
16.440563
  0
LINE
  8
0
 10
50.619385
 20
28.440655
 11
50.619385
 21
16.440655
  0
LINE
  8
0
 10
50.083477
 20
15.512529
 11
50.619396
 21
16.440767
  0
LINE
  8
0
 10
50.083504
 20
29.368790
 11
50.619423
 21
28.440550
  0
LINE
  8
0
 10
53.619408
 20
32.440666
 11
59.619408
 21
32.440666
  0
LINE
  8
0
 10
57.119396
 20
-41.659370
 11
52.119396
 21
-41.659370
  0
LINE
  8
0
 10
52.119385
 20
-41.659386
 11
52.119385
 21
-37.659386
  0
LINE
  8
0
 10
57.119385
 20
-41.659386
 11
57.119385
 21
-37.659386
  0
LINE
  8
0
 10
57.119396
 20
-37.659370
 11
52.119396
 21
-37.659370
  0
LINE
  8
0
 10
58.519508
 20
-14.659369
 11
50.719460
 21
-14.659369
  0
LINE
  8
0
 10
58.619457
 20
-29.159369
 11
50.619457
 21
-29.159369
  0
LINE
  8
0
 10
58.619396
 20
-29.959356
 11
50.619396
 21
-29.959356
  0
LINE
  8
0
 10
58.619396
 20
-32.459358
 11
50.619396
 21
-32.459358
  0
LINE
  8
0
 10
50.619385
 20
-32.459373
 11
50.619385
 21
-29.959372
  0
LINE
  8
0
 10
58.619385
 20
-32.459373
 11
58.619385
 21
-29.959372
  0
LINE
  8
0
 10
52.119385
 20
-29.959372
 11
52.119385
 21
-29.159384
  0
LINE
  8
0
 10
57.119385
 20
-29.959372
 11
57.119385
 21
-29.159384
  0
LINE
  8
0
 10
56.119385
 20
-37.659386
 11
56.119385
 21
-32.459373
  0
LINE
  8
0
 10
53.119385
 20
-37.659386
 11
53.119385
 21
-32.459373
  0
LINE
  8
0
 62
     2
 10
53.389893
 20
-37.659386
 11
53.389893
 21
-32.459373
  0
LINE
  8
0
 62
     2
 10
55.848877
 20
-37.659386
 11
55.848877
 21
-32.459373
  0
LINE
  8
0
 10
51.369385
 20
-16.159382
 11
51.369385
 21
-14.659382
  0
LINE
  8
0
 10
50.719391
 20
-14.659382
 11
50.719391
 21
-14.059406
  0
LINE
  8
0
 10
49.719391
 20
-25.159384
 11
49.719391
 21
-22.154379
  0
LINE
  8
0
 10
59.519512
 20
-16.159369
 11
49.719402
 21
-16.159369
  0
LINE
  8
0
 10
50.619385
 20
-29.159384
 11
50.619385
 21
-25.159384
  0
LINE
  8
0
 10
58.619385
 20
-29.159384
 11
58.619385
 21
-25.159384
  0
LINE
  8
0
 10
54.619385
 20
-28.802145
 11
54.619385
 21
-26.159384
  0
LINE
  8
0
 10
49.719391
 20
-20.164387
 11
49.719391
 21
-16.159382
  0
LINE
  8
0
 10
51.619457
 20
-25.159369
 11
49.719463
 21
-25.159369
  0
LINE
  8
0
 10
58.619423
 20
-14.059332
 11
50.619438
 21
-14.059332
  0
LINE
  8
0
 10
57.869507
 20
-16.159380
 11
57.869507
 21
-14.659380
  0
LINE
  8
0
 10
59.519497
 20
-25.159369
 11
57.619503
 21
-25.159369
  0
LINE
  8
0
 10
59.519501
 20
-25.159384
 11
59.519501
 21
-24.559347
  0
LINE
  8
0
 10
54.619446
 20
-26.159353
 11
54.619446
 21
-28.802084
  0
LINE
  8
0
 10
59.619423
 20
-14.059332
 11
50.119423
 21
-14.059332
  0
LINE
  8
0
 10
59.519501
 20
-25.159384
 11
59.519501
 21
-22.154379
  0
LINE
  8
0
 10
50.119415
 20
13.940668
 11
53.619415
 21
13.940668
  0
LINE
  8
0
 10
53.619415
 20
13.940656
 11
53.619415
 21
32.440655
  0
LINE
  8
0
 10
58.519501
 20
-14.659380
 11
58.519501
 21
-14.059404
  0
LINE
  8
0
 10
50.119415
 20
13.940655
 11
50.119415
 21
-14.059345
  0
LINE
  8
0
 10
53.619415
 20
29.140665
 11
59.619415
 21
29.140665
  0
LINE
  8
0
 10
40.319405
 20
17.440660
 11
47.619423
 21
17.440660
  0
LINE
  8
0
 62
     2
 10
36.519417
 20
18.240664
 11
47.619423
 21
18.240664
  0
LINE
  8
0
 62
     2
 10
36.519417
 20
26.640657
 11
47.619423
 21
26.640657
  0
LINE
  8
0
 10
40.319405
 20
27.440660
 11
47.619423
 21
27.440660
  0
LINE
  8
0
 10
35.519417
 20
25.640633
 11
35.519417
 21
19.240639
  0
LINE
  8
0
 10
40.319153
 20
17.440332
 11
39.519150
 21
18.240339
  0
LINE
  8
0
 10
39.519417
 20
26.640635
 11
39.519417
 21
18.240639
  0
LINE
  8
0
 10
40.319405
 20
27.440638
 11
40.319405
 21
17.440638
  0
LINE
  8
0
 10
39.519474
 20
26.640549
 11
40.319477
 21
27.440557
  0
LINE
  8
0
 10
36.519466
 20
18.240692
 11
35.519478
 21
19.240683
  0
LINE
  8
0
 10
36.519516
 20
26.640547
 11
35.519516
 21
25.640549
  0
LINE
  8
0
 10
36.519417
 20
18.240639
 11
36.519417
 21
26.640442
  0
LINE
  8
0
 10
51.155304
 20
29.368860
 11
53.083740
 21
29.368860
  0
LINE
  8
0
 10
51.319397
 20
18.976557
 11
53.083496
 21
18.976557
  0
LINE
  8
0
 10
51.155212
 20
15.512445
 11
53.083557
 21
15.512445
  0
LINE
  8
0
 10
50.619415
 20
28.440655
 11
50.619415
 21
16.440655
  0
LINE
  8
0
 10
51.155460
 20
29.368599
 11
50.619572
 21
28.440413
  0
LINE
  8
0
 10
51.155304
 20
25.904779
 11
53.083496
 21
25.904779
  0
LINE
  8
0
 10
51.155003
 20
15.512348
 11
50.619091
 21
16.440575
  0
LINE
  8
0
 10
53.619385
 20
28.440655
 11
53.619385
 21
16.440657
  0
LINE
  8
0
 10
53.083504
 20
15.512507
 11
53.619427
 21
16.440746
  0
LINE
  8
0
 10
53.083519
 20
29.368790
 11
53.619438
 21
28.440550
  0
LINE
  8
0
 10
59.619415
 20
35.440659
 11
59.619415
 21
-14.559343
  0
LINE
  8
0
 10
59.519501
 20
-20.164385
 11
59.519501
 21
-16.159380
  0
LINE
  8
0
 10
69.619431
 20
-14.559332
 11
59.619423
 21
-14.559332
  0
LINE
  8
0
 10
69.619408
 20
35.440666
 11
59.619408
 21
35.440666
  0
LINE
  8
0
 10
69.619408
 20
33.440666
 11
59.619408
 21
33.440666
  0
LINE
  8
0
 10
69.619431
 20
-12.559332
 11
59.619423
 21
-12.559332
  0
LINE
  8
0
  6
CENTER
 62
     2
 10
124.619431
 20
38.440674
 11
124.619431
 21
32.440674
  0
LINE
  8
0
  6
CENTER
 62
     2
 10
124.619431
 20
-11.059326
 11
124.619431
 21
-18.059326
  0
LINE
  8
0
  6
CENTER
 62
     2
 10
74.619415
 20
-11.059338
 11
74.619415
 21
-18.059338
  0
LINE
  8
0
  6
CENTER
 62
     2
 10
74.619415
 20
38.940662
 11
74.619415
 21
31.940662
  0
LINE
  8
0
  6
CENTER
 62
     2
 10
78.119408
 20
35.440666
 11
71.119408
 21
35.440666
  0
LINE
  8
0
  6
CENTER
 62
     2
 10
78.119431
 20
-14.559332
 11
71.119431
 21
-14.559332
  0
LINE
  8
0
  6
CENTER
 62
     2
 10
128.119446
 20
-14.559332
 11
121.119446
 21
-14.559332
  0
LINE
  8
0
  6
CENTER
 62
     2
 10
103.119431
 20
-14.559332
 11
96.119431
 21
-14.559332
  0
LINE
  8
0
  6
CENTER
 62
     2
 10
128.119415
 20
35.440666
 11
121.119423
 21
35.440666
  0
LINE
  8
0
 10
3.102364
 20
27.940647
 11
3.102364
 21
-7.059353
  0
LINE
  8
0
 10
-31.397636
 20
12.640644
 11
-31.397636
 21
8.240650
  0
LINE
  8
0
 10
-31.397636
 20
40.440636
 11
-31.397636
 21
-19.559366
  0
LINE
  8
0
 10
-4.397636
 20
26.193451
 11
-4.397636
 21
18.687897
  0
LINE
  8
0
 10
-17.397636
 20
26.193445
 11
-17.397636
 21
18.687891
  0
LINE
  8
0
 10
-10.897702
 20
29.946301
 11
-17.397705
 21
26.193523
  0
LINE
  8
0
 10
-4.397698
 20
18.687975
 11
-10.897701
 21
14.935199
  0
LINE
  8
0
 10
-17.397593
 20
18.687931
 11
-10.897592
 21
14.935153
  0
LINE
  8
0
 10
-10.897584
 20
29.946314
 11
-4.397609
 21
26.193550
  0
LINE
  8
0
 10
-0.897627
 20
-13.559353
 11
-20.897627
 21
-13.559353
  0
LINE
  8
0
 10
-5.997643
 20
-25.159321
 11
-5.997643
 21
-24.559345
  0
LINE
  8
0
 10
-15.797630
 20
-25.159325
 11
-15.797630
 21
-16.159325
  0
LINE
  8
0
 10
-15.797619
 20
-16.159317
 11
-5.997631
 21
-16.159317
  0
LINE
  8
0
 10
-15.797617
 20
-25.159317
 11
-5.997627
 21
-25.159317
  0
LINE
  8
0
 10
-10.897623
 20
-21.859329
 11
-3.397623
 21
-21.859329
  0
LINE
  8
0
 10
-10.897625
 20
-20.459335
 11
-3.397623
 21
-20.459335
  0
LINE
  8
0
 10
-5.997723
 20
-24.559448
 11
-7.297727
 21
-21.859440
  0
LINE
  8
0
 10
-5.997723
 20
-17.759218
 11
-7.297739
 21
-20.459249
  0
LINE
  8
0
 10
-5.997643
 20
-17.759327
 11
-5.997643
 21
-16.159321
  0
LINE
  8
0
 10
-3.397619
 20
-26.059341
 11
4.602379
 21
-26.059341
  0
LINE
  8
0
 10
9.102364
 20
-26.159313
 11
9.102364
 21
-16.159315
  0
LINE
  8
0
 10
7.502357
 20
-26.159313
 11
7.502357
 21
-16.159315
  0
LINE
  8
0
 10
-5.997627
 20
-24.559341
 11
-4.897621
 21
-24.559341
  0
LINE
  8
0
 10
-3.397636
 20
-26.059345
 11
-3.397636
 21
-16.259325
  0
LINE
  8
0
 10
-4.897636
 20
-24.559345
 11
-4.897636
 21
-21.859333
  0
LINE
  8
0
 10
4.602364
 20
-26.059341
 11
4.602364
 21
-16.259323
  0
LINE
  8
0
 10
6.202370
 20
-25.909317
 11
6.202370
 21
-16.409315
  0
LINE
  8
0
 10
7.502365
 20
-26.159317
 11
9.102371
 21
-26.159317
  0
LINE
  8
0
 10
4.602379
 20
-25.909317
 11
6.202377
 21
-25.909317
  0
LINE
  8
0
 10
7.502369
 20
-16.159317
 11
9.102375
 21
-16.159317
  0
LINE
  8
0
 10
4.602375
 20
-16.409317
 11
6.202381
 21
-16.409317
  0
LINE
  8
0
 10
-3.397625
 20
-16.259323
 11
4.602375
 21
-16.259323
  0
LINE
  8
0
 10
-5.997639
 20
-17.759323
 11
-4.897633
 21
-17.759323
  0
LINE
  8
0
 10
6.202377
 20
-24.409317
 11
7.502365
 21
-24.409317
  0
LINE
  8
0
 10
6.202381
 20
-17.909317
 11
7.502369
 21
-17.909317
  0
LINE
  8
0
 10
-4.897636
 20
-20.459337
 11
-4.897636
 21
-17.759325
  0
LINE
  8
0
 10
-3.397686
 20
-26.059414
 11
-4.897679
 21
-24.559422
  0
LINE
  8
0
 10
-3.397592
 20
-16.259422
 11
-4.897593
 21
-17.759422
  0
LINE
  8
0
 10
-14.797619
 20
-14.659317
 11
-6.997631
 21
-14.659317
  0
LINE
  8
0
 10
-7.647636
 20
-16.159321
 11
-7.647636
 21
-14.659321
  0
LINE
  8
0
 10
-14.147636
 20
-16.159327
 11
-14.147636
 21
-14.659327
  0
LINE
  8
0
 10
-6.997643
 20
-14.659321
 11
-6.997643
 21
-13.559353
  0
LINE
  8
0
 10
-14.797630
 20
-14.659327
 11
-14.797630
 21
-13.559353
  0
LINE
  8
0
 10
-13.397614
 20
-41.659317
 11
-8.397614
 21
-41.659317
  0
LINE
  8
0
 10
-8.397636
 20
-41.659325
 11
-8.397636
 21
-37.659325
  0
LINE
  8
0
 10
-13.397636
 20
-41.659321
 11
-13.397636
 21
-37.659321
  0
LINE
  8
0
 10
-13.397615
 20
-37.659317
 11
-8.397615
 21
-37.659317
  0
LINE
  8
0
 10
-14.361731
 20
-29.159317
 11
-7.433510
 21
-29.159317
  0
LINE
  8
0
 10
-14.897617
 20
-29.959305
 11
-6.897617
 21
-29.959305
  0
LINE
  8
0
 10
-14.897617
 20
-32.459305
 11
-6.897619
 21
-32.459305
  0
LINE
  8
0
 10
-6.897636
 20
-32.459309
 11
-6.897636
 21
-29.959309
  0
LINE
  8
0
 10
-14.897636
 20
-32.459309
 11
-14.897636
 21
-29.959309
  0
LINE
  8
0
 10
-6.278831
 20
-28.802082
 11
-6.278831
 21
-25.159321
  0
LINE
  8
0
 10
-8.588249
 20
-28.802086
 11
-8.588249
 21
-25.159325
  0
LINE
  8
0
 10
-13.207054
 20
-28.802082
 11
-13.207054
 21
-25.159321
  0
LINE
  8
0
 10
-15.516441
 20
-28.802086
 11
-15.516441
 21
-25.159325
  0
LINE
  8
0
 10
-8.397636
 20
-29.959312
 11
-8.397636
 21
-29.159325
  0
LINE
  8
0
 10
-13.397636
 20
-29.959309
 11
-13.397636
 21
-29.159321
  0
LINE
  8
0
 10
-12.397636
 20
-37.659321
 11
-12.397636
 21
-32.459309
  0
LINE
  8
0
 10
-9.397636
 20
-37.659321
 11
-9.397636
 21
-32.459309
  0
LINE
  8
0
 62
     2
 10
-9.668144
 20
-37.659321
 11
-9.668144
 21
-32.459309
  0
LINE
  8
0
 62
     2
 10
-12.127129
 20
-37.659321
 11
-12.127129
 21
-32.459309
  0
LINE
  8
0
 10
-25.397650
 20
40.440647
 11
-31.397652
 21
40.440647
  0
LINE
  8
0
 10
-23.397636
 20
-14.459358
 11
-23.397636
 21
-23.759365
  0
LINE
  8
0
 10
-20.397636
 20
-14.459356
 11
-20.397636
 21
-23.759357
  0
LINE
  8
0
 62
     2
 10
-22.897636
 20
-14.459358
 11
-22.897636
 21
-23.759365
  0
LINE
  8
0
 62
     2
 10
-20.897636
 20
-14.459358
 11
-20.897636
 21
-23.759357
  0
LINE
  8
0
  6
CENTER
 62
     2
 10
6.480515
 20
10.440647
 11
-34.422600
 21
10.440647
  0
LINE
  8
0
 10
-25.397636
 20
-19.559366
 11
-25.397636
 21
40.440636
  0
LINE
  8
0
 10
-25.397623
 20
-19.559353
 11
-31.397621
 21
-19.559353
  0
LINE
  8
0
 10
3.602364
 20
40.440647
 11
3.602364
 21
28.440647
  0
LINE
  8
0
 10
3.602356
 20
40.440647
 11
-1.897642
 21
40.440647
  0
LINE
  8
0
 10
-24.897636
 20
-12.059366
 11
-24.897636
 21
32.940636
  0
LINE
  8
0
 10
-19.497631
 20
-14.459347
 11
-24.297619
 21
-14.459347
  0
LINE
  8
0
 10
-20.297630
 20
-13.959356
 11
-20.297630
 21
-13.559362
  0
LINE
  8
0
 10
-23.497643
 20
-13.959358
 11
-23.497643
 21
-12.059364
  0
LINE
  8
0
 10
-25.097633
 20
-13.959360
 11
-25.097633
 21
-12.059366
  0
LINE
  8
0
 62
     4
 10
-6.381002
 20
37.440479
 11
-3.397757
 21
36.471165
  0
LINE
  8
0
 62
     4
 10
-3.397636
 20
36.471329
 11
-3.397636
 21
34.368408
  0
LINE
  8
0
 62
     4
 10
-6.835350
 20
35.440468
 11
-3.257013
 21
34.277794
  0
LINE
  8
0
 62
     4
 10
-3.256755
 20
34.277866
 11
-4.492820
 21
30.473656
  0
LINE
  8
0
 10
-3.165609
 20
32.940609
 11
-4.017358
 21
30.319197
  0
LINE
  8
0
 10
-8.297316
 20
31.709629
 11
-4.017534
 21
30.319042
  0
LINE
  8
0
 62
     4
 10
-7.061046
 20
35.513954
 11
-7.409793
 21
34.440620
  0
LINE
  8
0
 62
     4
 10
-15.414188
 20
37.440647
 11
-6.380894
 21
37.440647
  0
LINE
  8
0
 62
     4
 10
-14.959965
 20
35.440647
 11
-6.697666
 21
35.440647
  0
LINE
  8
0
 62
     4
 10
-14.385324
 20
34.440647
 11
-7.409845
 21
34.440647
  0
LINE
  8
0
 10
-13.497982
 20
31.709782
 11
-17.777758
 21
30.319199
  0
LINE
  8
0
 62
     4
 10
-14.734058
 20
35.514050
 11
-14.385287
 21
34.440643
  0
LINE
  8
0
 62
     4
 10
-14.960004
 20
35.440643
 11
-18.538372
 21
34.277962
  0
LINE
  8
0
 62
     4
 10
-18.538349
 20
34.277962
 11
-17.302290
 21
30.473761
  0
LINE
  8
0
 10
-18.629501
 20
32.940643
 11
-17.777752
 21
30.319225
  0
LINE
  8
0
 10
-1.897636
 20
40.440643
 11
-1.897636
 21
32.940643
  0
LINE
  8
0
 10
-19.897636
 20
32.940636
 11
-19.897636
 21
29.166208
  0
LINE
  8
0
 10
-18.697639
 20
-13.959356
 11
-18.697639
 21
-13.559362
  0
LINE
  8
0
 62
     4
 10
-15.414356
 20
37.440586
 11
-18.397610
 21
36.471268
  0
LINE
  8
0
 62
     4
 10
-18.397636
 20
36.471321
 11
-18.397636
 21
34.368401
  0
LINE
  8
0
 10
-0.897638
 20
13.940647
 11
-20.897638
 21
13.940647
  0
LINE
  8
0
 10
-8.897640
 20
31.440647
 11
-12.897646
 21
31.440647
  0
LINE
  8
0
 10
-8.897690
 20
31.440516
 11
-0.897647
 21
28.841141
  0
LINE
  8
0
 10
-12.897624
 20
31.440628
 11
-20.897633
 21
28.841269
  0
LINE
  8
0
 10
-20.397623
 20
-23.759350
 11
-23.397623
 21
-23.759350
  0
LINE
  8
0
 10
-18.629519
 20
32.940647
 11
-25.397646
 21
32.940647
  0
LINE
  8
0
 10
-3.165758
 20
32.940647
 11
-1.897646
 21
32.940647
  0
LINE
  8
0
 62
     4
 10
-12.397636
 20
35.440639
 11
-12.397636
 21
34.440639
  0
LINE
  8
0
 62
     4
 10
-9.397636
 20
35.440643
 11
-9.397636
 21
34.440643
  0
LINE
  8
0
 10
3.102239
 20
27.940763
 11
3.602239
 21
28.440763
  0
LINE
  8
0
 10
3.102406
 20
-7.059360
 11
3.602417
 21
-7.559371
  0
LINE
  8
0
 10
3.602364
 20
-7.559353
 11
3.602364
 21
-16.259323
  0
LINE
  8
0
 10
-1.897636
 20
-16.259323
 11
-1.897636
 21
-13.559355
  0
LINE
  8
0
 10
-20.897627
 20
-12.059353
 11
-25.397627
 21
-12.059353
  0
LINE
  8
0
 10
-0.897636
 20
28.841150
 11
-0.897636
 21
-13.559355
  0
LINE
  8
0
 10
-20.897636
 20
28.841248
 11
-20.897636
 21
-13.559364
  0
LINE
  8
0
 62
     4
 10
-14.385287
 20
34.440643
 11
-13.497992
 21
31.709824
  0
LINE
  8
0
 62
     4
 10
-7.409793
 20
34.440620
 11
-8.297105
 21
31.709757
  0
LINE
  8
0
  6
CENTER
 62
     2
 10
6.480503
 20
35.440647
 11
-3.708015
 21
35.440647
  0
LINE
  8
0
  6
CENTER
 62
     2
 10
6.480526
 20
-14.559353
 11
-3.707993
 21
-14.559353
  0
LINE
  8
0
  6
CENTER
 62
     2
 10
-23.980911
 20
-14.559353
 11
-34.422592
 21
-14.559353
  0
LINE
  8
0
  6
CENTER
 62
     2
 10
-23.450230
 20
35.440647
 11
-34.422607
 21
35.440647
  0
LINE
  8
0
 10
-13.497990
 20
31.709774
 11
-8.297119
 21
31.709774
  0
LINE
  8
0
  6
CENTER
 62
     2
 10
-10.897629
 20
-44.976013
 11
-10.897629
 21
44.857319
  0
LINE
  8
0
 10
129.619431
 20
108.692909
 11
69.619507
 21
108.692909
  0
LINE
  8
0
 10
129.619385
 20
73.692909
 11
69.619392
 21
73.692909
  0
LINE
  8
0
 10
145.619431
 20
78.192810
 11
145.619431
 21
98.192810
  0
LINE
  8
0
 10
102.619400
 20
77.692909
 11
96.619392
 21
77.692909
  0
LINE
  8
0
 10
96.619431
 20
73.692902
 11
96.619431
 21
77.692902
  0
LINE
  8
0
 10
102.619431
 20
73.692886
 11
102.619431
 21
77.692886
  0
LINE
  8
0
 10
129.619415
 20
102.692909
 11
69.619492
 21
102.692909
  0
LINE
  8
0
 10
139.619431
 20
78.192825
 11
139.619431
 21
98.192825
  0
LINE
  8
0
 62
     4
 10
108.619431
 20
80.594810
 11
108.619431
 21
84.192863
  0
LINE
  8
0
 62
     4
 10
83.619431
 20
80.192947
 11
83.619431
 21
84.692947
  0
LINE
  8
0
 62
     4
 10
107.119431
 20
80.192879
 11
107.119431
 21
84.192863
  0
LINE
  8
0
 62
     4
 10
108.619316
 20
80.595161
 11
107.119308
 21
80.193237
  0
LINE
  8
0
 62
     4
 10
125.619431
 20
95.790916
 11
125.619431
 21
91.692848
  0
LINE
  8
0
 62
     4
 10
125.619568
 20
95.791275
 11
124.119545
 21
96.193199
  0
LINE
  8
0
 62
     4
 10
124.119431
 20
96.192841
 11
124.119431
 21
91.692856
  0
LINE
  8
0
 62
     4
 10
100.619431
 20
96.192886
 11
100.619431
 21
91.692902
  0
LINE
  8
0
 62
     4
 10
113.219437
 20
95.692848
 11
113.219437
 21
84.192863
  0
LINE
  8
0
 62
     4
 10
106.019424
 20
95.692879
 11
106.019424
 21
84.192879
  0
LINE
  8
0
 62
     4
 10
108.558662
 20
87.132355
 11
110.679962
 21
89.253654
  0
LINE
  8
0
 62
     4
 10
108.558823
 20
89.253693
 11
110.680145
 21
87.132370
  0
LINE
  8
0
 62
     4
 10
106.019409
 20
84.192879
 11
113.219421
 21
84.192879
  0
LINE
  8
0
 10
86.019463
 20
91.692909
 11
59.619469
 21
91.692909
  0
LINE
  8
0
 10
86.019447
 20
84.692909
 11
59.619453
 21
84.692909
  0
LINE
  8
0
 62
     4
 10
106.019440
 20
95.692879
 11
113.219452
 21
95.692879
  0
LINE
  8
0
  6
CENTER
 62
     2
 10
99.619431
 20
68.745247
 11
99.619431
 21
112.337288
  0
LINE
  8
0
 62
     4
 10
93.219444
 20
92.192909
 11
86.019432
 21
92.192909
  0
LINE
  8
0
 62
     4
 10
93.219437
 20
80.692909
 11
93.219437
 21
92.192909
  0
LINE
  8
0
 62
     4
 10
86.019424
 20
80.692924
 11
86.019424
 21
92.192924
  0
LINE
  8
0
 62
     4
 10
90.680008
 20
89.253662
 11
88.558685
 21
87.132347
  0
LINE
  8
0
 62
     4
 10
90.680176
 20
87.132347
 11
88.558853
 21
89.253670
  0
LINE
  8
0
 62
     4
 10
93.219414
 20
80.692909
 11
86.019402
 21
80.692909
  0
LINE
  8
0
 10
106.019447
 20
84.692909
 11
93.219460
 21
84.692909
  0
LINE
  8
0
 62
     4
 10
107.119446
 20
80.192909
 11
83.619446
 21
80.192909
  0
LINE
  8
0
 10
139.619446
 20
84.692909
 11
113.219460
 21
84.692909
  0
LINE
  8
0
 10
139.619476
 20
91.692909
 11
113.219475
 21
91.692909
  0
LINE
  8
0
 10
139.619446
 20
81.292915
 11
108.619408
 21
81.292915
  0
LINE
  8
0
 10
139.619476
 20
95.092903
 11
125.619476
 21
95.092903
  0
LINE
  8
0
 62
     4
 10
100.619484
 20
95.892906
 11
75.994873
 21
95.892906
  0
LINE
  8
0
 10
123.119492
 20
102.192909
 11
76.119492
 21
102.192909
  0
LINE
  8
0
 10
129.619431
 20
102.692825
 11
129.619431
 21
108.692825
  0
LINE
  8
0
 10
69.619431
 20
102.692963
 11
69.619431
 21
108.692963
  0
LINE
  8
0
 10
149.119431
 20
78.192795
 11
149.119431
 21
81.692894
  0
LINE
  8
0
 10
145.619415
 20
86.192909
 11
139.619415
 21
86.192909
  0
LINE
  8
0
 10
145.619431
 20
90.192909
 11
139.619431
 21
90.192909
  0
LINE
  8
0
 10
149.119431
 20
94.692894
 11
149.119431
 21
98.192795
  0
LINE
  8
0
 62
     4
 10
61.474014
 20
103.514282
 11
71.245117
 21
93.743187
  0
LINE
  8
0
 62
     4
 10
64.302467
 20
106.342751
 11
73.873573
 21
96.771652
  0
LINE
  8
0
 62
     4
 10
64.302322
 20
106.342964
 11
61.473896
 21
103.514534
  0
LINE
  8
0
 10
73.452225
 20
97.192909
 11
93.619476
 21
97.192909
  0
LINE
  8
0
 62
     4
 10
64.302330
 20
70.043259
 11
73.873436
 21
79.614365
  0
LINE
  8
0
 62
     4
 10
64.302353
 20
70.043236
 11
61.473946
 21
72.871643
  0
LINE
  8
0
 62
     4
 10
61.473911
 20
72.871689
 11
71.245010
 21
82.642792
  0
LINE
  8
0
 62
     4
 10
83.619446
 20
80.492912
 11
75.994835
 21
80.492912
  0
LINE
  8
0
 10
163.719421
 20
84.992897
 11
159.719421
 21
84.992897
  0
LINE
  8
0
 10
162.718796
 20
84.992760
 11
162.718796
 21
91.392746
  0
LINE
  8
0
 10
158.919434
 20
83.192894
 11
151.619446
 21
83.192894
  0
LINE
  8
0
 62
     2
 10
159.719421
 20
83.992912
 11
151.619446
 21
83.992912
  0
LINE
  8
0
 62
     2
 10
159.719452
 20
92.392906
 11
151.619461
 21
92.392906
  0
LINE
  8
0
 10
158.919464
 20
93.192894
 11
151.619461
 21
93.192894
  0
LINE
  8
0
 10
163.719406
 20
91.392754
 11
163.719406
 21
84.992760
  0
LINE
  8
0
 10
158.919586
 20
83.192589
 11
159.719559
 21
83.992569
  0
LINE
  8
0
 10
159.719406
 20
92.392761
 11
159.719406
 21
83.992767
  0
LINE
  8
0
 10
158.919418
 20
93.192764
 11
158.919418
 21
83.192764
  0
LINE
  8
0
 10
159.719437
 20
92.392769
 11
158.919434
 21
93.192772
  0
LINE
  8
0
 10
163.719452
 20
91.392891
 11
159.719452
 21
91.392891
  0
LINE
  8
0
 10
123.119431
 20
97.192856
 11
123.119431
 21
102.192856
  0
LINE
  8
0
 10
105.619431
 20
97.192894
 11
105.619431
 21
102.192894
  0
LINE
  8
0
 10
93.619431
 20
97.192924
 11
93.619431
 21
102.192924
  0
LINE
  8
0
 10
76.119431
 20
97.192963
 11
76.119431
 21
102.192963
  0
LINE
  8
0
 62
     4
 10
124.119476
 20
96.192909
 11
100.619484
 21
96.192909
  0
LINE
  8
0
 10
149.119476
 20
98.192909
 11
139.619476
 21
98.192909
  0
LINE
  8
0
 10
149.119400
 20
78.192909
 11
139.619446
 21
78.192909
  0
LINE
  8
0
 10
139.619446
 20
79.192909
 11
73.452141
 21
79.192909
  0
LINE
  8
0
 10
139.619476
 20
97.192909
 11
105.619476
 21
97.192909
  0
LINE
  8
0
 10
145.619446
 20
94.192780
 11
145.619446
 21
82.192780
  0
LINE
  8
0
 10
129.619431
 20
73.692825
 11
129.619431
 21
79.192841
  0
LINE
  8
0
 10
106.019463
 20
91.692909
 11
93.219475
 21
91.692909
  0
LINE
  8
0
 10
53.619431
 20
78.193008
 11
53.619431
 21
98.193008
  0
LINE
  8
0
 10
59.619431
 20
78.192993
 11
59.619431
 21
98.192993
  0
LINE
  8
0
 10
59.619446
 20
81.292915
 11
69.895226
 21
81.292915
  0
LINE
  8
0
 10
59.619476
 20
95.092903
 11
69.895401
 21
95.092903
  0
LINE
  8
0
 10
50.119431
 20
78.193024
 11
50.119431
 21
81.692894
  0
LINE
  8
0
 10
53.619499
 20
86.192909
 11
59.619499
 21
86.192909
  0
LINE
  8
0
 10
53.619507
 20
90.192909
 11
59.619507
 21
90.192909
  0
LINE
  8
0
 10
50.119431
 20
94.692894
 11
50.119431
 21
98.193024
  0
LINE
  8
0
 10
35.519478
 20
84.992897
 11
39.519478
 21
84.992897
  0
LINE
  8
0
 10
36.520065
 20
84.993034
 11
36.520065
 21
91.393036
  0
LINE
  8
0
 10
40.319466
 20
83.192894
 11
47.619469
 21
83.192894
  0
LINE
  8
0
 62
     2
 10
39.519478
 20
83.992912
 11
47.619469
 21
83.992912
  0
LINE
  8
0
 62
     2
 10
39.519501
 20
92.392906
 11
47.619492
 21
92.392906
  0
LINE
  8
0
 10
40.319489
 20
93.192894
 11
47.619492
 21
93.192894
  0
LINE
  8
0
 10
35.519455
 20
91.393028
 11
35.519455
 21
84.993034
  0
LINE
  8
0
 10
40.319164
 20
83.192719
 11
39.519203
 21
83.992683
  0
LINE
  8
0
 10
39.519455
 20
92.393021
 11
39.519455
 21
83.993027
  0
LINE
  8
0
 10
40.319443
 20
93.193024
 11
40.319443
 21
83.193024
  0
LINE
  8
0
 10
39.519608
 20
92.392952
 11
40.319603
 21
93.192955
  0
LINE
  8
0
 10
35.519493
 20
91.392891
 11
39.519493
 21
91.392891
  0
LINE
  8
0
 10
50.119484
 20
98.192909
 11
59.619484
 21
98.192909
  0
LINE
  8
0
 10
50.119476
 20
78.192909
 11
59.619438
 21
78.192909
  0
LINE
  8
0
 10
59.619446
 20
79.192909
 11
67.795219
 21
79.192909
  0
LINE
  8
0
 10
59.619484
 20
97.192909
 11
67.795395
 21
97.192909
  0
LINE
  8
0
  6
CENTER
 62
     2
 10
174.121094
 20
88.192909
 11
31.458389
 21
88.192909
  0
LINE
  8
0
  6
CENTER
 62
     2
 10
124.619431
 20
68.745193
 11
124.619431
 21
82.243332
  0
LINE
  8
0
  6
CENTER
 62
     2
 10
74.619431
 20
68.745300
 11
74.619431
 21
82.923798
  0
LINE
  8
0
  6
CENTER
 62
     2
 10
124.619431
 20
100.385956
 11
124.619431
 21
112.337234
  0
LINE
  8
0
  6
CENTER
 62
     2
 10
74.619431
 20
99.932503
 11
74.619431
 21
112.337341
  0
LINE
  8
0
 10
50.619431
 20
81.692902
 11
50.619431
 21
94.692902
  0
LINE
  8
0
 10
47.619431
 20
81.692894
 11
47.619431
 21
94.692894
  0
LINE
  8
0
  6
CENTER
 10
48.155334
 20
88.192902
 11
50.083527
 21
88.192902
  0
LINE
  8
0
 10
47.619431
 20
81.692894
 11
53.619431
 21
81.692894
  0
LINE
  8
0
 10
47.619431
 20
94.692894
 11
53.619431
 21
94.692894
  0
LINE
  8
0
 10
50.619431
 20
81.692902
 11
50.619431
 21
94.692902
  0
LINE
  8
0
  6
CENTER
 10
51.155334
 20
88.192902
 11
53.083527
 21
88.192902
  0
LINE
  8
0
 10
148.619431
 20
81.692902
 11
148.619431
 21
94.692902
  0
LINE
  8
0
 10
151.619431
 20
81.692894
 11
151.619431
 21
94.692894
  0
LINE
  8
0
  6
CENTER
 10
151.083527
 20
88.192902
 11
149.155334
 21
88.192902
  0
LINE
  8
0
 10
151.619431
 20
81.692894
 11
145.619431
 21
81.692894
  0
LINE
  8
0
 10
151.619431
 20
94.692894
 11
145.619431
 21
94.692894
  0
LINE
  8
0
 10
148.619431
 20
81.692902
 11
148.619431
 21
94.692902
  0
LINE
  8
0
  6
CENTER
 10
148.083527
 20
88.192902
 11
146.155334
 21
88.192902
  0
LINE
  8
0
 10
49.719425
 20
81.692894
 11
49.719425
 21
72.692917
  0
LINE
  8
0
 10
49.619411
 20
68.192909
 11
59.619411
 21
68.192909
  0
LINE
  8
0
 10
49.619411
 20
69.792915
 11
59.619411
 21
69.792915
  0
LINE
  8
0
 10
49.719418
 20
72.692909
 11
59.519405
 21
72.692909
  0
LINE
  8
0
 10
49.869411
 20
71.092903
 11
59.369411
 21
71.092903
  0
LINE
  8
0
 10
49.619419
 20
69.792923
 11
49.619419
 21
68.192917
  0
LINE
  8
0
 10
49.869419
 20
72.692917
 11
49.869419
 21
71.092911
  0
LINE
  8
0
 10
59.619419
 20
69.792923
 11
59.619419
 21
68.192917
  0
LINE
  8
0
 10
59.369419
 20
72.692917
 11
59.369419
 21
71.092903
  0
LINE
  8
0
 10
59.519413
 20
78.192909
 11
59.519413
 21
72.692917
  0
LINE
  8
0
 10
51.369419
 20
71.092911
 11
51.369419
 21
69.792923
  0
LINE
  8
0
 10
57.869419
 20
71.092911
 11
57.869419
 21
69.792923
  0
LINE
  8
0
 10
149.519440
 20
81.692894
 11
149.519440
 21
72.692909
  0
LINE
  8
0
 10
149.619446
 20
68.192909
 11
139.619446
 21
68.192909
  0
LINE
  8
0
 10
149.619446
 20
69.792915
 11
139.619431
 21
69.792915
  0
LINE
  8
0
 10
149.519440
 20
72.692909
 11
139.719437
 21
72.692909
  0
LINE
  8
0
 10
149.369446
 20
71.092903
 11
139.869431
 21
71.092903
  0
LINE
  8
0
 10
149.619446
 20
69.792915
 11
149.619446
 21
68.192909
  0
LINE
  8
0
 10
149.369446
 20
72.692909
 11
149.369446
 21
71.092903
  0
LINE
  8
0
 10
139.619446
 20
69.792908
 11
139.619446
 21
68.192902
  0
LINE
  8
0
 10
139.869446
 20
72.692902
 11
139.869446
 21
71.092896
  0
LINE
  8
0
 10
139.719452
 20
78.192909
 11
139.719452
 21
72.692902
  0
LINE
  8
0
 10
147.869446
 20
71.092903
 11
147.869446
 21
69.792915
  0
LINE
  8
0
 10
141.369446
 20
71.092903
 11
141.369446
 21
69.792915
  0
LINE
  8
0
 62
     2
 10
71.127411
 20
-100.485176
 11
82.378601
 21
-100.485176
  0
LINE
  8
0
 10
140.619537
 20
-88.294518
 11
144.619537
 21
-90.603920
  0
LINE
  8
0
 10
144.619522
 20
-81.366264
 11
148.619507
 21
-83.675652
  0
LINE
  8
0
 10
148.619446
 20
-88.294563
 11
148.619446
 21
-83.675758
  0
LINE
  8
0
 10
140.619446
 20
-88.294586
 11
140.619446
 21
-83.675781
  0
LINE
  8
0
 10
144.619492
 20
-90.604065
 11
148.619507
 21
-88.294647
  0
LINE
  8
0
 10
140.619492
 20
-83.675880
 11
144.619507
 21
-81.366470
  0
LINE
  8
0
 10
149.519440
 20
-85.985176
 11
149.519440
 21
-70.485176
  0
LINE
  8
0
 10
149.619446
 20
-65.985176
 11
139.619446
 21
-65.985176
  0
LINE
  8
0
 10
149.619446
 20
-67.585182
 11
139.619446
 21
-67.585182
  0
LINE
  8
0
 10
148.019440
 20
-82.456734
 11
148.019440
 21
-79.985176
  0
LINE
  8
0
 10
149.519440
 20
-78.485176
 11
139.719452
 21
-78.485176
  0
LINE
  8
0
 10
148.019440
 20
-79.985176
 11
141.219452
 21
-79.985176
  0
LINE
  8
0
 10
149.519440
 20
-70.485176
 11
139.719452
 21
-70.485176
  0
LINE
  8
0
 10
149.369446
 20
-68.885170
 11
139.869446
 21
-68.885170
  0
LINE
  8
0
 10
149.619446
 20
-67.585182
 11
149.619446
 21
-65.985176
  0
LINE
  8
0
 10
149.369446
 20
-70.485176
 11
149.369446
 21
-68.885170
  0
LINE
  8
0
 10
139.619446
 20
-67.585182
 11
139.619446
 21
-65.985176
  0
LINE
  8
0
 10
139.869446
 20
-70.485176
 11
139.869446
 21
-68.885162
  0
LINE
  8
0
 10
139.719452
 20
-85.985168
 11
139.719452
 21
-70.485176
  0
LINE
  8
0
 10
141.219452
 20
-82.456726
 11
141.219452
 21
-79.985168
  0
LINE
  8
0
 10
147.869446
 20
-68.885170
 11
147.869446
 21
-67.585182
  0
LINE
  8
0
 10
141.369446
 20
-68.885170
 11
141.369446
 21
-67.585182
  0
LINE
  8
0
 10
149.519684
 20
-78.485413
 11
148.019684
 21
-79.985413
  0
LINE
  8
0
 10
139.719574
 20
-78.485023
 11
141.219589
 21
-79.985023
  0
LINE
  8
0
 62
     2
 10
128.111465
 20
-100.485176
 11
116.860260
 21
-100.485176
  0
LINE
  8
0
 10
69.619431
 20
-71.485176
 11
129.619431
 21
-71.485176
  0
LINE
  8
0
 10
69.619431
 20
-106.485176
 11
129.619431
 21
-106.485176
  0
LINE
  8
0
 10
69.619431
 20
-100.485176
 11
129.619431
 21
-100.485176
  0
LINE
  8
0
 10
69.619431
 20
-100.485176
 11
69.619431
 21
-106.485176
  0
LINE
  8
0
 10
129.619431
 20
-100.485168
 11
129.619431
 21
-106.485168
  0
LINE
  8
0
 10
139.619431
 20
-71.485176
 11
139.619431
 21
-94.985168
  0
LINE
  8
0
 10
83.619392
 20
-100.160667
 11
80.869392
 21
-98.572952
  0
LINE
  8
0
 10
86.369446
 20
-95.397514
 11
83.619438
 21
-93.809799
  0
LINE
  8
0
 10
80.869438
 20
-95.397461
 11
83.619431
 21
-93.809753
  0
LINE
  8
0
 10
83.619446
 20
-100.160599
 11
86.369446
 21
-98.572884
  0
LINE
  8
0
 10
80.869431
 20
-98.572884
 11
80.869431
 21
-95.397453
  0
LINE
  8
0
 10
86.369431
 20
-98.572884
 11
86.369431
 21
-95.397453
  0
LINE
  8
0
 10
112.869431
 20
-98.572884
 11
112.869431
 21
-95.397453
  0
LINE
  8
0
 10
112.869362
 20
-95.397362
 11
115.619370
 21
-93.809654
  0
LINE
  8
0
 10
115.619400
 20
-100.160652
 11
112.869423
 21
-98.572952
  0
LINE
  8
0
 10
115.619400
 20
-100.160538
 11
118.369400
 21
-98.572830
  0
LINE
  8
0
 10
118.369431
 20
-98.572884
 11
118.369431
 21
-95.397469
  0
LINE
  8
0
 10
118.369431
 20
-95.397491
 11
115.619446
 21
-93.809776
  0
LINE
  8
0
 10
115.315598
 20
-99.985176
 11
83.923279
 21
-99.985176
  0
LINE
  8
0
 10
83.619431
 20
-99.985176
 11
76.119431
 21
-99.985176
  0
LINE
  8
0
 10
59.619431
 20
-76.985176
 11
139.619431
 21
-76.985176
  0
LINE
  8
0
 10
149.119446
 20
-87.924248
 11
149.119446
 21
-95.985168
  0
LINE
  8
0
  6
CENTER
 62
     2
 10
99.619431
 20
-67.013969
 11
99.619431
 21
-111.557014
  0
LINE
  8
0
 10
69.619431
 20
-71.485176
 11
69.619431
 21
-76.985176
  0
LINE
  8
0
 10
123.119431
 20
-99.985176
 11
115.923264
 21
-99.985176
  0
LINE
  8
0
 10
59.619431
 20
-89.485176
 11
139.619431
 21
-89.485176
  0
LINE
  8
0
 10
59.619431
 20
-82.485176
 11
139.619431
 21
-82.485176
  0
LINE
  8
0
 10
59.619431
 20
-94.985176
 11
79.619431
 21
-94.985176
  0
LINE
  8
0
 10
139.619431
 20
-94.985176
 11
119.619431
 21
-94.985176
  0
LINE
  8
0
 10
162.718796
 20
-89.185181
 11
162.718796
 21
-82.785187
  0
LINE
  8
0
 10
158.919418
 20
-90.985191
 11
149.119446
 21
-90.985191
  0
LINE
  8
0
 62
     2
 10
159.719406
 20
-90.185173
 11
149.119446
 21
-90.185173
  0
LINE
  8
0
 62
     2
 10
159.719406
 20
-81.785179
 11
149.519440
 21
-81.785179
  0
LINE
  8
0
 10
158.919418
 20
-80.985191
 11
149.519440
 21
-80.985191
  0
LINE
  8
0
 10
163.719406
 20
-82.785187
 11
163.719406
 21
-89.185181
  0
LINE
  8
0
 10
158.919708
 20
-90.985535
 11
159.719696
 21
-90.185539
  0
LINE
  8
0
 10
159.719406
 20
-81.785187
 11
159.719406
 21
-90.185181
  0
LINE
  8
0
 10
158.919418
 20
-80.985184
 11
158.919418
 21
-90.985184
  0
LINE
  8
0
 10
159.719269
 20
-81.785316
 11
158.919266
 21
-80.985313
  0
LINE
  8
0
 10
163.719406
 20
-82.785194
 11
159.719406
 21
-82.785194
  0
LINE
  8
0
 10
163.719406
 20
-89.185188
 11
159.719406
 21
-89.185188
  0
LINE
  8
0
 10
139.619431
 20
-95.985168
 11
139.619431
 21
-76.985161
  0
LINE
  8
0
 10
119.619431
 20
-94.985176
 11
119.619431
 21
-99.985176
  0
LINE
  8
0
 10
79.619431
 20
-94.985176
 11
79.619431
 21
-99.985176
  0
LINE
  8
0
 10
123.119431
 20
-94.985176
 11
123.119431
 21
-99.985176
  0
LINE
  8
0
 10
76.119431
 20
-94.985176
 11
76.119431
 21
-99.985176
  0
LINE
  8
0
 10
149.119446
 20
-95.985176
 11
139.619431
 21
-95.985176
  0
LINE
  8
0
 10
129.619431
 20
-76.985168
 11
129.619431
 21
-71.485168
  0
LINE
  8
0
 10
58.619343
 20
-88.294518
 11
54.619343
 21
-90.603920
  0
LINE
  8
0
 10
54.619328
 20
-81.366287
 11
50.619362
 21
-83.675667
  0
LINE
  8
0
 10
50.619423
 20
-88.294571
 11
50.619423
 21
-83.675766
  0
LINE
  8
0
 10
58.619423
 20
-88.294594
 11
58.619423
 21
-83.675789
  0
LINE
  8
0
 10
54.619370
 20
-90.604111
 11
50.619354
 21
-88.294701
  0
LINE
  8
0
 10
58.619389
 20
-83.675926
 11
54.619373
 21
-81.366516
  0
LINE
  8
0
 10
49.719429
 20
-85.985184
 11
49.719429
 21
-70.485184
  0
LINE
  8
0
 10
49.619415
 20
-65.985176
 11
59.619415
 21
-65.985176
  0
LINE
  8
0
 10
49.619415
 20
-67.585182
 11
59.619423
 21
-67.585182
  0
LINE
  8
0
 10
51.219429
 20
-82.456741
 11
51.219429
 21
-79.985184
  0
LINE
  8
0
 10
49.719437
 20
-78.485176
 11
59.519424
 21
-78.485176
  0
LINE
  8
0
 10
51.219437
 20
-79.985176
 11
58.019424
 21
-79.985176
  0
LINE
  8
0
 10
49.719421
 20
-70.485176
 11
59.519417
 21
-70.485176
  0
LINE
  8
0
 10
49.869415
 20
-68.885170
 11
59.369423
 21
-68.885170
  0
LINE
  8
0
 10
49.619423
 20
-67.585190
 11
49.619423
 21
-65.985184
  0
LINE
  8
0
 10
49.869423
 20
-70.485184
 11
49.869423
 21
-68.885178
  0
LINE
  8
0
 10
59.619423
 20
-67.585182
 11
59.619423
 21
-65.985176
  0
LINE
  8
0
 10
59.369423
 20
-70.485176
 11
59.369423
 21
-68.885170
  0
LINE
  8
0
 10
59.519417
 20
-85.985176
 11
59.519417
 21
-70.485176
  0
LINE
  8
0
 10
58.019417
 20
-82.456734
 11
58.019417
 21
-79.985176
  0
LINE
  8
0
 10
51.369423
 20
-68.885178
 11
51.369423
 21
-67.585190
  0
LINE
  8
0
 10
57.869423
 20
-68.885178
 11
57.869423
 21
-67.585190
  0
LINE
  8
0
 10
49.719166
 20
-78.485435
 11
51.219170
 21
-79.985435
  0
LINE
  8
0
 10
59.519279
 20
-78.485023
 11
58.019283
 21
-79.985016
  0
LINE
  8
0
 10
59.619431
 20
-71.485176
 11
59.619431
 21
-94.985176
  0
LINE
  8
0
 10
50.119423
 20
-87.924255
 11
50.119423
 21
-95.985176
  0
LINE
  8
0
 10
36.520065
 20
-89.185188
 11
36.520065
 21
-82.785194
  0
LINE
  8
0
 10
40.319443
 20
-90.985191
 11
50.119431
 21
-90.985191
  0
LINE
  8
0
 62
     2
 10
39.519455
 20
-90.185173
 11
50.119431
 21
-90.185173
  0
LINE
  8
0
 62
     2
 10
39.519455
 20
-81.785179
 11
49.719437
 21
-81.785179
  0
LINE
  8
0
 10
40.319443
 20
-80.985191
 11
49.719437
 21
-80.985191
  0
LINE
  8
0
 10
35.519455
 20
-82.785194
 11
35.519455
 21
-89.185188
  0
LINE
  8
0
 10
40.319180
 20
-90.985512
 11
39.519188
 21
-90.185516
  0
LINE
  8
0
 10
39.519455
 20
-81.785194
 11
39.519455
 21
-90.185188
  0
LINE
  8
0
 10
40.319443
 20
-80.985191
 11
40.319443
 21
-90.985191
  0
LINE
  8
0
 10
39.519615
 20
-81.785355
 11
40.319618
 21
-80.985352
  0
LINE
  8
0
 10
35.519455
 20
-82.785194
 11
39.519455
 21
-82.785194
  0
LINE
  8
0
 10
35.519455
 20
-89.185188
 11
39.519455
 21
-89.185188
  0
LINE
  8
0
 10
59.619431
 20
-95.985176
 11
59.619431
 21
-76.985176
  0
LINE
  8
0
 10
50.119431
 20
-95.985176
 11
59.619431
 21
-95.985176
  0
LINE
  8
0
  6
CENTER
 62
     2
 10
29.093987
 20
-85.985176
 11
167.917175
 21
-85.985176
  0
LINE
  8
0
  6
CENTER
 62
     2
 10
124.619431
 20
-67.013969
 11
124.619431
 21
-80.096466
  0
LINE
  8
0
  6
CENTER
 62
     2
 10
74.619431
 20
-67.013969
 11
74.619431
 21
-79.811989
  0
LINE
  8
0
  6
CENTER
 62
     2
 10
74.619431
 20
-97.449364
 11
74.619431
 21
-109.397263
  0
LINE
  8
0
  6
CENTER
 62
     2
 10
124.619431
 20
-97.164894
 11
124.619431
 21
-109.397263
  0
LINE
  8
0
  6
CENTER
 62
     2
 10
-172.534744
 20
10.440660
 11
-65.447754
 21
10.440660
  0
LINE
  8
0
 10
-149.545990
 20
40.440659
 11
-89.545990
 21
40.440659
  0
LINE
  8
0
 10
-149.545975
 20
-19.559340
 11
-89.545967
 21
-19.559340
  0
LINE
  8
0
 10
-149.545975
 20
-19.559355
 11
-149.545975
 21
40.440643
  0
LINE
  8
0
 10
-89.545975
 20
-19.559324
 11
-89.545975
 21
40.440674
  0
LINE
  8
0
 10
-167.045929
 20
-41.659332
 11
-162.045929
 21
-41.659332
  0
LINE
  8
0
 10
-162.045959
 20
-41.659355
 11
-162.045959
 21
-37.659355
  0
LINE
  8
0
 10
-167.045959
 20
-41.659355
 11
-167.045959
 21
-37.659355
  0
LINE
  8
0
 10
-167.045929
 20
-37.659332
 11
-162.045929
 21
-37.659332
  0
LINE
  8
0
 10
-168.445999
 20
-14.659346
 11
-160.645996
 21
-14.659346
  0
LINE
  8
0
 10
-168.546005
 20
-29.159330
 11
-160.545990
 21
-29.159330
  0
LINE
  8
0
 10
-168.545929
 20
-29.959318
 11
-160.545944
 21
-29.959318
  0
LINE
  8
0
 10
-168.545929
 20
-32.459320
 11
-160.545944
 21
-32.459320
  0
LINE
  8
0
 10
-160.545959
 20
-32.459343
 11
-160.545959
 21
-29.959341
  0
LINE
  8
0
 10
-168.545959
 20
-32.459343
 11
-168.545959
 21
-29.959341
  0
LINE
  8
0
 10
-162.045959
 20
-29.959356
 11
-162.045959
 21
-29.159369
  0
LINE
  8
0
 10
-167.045959
 20
-29.959356
 11
-167.045959
 21
-29.159369
  0
LINE
  8
0
 10
-166.045959
 20
-37.659370
 11
-166.045959
 21
-32.459358
  0
LINE
  8
0
 10
-163.045959
 20
-37.659370
 11
-163.045959
 21
-32.459358
  0
LINE
  8
0
 62
     2
 10
-163.316467
 20
-37.659370
 11
-163.316467
 21
-32.459358
  0
LINE
  8
0
 62
     2
 10
-165.775452
 20
-37.659370
 11
-165.775452
 21
-32.459358
  0
LINE
  8
0
 10
-161.295959
 20
-16.159367
 11
-161.295959
 21
-14.659367
  0
LINE
  8
0
 10
-167.795959
 20
-16.159369
 11
-167.795959
 21
-14.659369
  0
LINE
  8
0
 10
-160.645966
 20
-14.659365
 11
-160.645966
 21
-13.559328
  0
LINE
  8
0
 10
-168.445953
 20
-14.659370
 11
-168.445953
 21
-13.559334
  0
LINE
  8
0
 10
-169.445999
 20
-25.159330
 11
-159.645935
 21
-25.159330
  0
LINE
  8
0
 10
-169.446014
 20
-16.159346
 11
-159.645935
 21
-16.159346
  0
LINE
  8
0
 10
-160.545959
 20
-29.159369
 11
-160.545959
 21
-25.159369
  0
LINE
  8
0
 10
-168.545959
 20
-29.159369
 11
-168.545959
 21
-25.159369
  0
LINE
  8
0
 10
-164.545959
 20
-28.802130
 11
-164.545959
 21
-26.159369
  0
LINE
  8
0
 10
-169.445953
 20
-25.159369
 11
-169.445953
 21
-16.159370
  0
LINE
  8
0
 10
-159.645935
 20
-25.159369
 11
-159.645935
 21
-16.159365
  0
LINE
  8
0
 10
-164.545959
 20
-29.159369
 11
-164.545959
 21
-25.159369
  0
LINE
  8
0
 10
-102.045990
 20
-19.559332
 11
-102.045990
 21
-23.759344
  0
LINE
  8
0
 10
-134.045959
 20
-19.559345
 11
-134.045959
 21
-23.759344
  0
LINE
  8
0
 62
     2
 10
-134.545959
 20
-19.559345
 11
-134.545959
 21
-23.759344
  0
LINE
  8
0
 62
     2
 10
-136.545959
 20
-19.559347
 11
-136.545959
 21
-23.759344
  0
LINE
  8
0
 10
-137.045959
 20
-19.559347
 11
-137.045959
 21
-23.759344
  0
LINE
  8
0
 10
-105.045990
 20
-19.559334
 11
-105.045990
 21
-23.759344
  0
LINE
  8
0
 62
     2
 10
-104.545990
 20
-19.559334
 11
-104.545990
 21
-23.759344
  0
LINE
  8
0
 62
     2
 10
-102.545990
 20
-19.559332
 11
-102.545990
 21
-23.759344
  0
LINE
  8
0
 10
-171.010056
 20
29.368853
 11
-169.081635
 21
29.368853
  0
LINE
  8
0
 10
-170.845963
 20
18.976549
 11
-169.081879
 21
18.976549
  0
LINE
  8
0
 10
-171.010147
 20
15.512438
 11
-169.081802
 21
15.512438
  0
LINE
  8
0
 10
-171.545944
 20
28.440634
 11
-171.545944
 21
16.440636
  0
LINE
  8
0
 10
-171.010284
 20
29.368881
 11
-171.546188
 21
28.440668
  0
LINE
  8
0
 10
-171.010056
 20
25.904772
 11
-169.081879
 21
25.904772
  0
LINE
  8
0
 10
-171.010056
 20
15.512506
 11
-171.545975
 21
16.440744
  0
LINE
  8
0
 10
-168.545975
 20
28.440636
 11
-168.545975
 21
16.440636
  0
LINE
  8
0
 10
-169.081802
 20
15.512497
 11
-168.545929
 21
16.440683
  0
LINE
  8
0
 10
-169.081451
 20
29.369024
 11
-168.545547
 21
28.440783
  0
LINE
  8
0
 10
-178.845993
 20
27.440676
 11
-171.545944
 21
27.440676
  0
LINE
  8
0
 62
     2
 10
-182.645981
 20
26.640657
 11
-171.545944
 21
26.640657
  0
LINE
  8
0
 62
     2
 10
-182.645981
 20
18.240664
 11
-171.545944
 21
18.240664
  0
LINE
  8
0
 10
-178.845993
 20
17.440676
 11
-171.545944
 21
17.440676
  0
LINE
  8
0
 10
-183.645981
 20
19.240662
 11
-183.645981
 21
25.640656
  0
LINE
  8
0
 10
-178.846481
 20
27.441202
 11
-179.646469
 21
26.641211
  0
LINE
  8
0
 10
-179.645981
 20
18.240650
 11
-179.645981
 21
26.640642
  0
LINE
  8
0
 10
-178.845993
 20
17.440662
 11
-178.845993
 21
27.440660
  0
LINE
  8
0
 10
-179.645721
 20
18.240944
 11
-178.845718
 21
17.440935
  0
LINE
  8
0
 10
-182.645782
 20
26.640474
 11
-183.645782
 21
25.640472
  0
LINE
  8
0
 10
-182.645966
 20
18.240633
 11
-183.645950
 21
19.240637
  0
LINE
  8
0
 10
-182.645981
 20
26.640640
 11
-182.645981
 21
18.240580
  0
LINE
  8
0
 10
-165.545975
 20
13.940638
 11
-165.545975
 21
32.440636
  0
LINE
  8
0
 10
-159.545959
 20
-13.559340
 11
-169.045975
 21
-13.559340
  0
LINE
  8
0
 10
-169.045990
 20
13.940660
 11
-165.545975
 21
13.940660
  0
LINE
  8
0
 10
-169.045990
 20
13.940636
 11
-169.045990
 21
-13.559364
  0
LINE
  8
0
 10
-165.545990
 20
32.440659
 11
-159.545990
 21
32.440659
  0
LINE
  8
0
 10
-159.545990
 20
29.166155
 11
-165.545990
 21
29.166155
  0
LINE
  8
0
 10
-120.253189
 20
1.233666
 11
-118.838959
 21
2.647889
  0
LINE
  8
0
 10
-120.253029
 20
2.647799
 11
-118.838814
 21
1.233585
  0
LINE
  8
0
 10
-102.045982
 20
-23.759336
 11
-105.045975
 21
-23.759336
  0
LINE
  8
0
 10
-137.045959
 20
-23.759336
 11
-134.045944
 21
-23.759336
  0
LINE
  8
0
 10
-111.753159
 20
9.733643
 11
-110.338951
 21
11.147855
  0
LINE
  8
0
 10
-110.338799
 20
9.733619
 11
-111.753021
 21
11.147843
  0
LINE
  8
0
 10
-118.838791
 20
18.233622
 11
-120.253006
 21
19.647835
  0
LINE
  8
0
 10
-118.838966
 20
19.647871
 11
-120.253181
 21
18.233660
  0
LINE
  8
0
 10
-127.338974
 20
11.147878
 11
-128.753189
 21
9.733665
  0
LINE
  8
0
 10
-128.753036
 20
11.147820
 11
-127.338821
 21
9.733604
  0
LINE
  8
0
 10
-168.010056
 20
29.368853
 11
-166.081635
 21
29.368853
  0
LINE
  8
0
 10
-167.845963
 20
18.976549
 11
-166.081879
 21
18.976549
  0
LINE
  8
0
 10
-168.010147
 20
15.512438
 11
-166.081802
 21
15.512438
  0
LINE
  8
0
 10
-168.545944
 20
28.440636
 11
-168.545944
 21
16.440636
  0
LINE
  8
0
 10
-168.010239
 20
29.368876
 11
-168.546143
 21
28.440662
  0
LINE
  8
0
 10
-168.010056
 20
25.904772
 11
-166.081879
 21
25.904772
  0
LINE
  8
0
 10
-168.010056
 20
15.512490
 11
-168.545975
 21
16.440729
  0
LINE
  8
0
 10
-165.545975
 20
28.440638
 11
-165.545975
 21
16.440638
  0
LINE
  8
0
 10
-166.081818
 20
15.512537
 11
-165.545929
 21
16.440723
  0
LINE
  8
0
 10
-166.081467
 20
29.369011
 11
-165.545547
 21
28.440767
  0
LINE
  8
0
 10
-130.385544
 20
6.493219
 11
-139.578018
 21
2.685570
  0
LINE
  8
0
 10
-130.002853
 20
5.569322
 11
-139.195343
 21
1.761667
  0
LINE
  8
0
 10
-124.417435
 20
20.897448
 11
-128.225082
 21
30.089933
  0
LINE
  8
0
 10
-123.493576
 20
21.280115
 11
-127.301239
 21
30.472622
  0
LINE
  8
0
 10
-159.545975
 20
-14.559359
 11
-159.545975
 21
35.440643
  0
LINE
  8
0
 10
-159.545990
 20
35.440659
 11
-149.545990
 21
35.440659
  0
LINE
  8
0
 10
-159.545959
 20
-14.559340
 11
-149.545959
 21
-14.559340
  0
LINE
  8
0
 10
-159.545959
 20
-12.559340
 11
-149.545959
 21
-12.559340
  0
LINE
  8
0
 10
-159.545990
 20
33.440659
 11
-149.545990
 21
33.440659
  0
LINE
  8
0
 10
-72.045975
 20
-41.659332
 11
-77.045967
 21
-41.659332
  0
LINE
  8
0
 10
-77.045990
 20
-41.659309
 11
-77.045990
 21
-37.659309
  0
LINE
  8
0
 10
-72.046005
 20
-41.659309
 11
-72.046005
 21
-37.659309
  0
LINE
  8
0
 10
-72.045975
 20
-37.659332
 11
-77.045967
 21
-37.659332
  0
LINE
  8
0
 10
-70.645920
 20
-14.659346
 11
-78.445923
 21
-14.659346
  0
LINE
  8
0
 10
-70.545914
 20
-29.159330
 11
-78.545921
 21
-29.159330
  0
LINE
  8
0
 10
-70.545982
 20
-29.959318
 11
-78.545975
 21
-29.959318
  0
LINE
  8
0
 10
-70.545982
 20
-32.459320
 11
-78.545975
 21
-32.459320
  0
LINE
  8
0
 10
-78.545990
 20
-32.459297
 11
-78.545990
 21
-29.959295
  0
LINE
  8
0
 10
-70.546005
 20
-32.459297
 11
-70.546005
 21
-29.959295
  0
LINE
  8
0
 10
-77.045990
 20
-29.959311
 11
-77.045990
 21
-29.159323
  0
LINE
  8
0
 10
-72.046005
 20
-29.959311
 11
-72.046005
 21
-29.159323
  0
LINE
  8
0
 10
-73.045990
 20
-37.659325
 11
-73.045990
 21
-32.459312
  0
LINE
  8
0
 10
-76.045990
 20
-37.659325
 11
-76.045990
 21
-32.459312
  0
LINE
  8
0
 62
     2
 10
-75.775482
 20
-37.659325
 11
-75.775482
 21
-32.459312
  0
LINE
  8
0
 62
     2
 10
-73.316498
 20
-37.659325
 11
-73.316498
 21
-32.459312
  0
LINE
  8
0
 10
-77.795990
 20
-16.159325
 11
-77.795990
 21
-14.659325
  0
LINE
  8
0
 10
-71.296005
 20
-16.159323
 11
-71.296005
 21
-14.659323
  0
LINE
  8
0
 10
-78.445984
 20
-14.659327
 11
-78.445984
 21
-13.559290
  0
LINE
  8
0
 10
-70.646011
 20
-14.659321
 11
-70.646011
 21
-13.559284
  0
LINE
  8
0
 10
-69.645920
 20
-25.159330
 11
-79.445992
 21
-25.159330
  0
LINE
  8
0
 10
-69.645927
 20
-16.159346
 11
-79.446007
 21
-16.159346
  0
LINE
  8
0
 10
-78.545990
 20
-29.159323
 11
-78.545990
 21
-25.159323
  0
LINE
  8
0
 10
-70.546005
 20
-29.159323
 11
-70.546005
 21
-25.159323
  0
LINE
  8
0
 10
-74.545990
 20
-28.802084
 11
-74.545990
 21
-26.159323
  0
LINE
  8
0
 10
-69.646011
 20
-25.159323
 11
-69.646011
 21
-16.159321
  0
LINE
  8
0
 10
-79.446014
 20
-25.159323
 11
-79.446014
 21
-16.159327
  0
LINE
  8
0
 10
-74.545990
 20
-29.159323
 11
-74.545990
 21
-25.159323
  0
LINE
  8
0
 10
-68.081924
 20
29.368853
 11
-70.010345
 21
29.368853
  0
LINE
  8
0
 10
-68.246002
 20
18.976549
 11
-70.010101
 21
18.976549
  0
LINE
  8
0
 10
-68.081818
 20
15.512438
 11
-70.010147
 21
15.512438
  0
LINE
  8
0
 10
-67.546021
 20
28.440687
 11
-67.546021
 21
16.440685
  0
LINE
  8
0
 10
-68.081703
 20
29.368927
 11
-67.545815
 21
28.440727
  0
LINE
  8
0
 10
-68.081924
 20
25.904772
 11
-70.010101
 21
25.904772
  0
LINE
  8
0
 10
-68.081924
 20
15.512526
 11
-67.546005
 21
16.440765
  0
LINE
  8
0
 10
-70.545975
 20
28.440685
 11
-70.545975
 21
16.440685
  0
LINE
  8
0
 10
-70.010147
 20
15.512563
 11
-70.546036
 21
16.440750
  0
LINE
  8
0
 10
-70.010513
 20
29.369076
 11
-70.546440
 21
28.440819
  0
LINE
  8
0
 10
-60.245983
 20
27.440676
 11
-67.546021
 21
27.440676
  0
LINE
  8
0
 62
     2
 10
-56.445988
 20
26.640657
 11
-67.546021
 21
26.640657
  0
LINE
  8
0
 62
     2
 10
-56.445988
 20
18.240664
 11
-67.546021
 21
18.240664
  0
LINE
  8
0
 10
-60.245975
 20
17.440676
 11
-67.546021
 21
17.440676
  0
LINE
  8
0
 10
-55.445984
 20
19.240726
 11
-55.445984
 21
25.640720
  0
LINE
  8
0
 10
-60.245567
 20
27.441242
 11
-59.445580
 21
26.641249
  0
LINE
  8
0
 10
-59.445980
 20
18.240707
 11
-59.445980
 21
26.640703
  0
LINE
  8
0
 10
-60.245968
 20
17.440720
 11
-60.245968
 21
27.440722
  0
LINE
  8
0
 10
-59.446213
 20
18.240965
 11
-60.246193
 21
17.440979
  0
LINE
  8
0
 10
-56.446186
 20
26.640545
 11
-55.446186
 21
25.640543
  0
LINE
  8
0
 10
-56.445953
 20
18.240643
 11
-55.445957
 21
19.240644
  0
LINE
  8
0
 10
-56.445980
 20
26.640705
 11
-56.445980
 21
18.240654
  0
LINE
  8
0
 10
-73.545975
 20
13.940683
 11
-73.545975
 21
32.440681
  0
LINE
  8
0
 10
-79.545959
 20
-13.559340
 11
-70.045944
 21
-13.559340
  0
LINE
  8
0
 10
-70.045975
 20
13.940660
 11
-73.545975
 21
13.940660
  0
LINE
  8
0
 10
-70.045975
 20
13.940685
 11
-70.045975
 21
-13.559315
  0
LINE
  8
0
 10
-73.545990
 20
32.440659
 11
-79.545990
 21
32.440659
  0
LINE
  8
0
 10
-79.545990
 20
29.166155
 11
-73.545990
 21
29.166155
  0
LINE
  8
0
 10
-71.081924
 20
29.368853
 11
-73.010345
 21
29.368853
  0
LINE
  8
0
 10
-71.246002
 20
18.976549
 11
-73.010101
 21
18.976549
  0
LINE
  8
0
 10
-71.081818
 20
15.512438
 11
-73.010147
 21
15.512438
  0
LINE
  8
0
 10
-70.546021
 20
28.440685
 11
-70.546021
 21
16.440685
  0
LINE
  8
0
 10
-71.081688
 20
29.368910
 11
-70.545784
 21
28.440697
  0
LINE
  8
0
 10
-71.081924
 20
25.904772
 11
-73.010101
 21
25.904772
  0
LINE
  8
0
 10
-71.081902
 20
15.512536
 11
-70.545975
 21
16.440775
  0
LINE
  8
0
 10
-73.545975
 20
28.440683
 11
-73.545975
 21
16.440683
  0
LINE
  8
0
 10
-73.010139
 20
15.512571
 11
-73.546028
 21
16.440758
  0
LINE
  8
0
 10
-73.010513
 20
29.369059
 11
-73.546432
 21
28.440815
  0
LINE
  8
0
 10
-79.545975
 20
-14.559320
 11
-79.545975
 21
35.440681
  0
LINE
  8
0
 10
-79.545990
 20
35.440659
 11
-89.545990
 21
35.440659
  0
LINE
  8
0
 10
-79.545959
 20
-14.559340
 11
-89.545967
 21
-14.559340
  0
LINE
  8
0
 10
-79.545959
 20
-12.559340
 11
-89.545967
 21
-12.559340
  0
LINE
  8
0
 10
-79.545990
 20
33.440659
 11
-89.545990
 21
33.440659
  0
LINE
  8
0
  6
CENTER
 62
     2
 10
-119.545975
 20
-23.766966
 11
-119.545975
 21
43.192474
  0
LINE
  8
0
  6
CENTER
 62
     2
 10
-99.449188
 20
35.440628
 11
-90.001915
 21
35.440628
  0
LINE
  8
0
  6
CENTER
 62
     2
 10
-144.545944
 20
7.440648
 11
-144.545944
 21
13.440648
  0
LINE
  8
0
  6
CENTER
 62
     2
 10
-94.545975
 20
30.117634
 11
-94.545975
 21
41.220619
  0
LINE
  8
0
  6
CENTER
 62
     2
 10
-94.545975
 20
7.440673
 11
-94.545975
 21
13.440673
  0
LINE
  8
0
  6
CENTER
 62
     2
 10
-122.545967
 20
-14.559340
 11
-116.545967
 21
-14.559340
  0
LINE
  8
0
  6
CENTER
 62
     2
 10
-122.545990
 20
35.440628
 11
-116.545990
 21
35.440628
  0
LINE
  8
0
  6
CENTER
 62
     2
 10
-94.545975
 20
-9.236290
 11
-94.545975
 21
-20.339272
  0
LINE
  8
0
  6
CENTER
 62
     2
 10
-99.449158
 20
-14.559309
 11
-90.001884
 21
-14.559309
  0
LINE
  8
0
  6
CENTER
 62
     2
 10
-139.642761
 20
-14.559309
 11
-149.090042
 21
-14.559309
  0
LINE
  8
0
  6
CENTER
 62
     2
 10
-144.545990
 20
-9.236313
 11
-144.545990
 21
-20.339298
  0
LINE
  8
0
  6
CENTER
 62
     2
 10
-139.642792
 20
35.440628
 11
-149.090073
 21
35.440628
  0
LINE
  8
0
  6
CENTER
 62
     2
 10
-144.545990
 20
30.117611
 11
-144.545990
 21
41.220592
  0
ARC
  8
0
 10
52.619442
 20
-23.382643
 40
5.776711
 50
249.743851
 51
290.256195
  0
ARC
  8
0
 10
42.155247
 20
22.440653
 40
11.464131
 50
342.412018
 51
17.587976
  0
CIRCLE
  8
0
 10
54.619442
 20
-21.159351
 40
2.000000
  0
ARC
  8
0
 10
53.686367
 20
27.636822
 40
3.066971
 50
145.615341
 51
214.384216
  0
CIRCLE
  8
0
 10
54.619442
 20
-21.159351
 40
5.000000
  0
ARC
  8
0
 10
53.686371
 20
17.244520
 40
3.066970
 50
145.615768
 51
214.384644
  0
ARC
  8
0
 10
50.552414
 20
17.244518
 40
3.066971
 50
325.615356
 51
34.384171
  0
ARC
  8
0
 10
99.619415
 20
34.440666
 40
3.000000
 50
180.000000
 51
0.000073
  0
CIRCLE
  8
0
 62
     2
 10
124.619423
 20
35.440674
 40
2.000000
  0
CIRCLE
  8
0
 10
124.619423
 20
35.440674
 40
1.200000
  0
CIRCLE
  8
0
 10
99.619431
 20
-14.559332
 40
3.000000
  0
CIRCLE
  8
0
 10
99.619423
 20
10.440668
 40
10.000000
  0
CIRCLE
  8
0
 62
     2
 10
124.619438
 20
-14.559324
 40
2.000000
  0
CIRCLE
  8
0
 10
124.619438
 20
-14.559324
 40
1.200000
  0
CIRCLE
  8
0
 62
     2
 10
74.619408
 20
35.440659
 40
2.000000
  0
CIRCLE
  8
0
 10
74.619408
 20
35.440659
 40
1.200000
  0
CIRCLE
  8
0
 62
     2
 10
74.619423
 20
-14.559340
 40
2.000000
  0
CIRCLE
  8
0
 10
74.619423
 20
-14.559340
 40
1.200000
  0
ARC
  8
0
 10
140.155319
 20
22.440678
 40
11.464138
 50
342.412048
 51
17.588017
  0
ARC
  8
0
 10
151.686432
 20
27.636848
 40
3.066973
 50
145.615417
 51
214.384155
  0
ARC
  8
0
 10
148.552475
 20
27.636848
 40
3.066975
 50
325.615875
 51
34.384613
  0
ARC
  8
0
 10
151.686432
 20
17.244545
 40
3.066975
 50
145.615875
 51
214.384613
  0
ARC
  8
0
 10
160.083588
 20
22.440685
 40
11.464125
 50
162.412003
 51
197.587967
  0
ARC
  8
0
 10
148.552475
 20
17.244545
 40
3.066973
 50
325.615387
 51
34.384129
  0
ARC
  8
0
 10
142.619431
 20
-23.382620
 40
5.776712
 50
249.743851
 51
290.256165
  0
CIRCLE
  8
0
 10
144.619431
 20
-21.159325
 40
5.000000
  0
ARC
  8
0
 10
146.619431
 20
-23.382620
 40
5.776709
 50
249.743835
 51
290.256165
  0
CIRCLE
  8
0
 10
144.619431
 20
-21.159325
 40
2.000000
  0
ARC
  8
0
 10
145.552475
 20
27.636848
 40
3.066975
 50
325.615875
 51
34.384613
  0
ARC
  8
0
 10
157.083588
 20
22.440683
 40
11.464125
 50
162.412003
 51
197.587967
  0
ARC
  8
0
 10
148.686432
 20
17.244545
 40
3.066975
 50
145.615875
 51
214.384613
  0
ARC
  8
0
 10
145.552475
 20
17.244543
 40
3.066973
 50
325.615387
 51
34.384129
  0
ARC
  8
0
 10
148.686432
 20
27.636848
 40
3.066973
 50
145.615417
 51
214.384155
  0
ARC
  8
0
 10
137.155319
 20
22.440678
 40
11.464138
 50
342.412048
 51
17.588017
  0
ARC
  8
0
 10
50.552410
 20
27.636822
 40
3.066970
 50
325.615753
 51
34.384624
  0
ARC
  8
0
 10
62.083523
 20
22.440659
 40
11.464130
 50
162.411987
 51
197.587952
  0
ARC
  8
0
 10
59.083523
 20
22.440659
 40
11.464130
 50
162.411987
 51
197.587952
  0
ARC
  8
0
 10
47.552402
 20
27.636822
 40
3.066970
 50
325.615753
 51
34.384624
  0
ARC
  8
0
 10
50.686367
 20
27.636822
 40
3.066971
 50
145.615341
 51
214.384216
  0
ARC
  8
0
 10
47.552406
 20
17.244518
 40
3.066971
 50
325.615356
 51
34.384171
  0
ARC
  8
0
 10
39.155247
 20
22.440651
 40
11.464131
 50
342.412018
 51
17.587976
  0
ARC
  8
0
 10
50.686371
 20
17.244518
 40
3.066970
 50
145.615768
 51
214.384644
  0
ARC
  8
0
 10
56.619442
 20
-23.382643
 40
5.776710
 50
249.743805
 51
290.256165
  0
CIRCLE
  8
0
 10
-10.897640
 20
22.440639
 40
5.000000
  0
CIRCLE
  8
0
 62
     2
 10
-10.897640
 20
22.440639
 40
4.200000
  0
CIRCLE
  8
0
 10
-10.897640
 20
22.440639
 40
6.500000
  0
ARC
  8
0
 10
-14.361732
 20
-27.114674
 40
2.044655
 50
235.615723
 51
304.384399
  0
ARC
  8
0
 10
-7.433510
 20
-27.114674
 40
2.044655
 50
235.615631
 51
304.384308
  0
ARC
  8
0
 10
-10.897623
 20
-21.516624
 40
7.642726
 50
252.412003
 51
287.587982
  0
ARC
  8
0
 10
-24.297621
 20
-13.569359
 40
0.890001
 50
205.989441
 51
334.010620
  0
ARC
  8
0
 10
-21.897627
 20
-11.649361
 40
2.810008
 50
235.292053
 51
304.707977
  0
ARC
  8
0
 10
-19.497633
 20
-13.569357
 40
0.890001
 50
205.989502
 51
334.010498
  0
ARC
  8
0
 62
     4
 10
-10.897640
 20
36.890636
 40
3.050000
 50
10.388988
 51
169.611084
  0
CIRCLE
  8
0
 62
     4
 10
109.619431
 20
88.192871
 40
2.600000
  0
CIRCLE
  8
0
 62
     4
 10
89.619431
 20
88.192917
 40
2.600000
  0
ARC
  8
0
 62
     4
 10
75.994873
 20
98.892960
 40
3.000003
 50
225.000000
 51
270.000000
  0
ARC
  8
0
 62
     4
 10
76.194870
 20
98.692963
 40
7.000002
 50
225.000046
 51
270.000000
  0
ARC
  8
0
 62
     4
 10
75.994827
 20
77.492966
 40
3.000000
 50
90.000000
 51
135.000000
  0
ARC
  8
0
 62
     4
 10
76.194824
 20
77.692963
 40
7.000000
 50
90.000061
 51
135.000000
  0
ARC
  8
0
 10
57.742249
 20
84.942902
 40
10.122819
 50
161.273102
 51
198.726898
  0
ARC
  8
0
 10
57.742249
 20
91.442909
 40
10.122822
 50
161.273071
 51
198.726852
  0
ARC
  8
0
 10
40.496613
 20
84.942909
 40
10.122818
 50
341.273071
 51
18.726805
  0
ARC
  8
0
 10
40.496613
 20
91.442917
 40
10.122819
 50
341.273102
 51
18.726894
  0
ARC
  8
0
 10
60.742249
 20
84.942902
 40
10.122819
 50
161.273102
 51
198.726898
  0
ARC
  8
0
 10
60.742249
 20
91.442909
 40
10.122822
 50
161.273071
 51
198.726852
  0
ARC
  8
0
 10
43.496613
 20
84.942909
 40
10.122818
 50
341.273071
 51
18.726805
  0
ARC
  8
0
 10
43.496613
 20
91.442917
 40
10.122819
 50
341.273102
 51
18.726894
  0
ARC
  8
0
 10
155.742249
 20
91.442917
 40
10.122817
 50
161.273148
 51
198.726898
  0
ARC
  8
0
 10
141.496613
 20
84.942902
 40
10.122819
 50
341.273102
 51
18.726894
  0
ARC
  8
0
 10
141.496613
 20
91.442909
 40
10.122814
 50
341.273193
 51
18.726934
  0
ARC
  8
0
 10
158.742249
 20
84.942909
 40
10.122814
 50
161.273193
 51
198.726974
  0
ARC
  8
0
 10
158.742249
 20
91.442917
 40
10.122817
 50
161.273148
 51
198.726898
  0
ARC
  8
0
 10
138.496613
 20
84.942902
 40
10.122819
 50
341.273102
 51
18.726894
  0
ARC
  8
0
 10
138.496613
 20
91.442909
 40
10.122814
 50
341.273193
 51
18.726934
  0
ARC
  8
0
 10
155.742249
 20
84.942909
 40
10.122814
 50
161.273193
 51
198.726974
  0
CIRCLE
  8
0
 10
54.619431
 20
-85.985184
 40
4.900000
  0
CIRCLE
  8
0
 10
144.619446
 20
-85.985176
 40
2.500000
  0
CIRCLE
  8
0
 10
144.619446
 20
-85.985176
 40
4.000000
  0
CIRCLE
  8
0
 10
144.619446
 20
-85.985176
 40
4.900000
  0
CIRCLE
  8
0
 10
83.619431
 20
-96.985176
 40
1.500000
  0
CIRCLE
  8
0
 62
     2
 10
83.619431
 20
-96.985176
 40
1.000000
  0
CIRCLE
  8
0
 10
93.619431
 20
-96.985176
 40
1.000000
  0
CIRCLE
  8
0
 62
     2
 10
93.619431
 20
-96.985176
 40
1.500000
  0
CIRCLE
  8
0
 10
83.619431
 20
-96.985176
 40
2.750000
  0
CIRCLE
  8
0
 10
115.619431
 20
-96.985176
 40
2.750000
  0
CIRCLE
  8
0
 10
115.619431
 20
-96.985176
 40
1.500000
  0
CIRCLE
  8
0
 62
     2
 10
115.619431
 20
-96.985176
 40
1.000000
  0
CIRCLE
  8
0
 10
54.619431
 20
-85.985184
 40
2.500000
  0
CIRCLE
  8
0
 10
54.619431
 20
-85.985184
 40
4.000000
  0
ARC
  8
0
 10
-70.612976
 20
27.636852
 40
3.066970
 50
325.615753
 51
34.384666
  0
ARC
  8
0
 10
-67.479004
 20
17.244549
 40
3.066968
 50
145.615784
 51
214.384674
  0
ARC
  8
0
 10
-67.479019
 20
27.636854
 40
3.066968
 50
145.615311
 51
214.384232
  0
ARC
  8
0
 10
-59.081852
 20
22.440689
 40
11.464129
 50
162.411987
 51
197.587921
  0
ARC
  8
0
 10
-70.612968
 20
17.244549
 40
3.066968
 50
325.615295
 51
34.384209
  0
CIRCLE
  8
0
 10
-119.545982
 20
10.440660
 40
1.500000
  0
CIRCLE
  8
0
 62
     2
 10
-104.302002
 20
16.754969
 40
4.000000
  0
CIRCLE
  8
0
 10
-104.302002
 20
16.754969
 40
3.200000
  0
CIRCLE
  8
0
 10
-144.545990
 20
35.440617
 40
2.250000
  0
CIRCLE
  8
0
 10
-94.545975
 20
10.440673
 40
2.000000
  0
CIRCLE
  8
0
 10
-144.545975
 20
-14.559353
 40
2.250000
  0
CIRCLE
  8
0
 10
-94.545967
 20
-14.559326
 40
2.250000
  0
CIRCLE
  8
0
 10
-144.545944
 20
10.440648
 40
2.000000
  0
CIRCLE
  8
0
 10
-119.545990
 20
35.440628
 40
2.000000
  0
CIRCLE
  8
0
 10
-119.545967
 20
-14.559340
 40
2.000000
  0
CIRCLE
  8
0
 10
-94.545990
 20
35.440643
 40
2.250000
  0
CIRCLE
  8
0
 62
     2
 10
-125.860207
 20
-4.803362
 40
4.000000
  0
CIRCLE
  8
0
 62
     2
 10
-134.789993
 20
16.754892
 40
4.000000
  0
CIRCLE
  8
0
 62
     2
 10
-113.231750
 20
25.684668
 40
4.000000
  0
CIRCLE
  8
0
 10
-119.545982
 20
10.440660
 40
22.000000
  0
ARC
  8
0
 10
-166.545975
 20
-23.382620
 40
5.776712
 50
249.743851
 51
290.256165
  0
ARC
  8
0
 10
-162.545990
 20
-23.382612
 40
5.776711
 50
249.743851
 51
290.256165
  0
ARC
  8
0
 10
-171.612961
 20
27.636801
 40
3.066976
 50
325.615845
 51
34.384583
  0
ARC
  8
0
 10
-168.479004
 20
27.636803
 40
3.066974
 50
145.615387
 51
214.384155
  0
ARC
  8
0
 10
-171.612961
 20
17.244499
 40
3.066974
 50
325.615387
 51
34.384129
  0
ARC
  8
0
 10
-180.010117
 20
22.440632
 40
11.464136
 50
342.412079
 51
17.588007
  0
ARC
  8
0
 10
-168.479004
 20
17.244499
 40
3.066975
 50
145.615875
 51
214.384598
  0
ARC
  8
0
 10
-160.081848
 20
22.440639
 40
11.464126
 50
162.411987
 51
197.587967
  0
ARC
  8
0
 10
-79.010132
 20
22.440681
 40
11.464131
 50
342.412018
 51
17.587996
  0
CIRCLE
  8
0
 10
-119.545982
 20
10.440660
 40
11.300000
  0
CIRCLE
  8
0
 10
-119.545982
 20
10.440660
 40
5.500000
  0
CIRCLE
  8
0
 10
-119.545975
 20
1.940660
 40
2.400000
  0
CIRCLE
  8
0
 10
-128.045975
 20
10.440657
 40
2.400000
  0
CIRCLE
  8
0
 10
-119.545982
 20
18.940660
 40
2.400000
  0
CIRCLE
  8
0
 10
-111.045975
 20
10.440664
 40
2.400000
  0
CIRCLE
  8
0
 62
     2
 10
-113.231667
 20
-4.803324
 40
4.000000
  0
CIRCLE
  8
0
 62
     2
 10
-104.301956
 20
4.126429
 40
4.000000
  0
ARC
  8
0
 10
-165.479004
 20
17.244501
 40
3.066975
 50
145.615875
 51
214.384598
  0
ARC
  8
0
 10
-168.612961
 20
17.244499
 40
3.066974
 50
325.615387
 51
34.384129
  0
ARC
  8
0
 10
-157.081848
 20
22.440641
 40
11.464126
 50
162.411987
 51
197.587967
  0
ARC
  8
0
 10
-168.612961
 20
27.636803
 40
3.066976
 50
325.615845
 51
34.384583
  0
ARC
  8
0
 10
-165.479004
 20
27.636805
 40
3.066974
 50
145.615387
 51
214.384155
  0
ARC
  8
0
 10
-177.010117
 20
22.440632
 40
11.464136
 50
342.412079
 51
17.588007
  0
CIRCLE
  8
0
 10
-134.790375
 20
4.127298
 40
5.000000
  0
CIRCLE
  8
0
 10
-125.859383
 20
25.685026
 40
5.000000
  0
ARC
  8
0
 10
-62.081852
 20
22.440689
 40
11.464129
 50
162.411987
 51
197.587921
  0
ARC
  8
0
 10
-73.612976
 20
27.636850
 40
3.066970
 50
325.615753
 51
34.384666
  0
ARC
  8
0
 10
-82.010132
 20
22.440680
 40
11.464131
 50
342.412018
 51
17.587996
  0
ARC
  8
0
 10
-70.479019
 20
27.636852
 40
3.066968
 50
145.615311
 51
214.384232
  0
ARC
  8
0
 10
-70.479004
 20
17.244549
 40
3.066968
 50
145.615784
 51
214.384674
  0
ARC
  8
0
 10
-73.612968
 20
17.244547
 40
3.066968
 50
325.615295
 51
34.384209
  0
ARC
  8
0
 10
-72.545944
 20
-23.382574
 40
5.776711
 50
249.743774
 51
290.256134
  0
ARC
  8
0
 10
-76.545944
 20
-23.382574
 40
5.776711
 50
249.743851
 51
290.256165
  0
CIRCLE
  8
0
  6
DASHED
 62
     2
 10
-94.545990
 20
35.440643
 40
4.000000
  0
CIRCLE
  8
0
  6
DASHED
 62
     2
 10
-94.545959
 20
-14.559296
 40
4.000000
  0
CIRCLE
  8
0
  6
DASHED
 62
     2
 10
-144.545975
 20
-14.559322
 40
4.000000
  0
CIRCLE
  8
0
  6
DASHED
 62
     2
 10
-144.545990
 20
35.440617
 40
4.000000
  0
CIRCLE
  8
0
 10
-104.302002
 20
16.754969
 40
3.500000
  0
CIRCLE
  8
0
 10
-104.301956
 20
4.126429
 40
3.500000
  0
CIRCLE
  8
0
 10
-113.231667
 20
-4.803324
 40
3.500000
  0
CIRCLE
  8
0
 10
-125.860207
 20
-4.803362
 40
3.500000
  0
CIRCLE
  8
0
 10
-134.789993
 20
16.754892
 40
3.500000
  0
CIRCLE
  8
0
 10
-113.231750
 20
25.684668
 40
3.500000
  0
TEXT
  8
0
 10
115.907150
 20
122.050003
 40
4.500000
  1
DATE : MAY ,1993
 50
0.000000
 41
1.052631
 51
0.000000
  7
STANDARD
  0
TEXT
  8
0
 10
113.700279
 20
-130.669998
 40
6.300000
  1
KOGANEI CORP.
 50
0.000000
 41
1.052632
 51
0.000000
  7
STANDARD
  0
TEXT
  8
0
 10
-185.892654
 20
122.050003
 40
4.500000
  1
HANDLING MODULE
 50
0.000000
 41
1.052632
 51
0.000000
  7
STANDARD
  0
TEXT
  8
0
 10
-186.892654
 20
104.550003
 40
4.500000
  1
MODEL:SHM21S-MA
 50
0.000000
 41
1.052632
 51
0.000000
  7
STANDARD
  0
ENDSEC
  0
EOF
