  0
SECTION
  2
HEADER
  0
ENDSEC
  0
SECTION
  2
TABLES
  0
TABLE
  2
LTYPE
 70
     4
  0
LTYPE
  2
CONTINUOUS
 70
    64
  3
Solid line
 72
    65
 73
     0
 40
0.000000
  0
LTYPE
  2
DASHED
 70
    64
  3
__ __ __ __ __ __ __ __ __ __ __ __ __ __ __
 72
    65
 73
     2
 40
3.500000
 49
2.000000
 49
-1.500000
  0
LTYPE
  2
CENTER
 70
    64
  3
____ _ ____ _ ____ _ ____ _ ____ _ ____ _ ____
 72
    65
 73
     4
 40
17.500000
 49
13.000000
 49
-1.500000
 49
1.500000
 49
-1.500000
  0
LTYPE
  2
PHANTOM
 70
    64
  3
_____ _ _ _____ _ _ _____ _ _ _____ _ _ ____  
 72
    65
 73
     6
 40
15.500000
 49
8.000000
 49
-1.500000
 49
1.500000
 49
-1.500000
 49
1.500000
 49
-1.500000
  0
LTYPE
  2
DASHED1
 70
    64
  3
__ __ __ __ __ __ __ __ __ __ __ __ __ __ __
 72
    65
 73
     2
 40
1.500000
 49
1.000000
 49
-0.500000
  0
LTYPE
  2
DASHED2
 70
    64
  3
__ __ __ __ __ __ __ __ __ __ __ __ __ __ __
 72
    65
 73
     2
 40
3.500000
 49
2.500000
 49
-1.000000
  0
LTYPE
  2
DASHED3
 70
    64
  3
__ __ __ __ __ __ __ __ __ __ __ __ __ __ __
 72
    65
 73
     2
 40
6.000000
 49
4.000000
 49
-2.000000
  0
LTYPE
  2
DASHED4
 70
    64
  3
__ __ __ __ __ __ __ __ __ __ __ __ __ __ __
 72
    65
 73
     2
 40
12.000000
 49
10.000000
 49
-2.000000
  0
LTYPE
  2
DASHED5
 70
    64
  3
__ __ __ __ __ __ __ __ __ __ __ __ __ __ __
 72
    65
 73
     2
 40
17.000000
 49
15.000000
 49
-2.000000
  0
LTYPE
  2
DASHED6
 70
    64
  3
__ __ __ __ __ __ __ __ __ __ __ __ __ __ __
 72
    65
 73
     2
 40
29.000000
 49
27.000000
 49
-2.000000
  0
LTYPE
  2
PHANTOM1
 70
    64
  3
_____ _ _ _____ _ _ _____ _ _ _____ _ _ ____  
 72
    65
 73
     6
 40
31.000000
 49
25.000000
 49
-1.500000
 49
1.000000
 49
-1.000000
 49
1.000000
 49
-1.500000
  0
LTYPE
  2
PHANTOM2
 70
    64
  3
_____ _ _ _____ _ _ _____ _ _ _____ _ _ ____  
 72
    65
 73
     6
 40
36.000000
 49
27.000000
 49
-1.500000
 49
2.500000
 49
-1.000000
 49
2.500000
 49
-1.500000
  0
LTYPE
  2
PHANTOM3
 70
    64
  3
_____ _ _ _____ _ _ _____ _ _ _____ _ _ ____  
 72
    65
 73
     6
 40
78.000000
 49
64.000000
 49
-2.000000
 49
4.000000
 49
-2.000000
 49
4.000000
 49
-2.000000
  0
LTYPE
  2
CENTER1
 70
    64
  3
____ _ ____ _ ____ _ ____ _ ____ _ ____ _ ____
 72
    65
 73
     4
 40
19.000000
 49
14.000000
 49
-1.000000
 49
3.000000
 49
-1.000000
  0
LTYPE
  2
CENTER2
 70
    64
  3
____ _ ____ _ ____ _ ____ _ ____ _ ____ _ ____
 72
    65
 73
     4
 40
28.500000
 49
25.000000
 49
-1.000000
 49
1.500000
 49
-1.000000
  0
LTYPE
  2
CENTER3
 70
    64
  3
____ _ ____ _ ____ _ ____ _ ____ _ ____ _ ____
 72
    65
 73
     4
 40
31.500000
 49
27.000000
 49
-1.000000
 49
2.500000
 49
-1.000000
  0
LTYPE
  2
CENTER4
 70
    64
  3
____ _ ____ _ ____ _ ____ _ ____ _ ____ _ ____
 72
    65
 73
     4
 40
50.000000
 49
45.000000
 49
-1.000000
 49
3.000000
 49
-1.000000
  0
LTYPE
  2
CENTER5
 70
    64
  3
____ _ ____ _ ____ _ ____ _ ____ _ ____ _ ____
 72
    65
 73
     4
 40
100.000000
 49
92.000000
 49
-2.000000
 49
4.000000
 49
-2.000000
  0
LTYPE
  2
SBK1
 70
    64
  3
______ _ _ _ ______ _ _ _ ______ _ _ _ _____  
 72
    65
 73
     8
 40
60.500000
 49
45.000000
 49
-2.000000
 49
2.500000
 49
-2.000000
 49
2.500000
 49
-2.000000
 49
2.500000
 49
-2.000000
  0
LTYPE
  2
SBK2
 70
    64
  3
______ _ _ _ ______ _ _ _ ______ _ _ _ _____  
 72
    65
 73
     8
 40
84.000000
 49
64.000000
 49
-2.000000
 49
4.000000
 49
-2.000000
 49
4.000000
 49
-2.000000
 49
4.000000
 49
-2.000000
  0
LTYPE
  2
STCH
 70
    64
  3
__ __ __ __ __ __ __ __ __ __ __ __ __ __ __
 72
    65
 73
     2
 40
3.000000
 49
1.000000
 49
-2.000000
  0
LTYPE
  2
MTCH
 70
    64
  3
_____ _ _ _____ _ _ _____ _ _ _____ _ _ ____  
 72
    65
 73
     6
 40
80.000000
 49
66.000000
 49
-2.000000
 49
4.000000
 49
-2.000000
 49
4.000000
 49
-2.000000
  0
ENDTAB
  0
TABLE
  2
LAYER
 70
     1
  0
LAYER
  2
0
 70
     0
 62
     7
  6
CONTINUOUS
  0
ENDTAB
  0
TABLE
  2
STYLE
 70
     1
  0
STYLE
  2
STANDARD
 70
     0
 40
0.000000
 41
1.000000
 50
0.000000
 71
     0
 42
0.200000
  3
txt
  4
BIGFONT
  0
ENDTAB
  0
TABLE
  2
VIEW
 70
     0
  0
ENDTAB
  0
ENDSEC
  0
SECTION
  2
BLOCKS
  0
ENDSEC
  0
SECTION
  2
ENTITIES
  0
LINE
  8
0
 10
-281.250000
 20
195.500000
 11
282.099976
 21
195.500000
  0
LINE
  8
0
 10
-281.250000
 20
195.500000
 11
-281.250000
 21
-195.000000
  0
LINE
  8
0
 10
282.099976
 20
195.500000
 11
282.099976
 21
-195.000000
  0
LINE
  8
0
 10
-281.250000
 20
-195.000000
 11
282.099976
 21
-195.000000
  0
LINE
  8
0
 10
162.099976
 20
-175.000000
 11
162.099976
 21
-195.000000
  0
LINE
  8
0
 10
162.099976
 20
-175.000000
 11
282.099976
 21
-175.000000
  0
LINE
  8
0
 10
162.099976
 20
175.500000
 11
282.099976
 21
175.500000
  0
LINE
  8
0
 10
-281.250000
 20
175.500000
 11
-161.250000
 21
175.500000
  0
LINE
  8
0
 10
162.099976
 20
195.500000
 11
162.099976
 21
175.500000
  0
LINE
  8
0
 10
-161.250000
 20
195.500000
 11
-161.250000
 21
175.500000
  0
LINE
  8
0
  6
CENTER
 62
     2
 10
80.461884
 20
3.886944
 11
193.812897
 21
3.886944
  0
LINE
  8
0
  6
CENTER
 62
     2
 10
137.800598
 20
-41.675739
 11
137.800598
 21
48.947216
  0
LINE
  8
0
 10
97.800575
 20
43.886944
 11
177.800583
 21
43.886944
  0
LINE
  8
0
 10
97.800598
 20
43.886921
 11
97.800598
 21
-36.213116
  0
LINE
  8
0
 10
86.336533
 20
11.458721
 11
88.264969
 21
11.458721
  0
LINE
  8
0
 10
86.336517
 20
21.851059
 11
88.264709
 21
21.851059
  0
LINE
  8
0
 10
86.336426
 20
25.315136
 11
88.264771
 21
25.315136
  0
LINE
  8
0
 10
85.800613
 20
12.386915
 11
85.800613
 21
24.386915
  0
LINE
  8
0
 10
86.336151
 20
11.458633
 11
85.800262
 21
12.386820
  0
LINE
  8
0
 10
86.336533
 20
14.922832
 11
88.264725
 21
14.922832
  0
LINE
  8
0
 10
86.336197
 20
25.315273
 11
85.800278
 21
24.387033
  0
LINE
  8
0
 10
88.264755
 20
25.315069
 11
88.800659
 21
24.386856
  0
LINE
  8
0
 10
88.264969
 20
11.458699
 11
88.800858
 21
12.386887
  0
LINE
  8
0
 10
95.300598
 20
-52.713100
 11
90.300598
 21
-52.713100
  0
LINE
  8
0
 10
90.300568
 20
-52.713120
 11
90.300568
 21
-48.713120
  0
LINE
  8
0
 10
95.300568
 20
-52.713116
 11
95.300568
 21
-48.713116
  0
LINE
  8
0
 10
95.300598
 20
-48.713093
 11
90.300598
 21
-48.713093
  0
LINE
  8
0
 10
96.700699
 20
-25.713093
 11
88.900650
 21
-25.713093
  0
LINE
  8
0
 10
96.800644
 20
-40.213100
 11
88.800644
 21
-40.213100
  0
LINE
  8
0
 10
96.800583
 20
-41.013081
 11
88.800583
 21
-41.013081
  0
LINE
  8
0
 10
96.800583
 20
-43.513088
 11
88.800583
 21
-43.513088
  0
LINE
  8
0
 10
88.800568
 20
-43.513107
 11
88.800568
 21
-41.013107
  0
LINE
  8
0
 10
96.800568
 20
-43.513103
 11
96.800568
 21
-41.013103
  0
LINE
  8
0
 10
90.300568
 20
-41.013107
 11
90.300568
 21
-40.213120
  0
LINE
  8
0
 10
95.300568
 20
-41.013103
 11
95.300568
 21
-40.213116
  0
LINE
  8
0
 10
94.300552
 20
-48.713116
 11
94.300552
 21
-43.513103
  0
LINE
  8
0
 10
91.300552
 20
-48.713120
 11
91.300552
 21
-43.513107
  0
LINE
  8
0
 62
     2
 10
91.571060
 20
-48.713120
 11
91.571060
 21
-43.513107
  0
LINE
  8
0
 62
     2
 10
94.030060
 20
-48.713120
 11
94.030060
 21
-43.513107
  0
LINE
  8
0
 10
89.550568
 20
-27.213120
 11
89.550568
 21
-25.713120
  0
LINE
  8
0
 10
88.900574
 20
-25.713120
 11
88.900574
 21
-25.113144
  0
LINE
  8
0
 10
87.900558
 20
-36.213120
 11
87.900558
 21
-33.208115
  0
LINE
  8
0
 10
97.800613
 20
-27.213093
 11
87.900589
 21
-27.213093
  0
LINE
  8
0
 10
88.800568
 20
-40.213120
 11
88.800568
 21
-36.213120
  0
LINE
  8
0
 10
96.800568
 20
-40.213116
 11
96.800568
 21
-36.213116
  0
LINE
  8
0
 10
92.800568
 20
-39.855881
 11
92.800568
 21
-37.213120
  0
LINE
  8
0
 10
87.900558
 20
-31.218124
 11
87.900558
 21
-27.213120
  0
LINE
  8
0
 10
89.800644
 20
-36.213100
 11
87.900650
 21
-36.213100
  0
LINE
  8
0
 10
97.800613
 20
-36.113064
 11
177.800613
 21
-36.113064
  0
LINE
  8
0
  6
CENTER
 62
     2
 10
105.300598
 20
32.551872
 11
105.300598
 21
40.415535
  0
LINE
  8
0
  6
CENTER
 62
     2
 10
101.116493
 20
36.386944
 11
109.793648
 21
36.386944
  0
LINE
  8
0
  6
CENTER
 62
     2
 10
105.300598
 20
-25.747725
 11
105.300598
 21
-31.984428
  0
LINE
  8
0
  6
CENTER
 62
     2
 10
101.658859
 20
-28.613056
 11
108.166718
 21
-28.613056
  0
LINE
  8
0
  6
CENTER
 62
     2
 10
170.300598
 20
-25.205370
 11
170.300598
 21
-31.713234
  0
LINE
  8
0
  6
CENTER
 62
     2
 10
174.329987
 20
-28.613056
 11
167.008636
 21
-28.613056
  0
LINE
  8
0
 10
140.800598
 20
35.386944
 11
140.800598
 21
43.886944
  0
LINE
  8
0
 10
134.800598
 20
35.386944
 11
134.800598
 21
43.886944
  0
LINE
  8
0
 10
177.800598
 20
43.886967
 11
177.800598
 21
-36.213070
  0
LINE
  8
0
 10
97.800613
 20
-25.113056
 11
88.300613
 21
-25.113056
  0
LINE
  8
0
 10
74.100586
 20
13.386936
 11
85.800644
 21
13.386936
  0
LINE
  8
0
 62
     2
 10
73.300598
 20
14.186939
 11
85.800644
 21
14.186939
  0
LINE
  8
0
 10
70.300613
 20
14.186939
 11
73.300598
 21
14.186939
  0
LINE
  8
0
 62
     2
 10
73.300583
 20
22.586937
 11
85.800629
 21
22.586937
  0
LINE
  8
0
 10
74.100571
 20
23.386936
 11
85.800629
 21
23.386936
  0
LINE
  8
0
 10
70.300598
 20
22.586937
 11
73.300583
 21
22.586937
  0
LINE
  8
0
 10
74.100334
 20
13.386575
 11
73.300346
 21
14.186571
  0
LINE
  8
0
 10
73.300598
 20
22.586889
 11
73.300598
 21
14.186896
  0
LINE
  8
0
 10
74.100571
 20
23.386892
 11
74.100571
 21
13.386893
  0
LINE
  8
0
 10
73.300674
 20
22.586809
 11
74.100677
 21
23.386816
  0
LINE
  8
0
 10
70.300644
 20
14.186956
 11
69.300644
 21
15.186957
  0
LINE
  8
0
 10
70.300682
 20
22.586849
 11
69.300682
 21
21.586849
  0
LINE
  8
0
 10
73.300613
 20
15.376537
 11
70.300613
 21
15.376537
  0
LINE
  8
0
 10
73.300598
 20
21.397339
 11
70.300598
 21
21.397339
  0
LINE
  8
0
 10
70.300583
 20
14.186894
 11
70.300583
 21
15.376500
  0
LINE
  8
0
 10
70.301193
 20
21.397297
 11
70.301193
 21
22.586887
  0
LINE
  8
0
 62
     2
 10
70.300430
 20
15.376569
 11
73.300438
 21
21.397375
  0
LINE
  8
0
 62
     2
 10
73.300690
 20
15.376519
 11
70.300682
 21
21.397326
  0
LINE
  8
0
 10
97.800583
 20
26.886944
 11
177.800598
 21
26.886944
  0
LINE
  8
0
 10
97.800613
 20
-19.113056
 11
177.800629
 21
-19.113056
  0
LINE
  8
0
 10
96.050690
 20
-27.213116
 11
96.050690
 21
-25.713116
  0
LINE
  8
0
 10
97.800613
 20
-36.213100
 11
95.800690
 21
-36.213100
  0
LINE
  8
0
  6
CENTER
 62
     2
 10
170.300598
 20
32.823074
 11
170.300598
 21
40.957901
  0
LINE
  8
0
  6
CENTER
 62
     2
 10
174.872269
 20
36.386944
 11
166.466278
 21
36.386944
  0
LINE
  8
0
  6
CENTER
 62
     2
 10
133.320190
 20
-28.613056
 11
143.417633
 21
-28.613056
  0
LINE
  8
0
 10
92.800629
 20
-37.213089
 11
92.800629
 21
-39.855824
  0
LINE
  8
0
 10
178.800629
 20
-25.113056
 11
186.800629
 21
-25.113056
  0
LINE
  8
0
 10
180.300674
 20
-52.713100
 11
185.300674
 21
-52.713100
  0
LINE
  8
0
 10
185.300629
 20
-52.713066
 11
185.300629
 21
-48.713066
  0
LINE
  8
0
 10
180.300629
 20
-52.713070
 11
180.300629
 21
-48.713070
  0
LINE
  8
0
 10
180.300674
 20
-48.713093
 11
185.300674
 21
-48.713093
  0
LINE
  8
0
 10
178.900543
 20
-25.713093
 11
186.700592
 21
-25.713093
  0
LINE
  8
0
 10
178.800598
 20
-40.213100
 11
186.800598
 21
-40.213100
  0
LINE
  8
0
 10
178.800659
 20
-41.013081
 11
186.800659
 21
-41.013081
  0
LINE
  8
0
 10
178.800659
 20
-43.513088
 11
186.800659
 21
-43.513088
  0
LINE
  8
0
 10
186.800629
 20
-43.513054
 11
186.800629
 21
-41.013054
  0
LINE
  8
0
 10
178.800629
 20
-43.513058
 11
178.800629
 21
-41.013058
  0
LINE
  8
0
 10
185.300629
 20
-41.013054
 11
185.300629
 21
-40.213066
  0
LINE
  8
0
 10
180.300629
 20
-41.013058
 11
180.300629
 21
-40.213070
  0
LINE
  8
0
 10
181.300644
 20
-48.713070
 11
181.300644
 21
-43.513058
  0
LINE
  8
0
 10
184.300644
 20
-48.713066
 11
184.300644
 21
-43.513054
  0
LINE
  8
0
 62
     2
 10
184.030136
 20
-48.713066
 11
184.030136
 21
-43.513054
  0
LINE
  8
0
 62
     2
 10
181.571136
 20
-48.713066
 11
181.571136
 21
-43.513054
  0
LINE
  8
0
 10
186.050629
 20
-27.213066
 11
186.050629
 21
-25.713066
  0
LINE
  8
0
 10
186.700623
 20
-25.713066
 11
186.700623
 21
-25.113091
  0
LINE
  8
0
 10
187.700638
 20
-36.213066
 11
187.700638
 21
-33.208061
  0
LINE
  8
0
 10
177.800629
 20
-27.213093
 11
187.700653
 21
-27.213093
  0
LINE
  8
0
 10
186.800629
 20
-40.213066
 11
186.800629
 21
-36.213066
  0
LINE
  8
0
 10
178.800629
 20
-40.213070
 11
178.800629
 21
-36.213070
  0
LINE
  8
0
 10
182.800629
 20
-39.855827
 11
182.800629
 21
-37.213066
  0
LINE
  8
0
 10
187.700638
 20
-31.218071
 11
187.700638
 21
-27.213066
  0
LINE
  8
0
 10
185.800598
 20
-36.213100
 11
187.700592
 21
-36.213100
  0
LINE
  8
0
 10
177.800629
 20
-25.113056
 11
187.300629
 21
-25.113056
  0
LINE
  8
0
 10
179.550507
 20
-27.213070
 11
179.550507
 21
-25.713070
  0
LINE
  8
0
 10
177.800629
 20
-36.213100
 11
179.800552
 21
-36.213100
  0
LINE
  8
0
 10
182.800568
 20
-37.213036
 11
182.800568
 21
-39.855770
  0
LINE
  8
0
 10
96.700684
 20
-25.713116
 11
96.700684
 21
-25.113140
  0
LINE
  8
0
 10
189.264679
 20
25.315136
 11
187.336243
 21
25.315136
  0
LINE
  8
0
 10
189.100586
 20
14.922832
 11
187.336487
 21
14.922832
  0
LINE
  8
0
 10
189.264771
 20
11.458721
 11
187.336426
 21
11.458721
  0
LINE
  8
0
 10
189.800568
 20
24.386972
 11
189.800568
 21
12.386972
  0
LINE
  8
0
 10
189.264618
 20
25.314964
 11
189.800507
 21
24.386778
  0
LINE
  8
0
 10
189.264679
 20
21.851059
 11
187.336487
 21
21.851059
  0
LINE
  8
0
 10
189.265015
 20
11.458640
 11
189.800903
 21
12.386852
  0
LINE
  8
0
 10
186.800598
 20
24.386971
 11
186.800598
 21
12.386971
  0
LINE
  8
0
 10
187.336456
 20
11.458734
 11
186.800537
 21
12.386972
  0
LINE
  8
0
 10
187.336502
 20
25.315107
 11
186.800583
 21
24.386868
  0
LINE
  8
0
 10
88.300598
 20
8.886944
 11
91.800598
 21
8.886944
  0
LINE
  8
0
 10
88.300598
 20
8.886916
 11
88.300598
 21
-25.113083
  0
LINE
  8
0
 10
187.300598
 20
8.886944
 11
183.800598
 21
8.886944
  0
LINE
  8
0
 10
187.300598
 20
8.886971
 11
187.300598
 21
-25.113029
  0
LINE
  8
0
 10
178.900513
 20
-25.713070
 11
178.900513
 21
-25.113094
  0
LINE
  8
0
 10
183.800583
 20
29.886883
 11
177.800583
 21
29.886883
  0
LINE
  8
0
 10
183.800598
 20
26.065189
 11
177.800598
 21
26.065189
  0
LINE
  8
0
 10
183.800598
 20
29.886909
 11
183.800598
 21
8.886969
  0
LINE
  8
0
 10
91.800575
 20
29.886883
 11
97.800575
 21
29.886883
  0
LINE
  8
0
 10
91.800583
 20
26.065189
 11
97.800583
 21
26.065189
  0
LINE
  8
0
 10
91.800598
 20
29.886856
 11
91.800598
 21
8.886919
  0
LINE
  8
0
 10
69.300705
 20
21.586872
 11
69.300705
 21
15.186940
  0
LINE
  8
0
 10
201.500610
 20
13.386936
 11
189.800552
 21
13.386936
  0
LINE
  8
0
 62
     2
 10
202.300598
 20
14.186939
 11
189.800552
 21
14.186939
  0
LINE
  8
0
 10
205.300598
 20
14.186939
 11
202.300598
 21
14.186939
  0
LINE
  8
0
 62
     2
 10
202.300583
 20
22.586937
 11
189.800537
 21
22.586937
  0
LINE
  8
0
 10
201.500595
 20
23.386936
 11
189.800537
 21
23.386936
  0
LINE
  8
0
 10
205.300568
 20
22.586937
 11
202.300583
 21
22.586937
  0
LINE
  8
0
 10
201.500885
 20
13.386618
 11
202.300888
 21
14.186625
  0
LINE
  8
0
 10
202.300598
 20
22.586962
 11
202.300598
 21
14.186967
  0
LINE
  8
0
 10
201.500610
 20
23.386965
 11
201.500610
 21
13.386964
  0
LINE
  8
0
 10
202.300476
 20
22.586798
 11
201.500473
 21
23.386805
  0
LINE
  8
0
 10
205.300613
 20
14.186969
 11
206.300598
 21
15.186959
  0
LINE
  8
0
 10
205.300537
 20
22.586937
 11
206.300537
 21
21.586937
  0
LINE
  8
0
 10
202.300598
 20
15.376537
 11
205.300598
 21
15.376537
  0
LINE
  8
0
 10
202.300568
 20
21.397339
 11
205.300568
 21
21.397339
  0
LINE
  8
0
 10
205.300613
 20
14.186969
 11
205.300613
 21
15.376575
  0
LINE
  8
0
 10
205.300003
 20
21.397373
 11
205.300003
 21
22.586964
  0
LINE
  8
0
 62
     2
 10
205.300644
 20
15.376610
 11
202.300644
 21
21.397415
  0
LINE
  8
0
 62
     2
 10
202.300568
 20
15.376576
 11
205.300568
 21
21.397396
  0
LINE
  8
0
 10
206.300507
 20
21.586948
 11
206.300507
 21
15.187015
  0
LINE
  8
0
 10
162.800613
 20
-38.113045
 11
162.800613
 21
-36.113045
  0
LINE
  8
0
 10
158.800598
 20
-38.113045
 11
158.800598
 21
-36.113045
  0
LINE
  8
0
 10
158.800629
 20
-38.113064
 11
162.800629
 21
-38.113064
  0
LINE
  8
0
 62
     2
 10
162.200607
 20
-38.113045
 11
162.200607
 21
-36.113045
  0
LINE
  8
0
 62
     2
 10
159.400604
 20
-38.113045
 11
159.400604
 21
-36.113045
  0
LINE
  8
0
 10
112.800591
 20
-38.113068
 11
112.800591
 21
-36.113068
  0
LINE
  8
0
 62
     2
 10
113.400589
 20
-38.113068
 11
113.400589
 21
-36.113068
  0
LINE
  8
0
 62
     2
 10
116.200592
 20
-38.113068
 11
116.200592
 21
-36.113068
  0
LINE
  8
0
 10
116.800598
 20
-38.113068
 11
116.800598
 21
-36.113068
  0
LINE
  8
0
 10
116.800613
 20
-38.113064
 11
112.800613
 21
-38.113064
  0
LINE
  8
0
 10
91.264961
 20
11.458694
 11
91.800850
 21
12.386882
  0
LINE
  8
0
 10
88.800613
 20
12.386917
 11
88.800613
 21
24.386917
  0
LINE
  8
0
 10
89.336151
 20
11.458630
 11
88.800262
 21
12.386816
  0
LINE
  8
0
 10
89.336197
 20
25.315266
 11
88.800278
 21
24.387026
  0
LINE
  8
0
 10
91.264740
 20
25.315073
 11
91.800644
 21
24.386860
  0
LINE
  8
0
 10
89.336533
 20
14.922832
 11
91.264725
 21
14.922832
  0
LINE
  8
0
 10
89.336533
 20
11.458721
 11
91.264969
 21
11.458721
  0
LINE
  8
0
 10
89.336517
 20
21.851059
 11
91.264709
 21
21.851059
  0
LINE
  8
0
 10
89.336426
 20
25.315136
 11
91.264771
 21
25.315136
  0
LINE
  8
0
 10
186.264999
 20
11.458650
 11
186.800903
 21
12.386863
  0
LINE
  8
0
 10
183.800598
 20
24.386971
 11
183.800598
 21
12.386970
  0
LINE
  8
0
 10
184.336487
 20
25.315117
 11
183.800568
 21
24.386877
  0
LINE
  8
0
 10
184.336441
 20
11.458741
 11
183.800522
 21
12.386981
  0
LINE
  8
0
 10
186.264679
 20
25.315136
 11
184.336243
 21
25.315136
  0
LINE
  8
0
 10
186.100586
 20
14.922832
 11
184.336487
 21
14.922832
  0
LINE
  8
0
 10
186.264771
 20
11.458721
 11
184.336426
 21
11.458721
  0
LINE
  8
0
 10
186.800568
 20
24.386971
 11
186.800568
 21
12.386971
  0
LINE
  8
0
 10
186.264618
 20
25.314981
 11
186.800507
 21
24.386795
  0
LINE
  8
0
 10
186.264679
 20
21.851059
 11
184.336487
 21
21.851059
  0
LINE
  8
0
  6
CENTER
 62
     2
 10
17.654480
 20
3.886967
 11
-36.422615
 21
3.886967
  0
LINE
  8
0
 10
-30.934700
 20
43.886963
 11
-23.934700
 21
43.886963
  0
LINE
  8
0
 10
-30.934715
 20
-36.113033
 11
-23.934715
 21
-36.113033
  0
LINE
  8
0
 10
-30.934723
 20
6.086983
 11
-30.934723
 21
1.686989
  0
LINE
  8
0
 10
-30.934723
 20
43.887001
 11
-30.934723
 21
-36.112999
  0
LINE
  8
0
 10
14.065300
 20
43.886963
 11
7.065300
 21
43.886963
  0
LINE
  8
0
 10
7.065277
 20
43.886971
 11
7.065277
 21
32.386971
  0
LINE
  8
0
 10
-23.934723
 20
-36.113029
 11
-23.934723
 21
43.887001
  0
LINE
  8
0
  6
CENTER
 62
     2
 10
-4.934723
 20
42.829460
 11
-4.934723
 21
-57.450691
  0
LINE
  8
0
 10
1.565277
 20
22.139778
 11
1.565277
 21
14.634224
  0
LINE
  8
0
 10
-11.434723
 20
22.139778
 11
-11.434723
 21
14.634224
  0
LINE
  8
0
 10
-4.934702
 20
25.892555
 11
-11.434704
 21
22.139778
  0
LINE
  8
0
 10
1.565322
 20
14.634210
 11
-4.934679
 21
10.881433
  0
LINE
  8
0
 10
-11.434725
 20
14.634175
 11
-4.934712
 21
10.881389
  0
LINE
  8
0
 10
-4.934729
 20
25.892483
 11
1.565271
 21
22.139704
  0
LINE
  8
0
 10
-1.934723
 20
22.386971
 11
-1.934723
 21
14.386971
  0
LINE
  8
0
 10
-7.934723
 20
22.386971
 11
-7.934723
 21
14.386971
  0
LINE
  8
0
 10
-1.364006
 20
-25.113033
 11
-8.505424
 21
-25.113033
  0
LINE
  8
0
 10
-0.034729
 20
-36.213005
 11
-0.034729
 21
-35.613029
  0
LINE
  8
0
 10
-9.834717
 20
-36.213005
 11
-9.834717
 21
-27.213005
  0
LINE
  8
0
 10
-9.834709
 20
-27.213009
 11
-0.034721
 21
-27.213009
  0
LINE
  8
0
 10
-9.834709
 20
-36.213009
 11
-0.034721
 21
-36.213009
  0
LINE
  8
0
 10
-4.934715
 20
-32.913021
 11
2.565285
 21
-32.913021
  0
LINE
  8
0
 10
-4.934715
 20
-31.513027
 11
2.565285
 21
-31.513027
  0
LINE
  8
0
 10
-0.034798
 20
-35.613064
 11
-1.334801
 21
-32.913059
  0
LINE
  8
0
 10
-0.034800
 20
-28.812920
 11
-1.334818
 21
-31.512955
  0
LINE
  8
0
 10
-0.034729
 20
-28.813011
 11
-0.034729
 21
-27.213005
  0
LINE
  8
0
 10
2.565285
 20
-37.113033
 11
10.565285
 21
-37.113033
  0
LINE
  8
0
 10
15.065277
 20
-37.213005
 11
15.065277
 21
-27.213005
  0
LINE
  8
0
 10
13.465271
 20
-37.213005
 11
13.465271
 21
-27.213005
  0
LINE
  8
0
 10
-0.034721
 20
-35.613033
 11
1.065285
 21
-35.613033
  0
LINE
  8
0
 10
2.565277
 20
-37.113029
 11
2.565277
 21
-27.313011
  0
LINE
  8
0
 10
1.065277
 20
-35.613029
 11
1.065277
 21
-32.913017
  0
LINE
  8
0
 10
10.565277
 20
-37.113029
 11
10.565277
 21
-27.313011
  0
LINE
  8
0
 10
12.165283
 20
-36.963005
 11
12.165283
 21
-27.463005
  0
LINE
  8
0
 10
13.465271
 20
-37.213009
 11
15.065277
 21
-37.213009
  0
LINE
  8
0
 10
10.565285
 20
-36.963009
 11
12.165283
 21
-36.963009
  0
LINE
  8
0
 10
13.465279
 20
-27.213009
 11
15.065285
 21
-27.213009
  0
LINE
  8
0
 10
10.565285
 20
-27.463009
 11
12.165291
 21
-27.463009
  0
LINE
  8
0
 10
2.565285
 20
-27.313015
 11
10.565285
 21
-27.313015
  0
LINE
  8
0
 10
-0.034721
 20
-28.813015
 11
1.065285
 21
-28.813015
  0
LINE
  8
0
 10
12.165283
 20
-35.463009
 11
13.465271
 21
-35.463009
  0
LINE
  8
0
 10
12.165291
 20
-28.963009
 11
13.465279
 21
-28.963009
  0
LINE
  8
0
 10
1.065277
 20
-31.513023
 11
1.065277
 21
-28.813011
  0
LINE
  8
0
 10
2.565194
 20
-37.113079
 11
1.065203
 21
-35.613091
  0
LINE
  8
0
 10
2.565268
 20
-27.313072
 11
1.065261
 21
-28.813078
  0
LINE
  8
0
 10
-8.834709
 20
-25.713009
 11
-1.034721
 21
-25.713009
  0
LINE
  8
0
 10
-1.684723
 20
-27.213005
 11
-1.684723
 21
-25.713005
  0
LINE
  8
0
 10
-8.184723
 20
-27.213005
 11
-8.184723
 21
-25.713005
  0
LINE
  8
0
 10
-1.034729
 20
-25.713005
 11
-1.034729
 21
-25.113029
  0
LINE
  8
0
 10
-8.834717
 20
-25.713005
 11
-8.834717
 21
-25.113029
  0
LINE
  8
0
 10
-6.934715
 20
-52.713009
 11
-2.934715
 21
-52.713009
  0
LINE
  8
0
 10
-2.434723
 20
-52.213005
 11
-2.434723
 21
-49.213005
  0
LINE
  8
0
 10
-7.434723
 20
-52.213005
 11
-7.434723
 21
-49.213005
  0
LINE
  8
0
 10
-2.434678
 20
-52.213062
 11
-2.934667
 21
-52.713051
  0
LINE
  8
0
 10
-6.934729
 20
-52.713017
 11
-7.434717
 21
-52.213028
  0
LINE
  8
0
 10
-6.934715
 20
-48.713009
 11
-2.934715
 21
-48.713009
  0
LINE
  8
0
 10
-7.434784
 20
-49.212975
 11
-6.934773
 21
-48.712963
  0
LINE
  8
0
 10
-2.934691
 20
-48.712933
 11
-2.434692
 21
-49.212936
  0
LINE
  8
0
 10
-7.434715
 20
-52.213009
 11
-2.434715
 21
-52.213009
  0
LINE
  8
0
 10
-7.434715
 20
-49.213009
 11
-2.434715
 21
-49.213009
  0
LINE
  8
0
 10
-8.398827
 20
-40.213009
 11
-1.470604
 21
-40.213009
  0
LINE
  8
0
 10
-8.934723
 20
-41.012997
 11
-0.934723
 21
-41.012997
  0
LINE
  8
0
 10
-8.934723
 20
-43.512997
 11
-0.934723
 21
-43.512997
  0
LINE
  8
0
 10
-0.934723
 20
-43.512997
 11
-0.934723
 21
-41.012997
  0
LINE
  8
0
 10
-8.934723
 20
-43.512997
 11
-8.934723
 21
-41.012997
  0
LINE
  8
0
 10
-0.315918
 20
-39.855766
 11
-0.315918
 21
-36.213005
  0
LINE
  8
0
 10
-2.625336
 20
-39.855766
 11
-2.625336
 21
-36.213005
  0
LINE
  8
0
 10
-7.244141
 20
-39.855766
 11
-7.244141
 21
-36.213005
  0
LINE
  8
0
 10
-9.553528
 20
-39.855766
 11
-9.553528
 21
-36.213005
  0
LINE
  8
0
 10
-2.434723
 20
-41.012993
 11
-2.434723
 21
-40.213005
  0
LINE
  8
0
 10
-7.434723
 20
-41.012993
 11
-7.434723
 21
-40.213005
  0
LINE
  8
0
 10
-6.434723
 20
-48.713005
 11
-6.434723
 21
-43.512993
  0
LINE
  8
0
 10
-3.434723
 20
-48.713005
 11
-3.434723
 21
-43.512993
  0
LINE
  8
0
 62
     2
 10
-3.705231
 20
-48.713005
 11
-3.705231
 21
-43.512993
  0
LINE
  8
0
 62
     2
 10
-6.164215
 20
-48.713005
 11
-6.164215
 21
-43.512993
  0
LINE
  8
0
 10
14.065277
 20
-27.213005
 11
14.065277
 21
43.886971
  0
LINE
  8
0
 10
-15.393677
 20
-27.500587
 11
-15.393677
 21
-25.113029
  0
LINE
  8
0
 10
-21.455246
 20
-27.500450
 11
-21.455246
 21
-24.613029
  0
LINE
  8
0
 10
-23.475769
 20
-27.500496
 11
-23.475769
 21
-24.613029
  0
LINE
  8
0
 10
-15.935066
 20
-27.813030
 11
-22.934364
 21
-27.813030
  0
LINE
  8
0
 10
-15.393697
 20
-27.500515
 11
-15.935095
 21
-27.813091
  0
LINE
  8
0
 10
-17.414185
 20
-27.500465
 11
-17.414185
 21
-25.113029
  0
LINE
  8
0
 10
-23.475712
 20
-27.500418
 11
-22.934315
 21
-27.812994
  0
LINE
  8
0
 10
-17.434723
 20
-27.813026
 11
-17.434723
 21
-38.113029
  0
LINE
  8
0
 10
-21.434723
 20
-27.813026
 11
-21.434723
 21
-38.113029
  0
LINE
  8
0
 62
     2
 10
-18.034729
 20
-27.813026
 11
-18.034729
 21
-38.113029
  0
LINE
  8
0
 62
     2
 10
-20.834717
 20
-27.813026
 11
-20.834717
 21
-38.113029
  0
LINE
  8
0
 10
-23.434731
 20
-24.613033
 11
-17.434715
 21
-24.613033
  0
LINE
  8
0
 10
-23.434723
 20
-24.613029
 11
-23.434723
 21
32.386971
  0
LINE
  8
0
 10
-21.434715
 20
-38.113033
 11
-17.434715
 21
-38.113033
  0
LINE
  8
0
 62
     4
 10
-9.451332
 20
35.386963
 11
-0.417961
 21
35.386963
  0
LINE
  8
0
 62
     4
 10
-0.417951
 20
35.386955
 11
2.565303
 21
34.417637
  0
LINE
  8
0
 62
     4
 10
2.565277
 20
34.417656
 11
2.565277
 21
32.314735
  0
LINE
  8
0
 62
     4
 10
-8.322395
 20
32.386963
 11
-1.447014
 21
32.386963
  0
LINE
  8
0
 62
     4
 10
-7.934723
 20
35.386971
 11
-7.934723
 21
33.386971
  0
LINE
  8
0
 62
     4
 10
-8.997017
 20
33.386963
 11
-0.734734
 21
33.386963
  0
LINE
  8
0
 10
3.284510
 20
32.386993
 11
2.254826
 21
29.217955
  0
LINE
  8
0
 10
-13.153980
 20
32.386936
 11
-12.124299
 21
29.217903
  0
LINE
  8
0
 62
     4
 10
-12.575419
 20
32.224281
 11
-11.339353
 21
28.420057
  0
LINE
  8
0
 10
7.565285
 20
8.886967
 11
-17.434715
 21
8.886967
  0
LINE
  8
0
 10
7.565285
 20
-25.113033
 11
-17.434715
 21
-25.113033
  0
LINE
  8
0
 62
     4
 10
-8.771158
 20
33.460327
 11
-7.535100
 21
29.656130
  0
LINE
  8
0
 10
-13.153980
 20
32.386936
 11
-11.814857
 21
28.265537
  0
LINE
  8
0
 10
-2.934715
 20
29.886963
 11
-6.934685
 21
29.886963
  0
LINE
  8
0
 10
-2.934654
 20
29.887047
 11
7.565353
 21
26.065355
  0
LINE
  8
0
 10
-6.934746
 20
29.887032
 11
-17.434753
 21
26.065342
  0
LINE
  8
0
 10
7.065285
 20
32.386963
 11
3.284554
 21
32.386963
  0
LINE
  8
0
 10
-16.934723
 20
32.386971
 11
-16.934723
 21
26.247261
  0
LINE
  8
0
 62
     4
 10
-8.771125
 20
33.460430
 11
-12.575402
 21
32.224346
  0
LINE
  8
0
 62
     4
 10
-1.098330
 20
33.460342
 11
-2.334395
 21
29.656130
  0
LINE
  8
0
 62
     4
 10
-1.098261
 20
33.460426
 11
2.706008
 21
32.224342
  0
LINE
  8
0
 62
     4
 10
2.705939
 20
32.224293
 11
1.469870
 21
28.420067
  0
LINE
  8
0
 10
3.284514
 20
32.387005
 11
1.945385
 21
28.265593
  0
LINE
  8
0
 62
     4
 10
-3.434723
 20
33.386971
 11
-3.434723
 21
32.386971
  0
LINE
  8
0
 62
     4
 10
-6.434723
 20
33.386971
 11
-6.434723
 21
32.386971
  0
LINE
  8
0
 62
     4
 10
-9.451438
 20
35.386948
 11
-12.434686
 21
34.417629
  0
LINE
  8
0
 62
     4
 10
-12.434723
 20
34.417656
 11
-12.434723
 21
32.314735
  0
LINE
  8
0
 10
7.065277
 20
-27.313011
 11
7.065277
 21
-25.113029
  0
LINE
  8
0
 10
7.565277
 20
25.883293
 11
7.565277
 21
-25.113029
  0
LINE
  8
0
 10
-17.434723
 20
25.883293
 11
-17.434723
 21
-25.113029
  0
LINE
  8
0
 10
-23.434715
 20
32.386963
 11
-13.153984
 21
32.386963
  0
LINE
  8
0
  6
CENTER
 62
     2
 10
-20.709610
 20
28.886963
 11
-36.422615
 21
28.886963
  0
LINE
  8
0
  6
CENTER
 62
     2
 10
-21.311142
 20
-21.113033
 11
-36.422615
 21
-21.113033
  0
LINE
  8
0
  6
CENTER
 62
     2
 10
17.654480
 20
36.386963
 11
3.351654
 21
36.386963
  0
LINE
  8
0
  6
CENTER
 62
     2
 10
-21.010376
 20
-28.613033
 11
-36.422615
 21
-28.613033
  0
LINE
  8
0
  6
CENTER
 62
     2
 10
-20.709610
 20
36.386963
 11
-36.422615
 21
36.386963
  0
LINE
  8
0
 62
     4
 10
-1.934723
 20
35.386971
 11
-1.934723
 21
33.386971
  0
LINE
  8
0
 10
177.800583
 20
156.673584
 11
97.800583
 21
156.673584
  0
LINE
  8
0
 10
177.800598
 20
111.673584
 11
97.800606
 21
111.673584
  0
LINE
  8
0
 10
177.800598
 20
149.673584
 11
97.800598
 21
149.673584
  0
LINE
  8
0
 10
177.800598
 20
118.673584
 11
105.924339
 21
118.673584
  0
LINE
  8
0
  6
CENTER
 62
     2
 10
213.366974
 20
130.673584
 11
60.800613
 21
130.673584
  0
LINE
  8
0
 10
177.800598
 20
149.673599
 11
177.800598
 21
156.673599
  0
LINE
  8
0
 10
187.300598
 20
136.673584
 11
187.300598
 21
143.173599
  0
LINE
  8
0
 10
183.800598
 20
118.173592
 11
183.800598
 21
143.173599
  0
LINE
  8
0
 62
     4
 10
154.861252
 20
131.734299
 11
152.739929
 21
129.612976
  0
LINE
  8
0
 62
     4
 10
154.861374
 20
129.613098
 11
152.740051
 21
131.734421
  0
LINE
  8
0
 62
     4
 10
149.600601
 20
122.182281
 11
149.600601
 21
127.234131
  0
LINE
  8
0
 62
     4
 10
165.600601
 20
134.073624
 11
165.600601
 21
139.164871
  0
LINE
  8
0
 62
     4
 10
148.100601
 20
121.780304
 11
124.600601
 21
121.780304
  0
LINE
  8
0
 62
     4
 10
124.600601
 20
121.780334
 11
124.600601
 21
127.273590
  0
LINE
  8
0
 62
     4
 10
140.600601
 20
134.673553
 11
140.600601
 21
139.566772
  0
LINE
  8
0
 62
     4
 10
148.100601
 20
121.780334
 11
148.100601
 21
127.273590
  0
LINE
  8
0
 62
     4
 10
164.100601
 20
134.073624
 11
164.100601
 21
139.566788
  0
LINE
  8
0
 62
     4
 10
164.100601
 20
139.566742
 11
140.600601
 21
139.566742
  0
LINE
  8
0
 62
     4
 10
149.600632
 20
122.182167
 11
148.100632
 21
121.780243
  0
LINE
  8
0
 62
     4
 10
165.600693
 20
139.165054
 11
164.100693
 21
139.566986
  0
LINE
  8
0
  6
CENTER
 62
     2
 10
170.300598
 20
146.762039
 11
170.300598
 21
159.147842
  0
LINE
  8
0
  6
CENTER
 62
     2
 10
105.300598
 20
146.728989
 11
105.300598
 21
158.687851
  0
LINE
  8
0
 10
147.200592
 20
142.673584
 11
177.800598
 21
142.673584
  0
LINE
  8
0
 10
177.800598
 20
143.173599
 11
177.800598
 21
111.673592
  0
LINE
  8
0
 10
97.800598
 20
149.673569
 11
97.800598
 21
156.673569
  0
LINE
  8
0
 10
97.800598
 20
143.173569
 11
97.800598
 21
111.673576
  0
LINE
  8
0
 62
     4
 10
136.740021
 20
131.734421
 11
138.861328
 21
129.613098
  0
LINE
  8
0
 62
     4
 10
136.739914
 20
129.612961
 11
138.861237
 21
131.734283
  0
LINE
  8
0
  6
CENTER
 62
     2
 10
137.800598
 20
105.853607
 11
137.800598
 21
162.973572
  0
LINE
  8
0
 10
140.800598
 20
115.673584
 11
134.800598
 21
115.673584
  0
LINE
  8
0
 10
134.800598
 20
111.673584
 11
134.800598
 21
115.673584
  0
LINE
  8
0
 10
140.800598
 20
111.673584
 11
140.800598
 21
115.673584
  0
LINE
  8
0
 10
177.800598
 20
127.273590
 11
157.700592
 21
127.273590
  0
LINE
  8
0
 10
177.800598
 20
122.373566
 11
149.600601
 21
122.373566
  0
LINE
  8
0
 10
124.600601
 20
122.373566
 11
109.650566
 21
122.373566
  0
LINE
  8
0
 10
177.800598
 20
134.073578
 11
157.700592
 21
134.073578
  0
LINE
  8
0
 10
177.800598
 20
138.973572
 11
165.600601
 21
138.973572
  0
LINE
  8
0
 10
140.600601
 20
138.973572
 11
109.624336
 21
138.973572
  0
LINE
  8
0
 62
     4
 10
133.900604
 20
134.711121
 11
110.715202
 21
134.711121
  0
LINE
  8
0
 62
     4
 10
140.600601
 20
138.566833
 11
110.859505
 21
138.566833
  0
LINE
  8
0
 62
     4
 10
141.700592
 20
134.673584
 11
141.700592
 21
123.673584
  0
LINE
  8
0
 62
     4
 10
133.900604
 20
134.673584
 11
133.900604
 21
123.673584
  0
LINE
  8
0
 62
     4
 10
133.900604
 20
134.673553
 11
141.700592
 21
134.673553
  0
LINE
  8
0
 62
     4
 10
133.900604
 20
123.673553
 11
141.700592
 21
123.673553
  0
LINE
  8
0
 10
149.900604
 20
127.273590
 11
141.700592
 21
127.273590
  0
LINE
  8
0
 10
149.900604
 20
134.073578
 11
141.700592
 21
134.073578
  0
LINE
  8
0
 62
     4
 10
157.700592
 20
126.673584
 11
157.700592
 21
137.673584
  0
LINE
  8
0
 62
     4
 10
157.700592
 20
137.673584
 11
149.900604
 21
137.673584
  0
LINE
  8
0
 62
     4
 10
149.900604
 20
126.673584
 11
149.900604
 21
137.673584
  0
LINE
  8
0
 62
     4
 10
157.700592
 20
126.673584
 11
149.900604
 21
126.673584
  0
LINE
  8
0
 10
133.900604
 20
134.073578
 11
97.800606
 21
134.073578
  0
LINE
  8
0
 10
133.900604
 20
127.273590
 11
97.800606
 21
127.273590
  0
LINE
  8
0
 10
187.300598
 20
118.173599
 11
187.300598
 21
124.673576
  0
LINE
  8
0
 10
88.300598
 20
136.673584
 11
88.300598
 21
143.173569
  0
LINE
  8
0
 10
91.800598
 20
118.173576
 11
91.800598
 21
143.173569
  0
LINE
  8
0
 10
88.300598
 20
118.173569
 11
88.300598
 21
124.673576
  0
LINE
  8
0
 10
97.800606
 20
128.673584
 11
91.800606
 21
128.673584
  0
LINE
  8
0
 10
97.800606
 20
132.673553
 11
91.800606
 21
132.673553
  0
LINE
  8
0
 10
177.800598
 20
132.673553
 11
183.800598
 21
132.673553
  0
LINE
  8
0
 10
177.800598
 20
128.673584
 11
183.800598
 21
128.673584
  0
LINE
  8
0
 10
187.300598
 20
118.173584
 11
177.800598
 21
118.173584
  0
LINE
  8
0
 10
187.300598
 20
143.173584
 11
177.800598
 21
143.173584
  0
LINE
  8
0
 10
88.300598
 20
143.173584
 11
97.800598
 21
143.173584
  0
LINE
  8
0
 10
88.300606
 20
118.173584
 11
97.800606
 21
118.173584
  0
LINE
  8
0
 10
107.800598
 20
149.173584
 11
167.800598
 21
149.173584
  0
LINE
  8
0
 10
128.400589
 20
142.673584
 11
105.924324
 21
142.673584
  0
LINE
  8
0
 62
     4
 10
106.472656
 20
136.468628
 11
98.530342
 21
144.410934
  0
LINE
  8
0
 62
     4
 10
109.445351
 20
139.152725
 11
101.358765
 21
147.239304
  0
LINE
  8
0
 62
     4
 10
98.530075
 20
144.410919
 11
101.358505
 21
147.239349
  0
LINE
  8
0
 10
103.967453
 20
138.973572
 11
97.800598
 21
138.973572
  0
LINE
  8
0
 10
100.267456
 20
142.673584
 11
97.800598
 21
142.673584
  0
LINE
  8
0
 62
     4
 10
124.600601
 20
126.636017
 11
110.715202
 21
126.636017
  0
LINE
  8
0
 62
     4
 10
124.600601
 20
122.780304
 11
110.859505
 21
122.780304
  0
LINE
  8
0
 62
     4
 10
98.530365
 20
116.936516
 11
101.358795
 21
114.108093
  0
LINE
  8
0
 62
     4
 10
109.445221
 20
122.194641
 11
101.358627
 21
114.108040
  0
LINE
  8
0
 62
     4
 10
106.472481
 20
124.878822
 11
98.530167
 21
116.936501
  0
LINE
  8
0
 10
103.967476
 20
122.373566
 11
97.800606
 21
122.373566
  0
LINE
  8
0
 10
100.267464
 20
118.673584
 11
97.800606
 21
118.673584
  0
LINE
  8
0
 10
147.200592
 20
142.673584
 11
147.200592
 21
149.173584
  0
LINE
  8
0
 10
167.800598
 20
142.673599
 11
167.800598
 21
149.173599
  0
LINE
  8
0
 10
128.400604
 20
142.673584
 11
128.400604
 21
149.173584
  0
LINE
  8
0
 10
107.800598
 20
142.673569
 11
107.800598
 21
149.173569
  0
LINE
  8
0
 62
     2
 10
202.300552
 20
126.473587
 11
189.800552
 21
126.473587
  0
LINE
  8
0
 62
     2
 10
202.300552
 20
134.873581
 11
189.800552
 21
134.873581
  0
LINE
  8
0
 10
201.500549
 20
135.673599
 11
201.500549
 21
125.673599
  0
LINE
  8
0
 10
202.300552
 20
134.873596
 11
202.300552
 21
126.473595
  0
LINE
  8
0
 10
205.300552
 20
134.673599
 11
205.300552
 21
126.673599
  0
LINE
  8
0
 10
206.300552
 20
134.673599
 11
206.300552
 21
126.673607
  0
LINE
  8
0
 10
201.500549
 20
125.673584
 11
189.800552
 21
125.673584
  0
LINE
  8
0
 10
201.500549
 20
135.673584
 11
189.800552
 21
135.673584
  0
LINE
  8
0
 10
206.300552
 20
126.673584
 11
202.300552
 21
126.673584
  0
LINE
  8
0
 10
206.300552
 20
134.673584
 11
202.300552
 21
134.673584
  0
LINE
  8
0
 10
202.300583
 20
134.873642
 11
201.500580
 21
135.673645
  0
LINE
  8
0
 10
202.300568
 20
126.473572
 11
201.500565
 21
125.673569
  0
LINE
  8
0
 10
73.300659
 20
126.473587
 11
74.100662
 21
125.673584
  0
LINE
  8
0
 62
     2
 10
73.300644
 20
126.473587
 11
85.800644
 21
126.473587
  0
LINE
  8
0
 62
     2
 10
73.300644
 20
134.873581
 11
85.800644
 21
134.873581
  0
LINE
  8
0
 10
74.100647
 20
135.673569
 11
74.100647
 21
125.673569
  0
LINE
  8
0
 10
73.300644
 20
134.873566
 11
73.300644
 21
126.473572
  0
LINE
  8
0
 10
70.300644
 20
134.673569
 11
70.300644
 21
126.673569
  0
LINE
  8
0
 10
69.300644
 20
134.673569
 11
69.300644
 21
126.673561
  0
LINE
  8
0
 10
74.100647
 20
125.673584
 11
85.800644
 21
125.673584
  0
LINE
  8
0
 10
74.100647
 20
135.673584
 11
85.800644
 21
135.673584
  0
LINE
  8
0
 10
69.300644
 20
126.673584
 11
73.300644
 21
126.673584
  0
LINE
  8
0
 10
69.300644
 20
134.673584
 11
73.300644
 21
134.673584
  0
LINE
  8
0
 10
73.300636
 20
134.873550
 11
74.100639
 21
135.673538
  0
LINE
  8
0
  6
CENTER
 62
     2
 10
112.800598
 20
146.729004
 11
112.800598
 21
158.687866
  0
LINE
  8
0
  6
CENTER
 62
     2
 10
162.800598
 20
146.762024
 11
162.800598
 21
159.147827
  0
LINE
  8
0
  6
CENTER
 62
     2
 10
105.300598
 20
118.673576
 11
105.300598
 21
109.764778
  0
LINE
  8
0
  6
CENTER
 62
     2
 10
170.300598
 20
120.003242
 11
170.300598
 21
109.973740
  0
LINE
  8
0
 10
97.800591
 20
110.673584
 11
87.800591
 21
110.673584
  0
LINE
  8
0
 10
97.800591
 20
112.273590
 11
87.800591
 21
112.273590
  0
LINE
  8
0
 10
97.800575
 20
115.173584
 11
87.900597
 21
115.173584
  0
LINE
  8
0
 10
97.550591
 20
113.573578
 11
88.050591
 21
113.573578
  0
LINE
  8
0
 10
97.800583
 20
112.273598
 11
97.800583
 21
110.673592
  0
LINE
  8
0
 10
97.550583
 20
115.173592
 11
97.550583
 21
113.573578
  0
LINE
  8
0
 10
87.800583
 20
112.273598
 11
87.800583
 21
110.673592
  0
LINE
  8
0
 10
88.050583
 20
115.173592
 11
88.050583
 21
113.573586
  0
LINE
  8
0
 10
87.900589
 20
124.673576
 11
87.900589
 21
115.173592
  0
LINE
  8
0
 10
96.050583
 20
113.573586
 11
96.050583
 21
112.273598
  0
LINE
  8
0
 10
89.550583
 20
113.573586
 11
89.550583
 21
112.273598
  0
LINE
  8
0
 10
187.700592
 20
124.673576
 11
187.700592
 21
115.173592
  0
LINE
  8
0
 10
187.800598
 20
110.673584
 11
177.800598
 21
110.673584
  0
LINE
  8
0
 10
187.800598
 20
112.273590
 11
177.800598
 21
112.273590
  0
LINE
  8
0
 10
187.700592
 20
115.173584
 11
177.800598
 21
115.173584
  0
LINE
  8
0
 10
187.550598
 20
113.573578
 11
178.050598
 21
113.573578
  0
LINE
  8
0
 10
187.800598
 20
112.273598
 11
187.800598
 21
110.673592
  0
LINE
  8
0
 10
187.550598
 20
115.173592
 11
187.550598
 21
113.573586
  0
LINE
  8
0
 10
177.800598
 20
112.273598
 11
177.800598
 21
110.673592
  0
LINE
  8
0
 10
178.050598
 20
115.173592
 11
178.050598
 21
113.573578
  0
LINE
  8
0
 10
186.050598
 20
113.573586
 11
186.050598
 21
112.273598
  0
LINE
  8
0
 10
179.550598
 20
113.573586
 11
179.550598
 21
112.273598
  0
LINE
  8
0
 10
88.800598
 20
136.673737
 11
88.800598
 21
124.673721
  0
LINE
  8
0
 10
85.800644
 20
136.673737
 11
85.800644
 21
124.673729
  0
LINE
  8
0
 10
91.800659
 20
136.673584
 11
85.800705
 21
136.673584
  0
LINE
  8
0
 10
91.800659
 20
124.673576
 11
85.800674
 21
124.673576
  0
LINE
  8
0
 10
86.336464
 20
130.673584
 11
88.264915
 21
130.673584
  0
LINE
  8
0
 10
89.336418
 20
130.673584
 11
91.264870
 21
130.673584
  0
LINE
  8
0
 10
186.800552
 20
136.673737
 11
186.800552
 21
124.673721
  0
LINE
  8
0
 10
189.800613
 20
136.673584
 11
183.800659
 21
136.673584
  0
LINE
  8
0
 10
189.800613
 20
124.673576
 11
183.800629
 21
124.673576
  0
LINE
  8
0
 10
184.336426
 20
130.673584
 11
186.264862
 21
130.673584
  0
LINE
  8
0
 10
187.336365
 20
130.673584
 11
189.264832
 21
130.673584
  0
LINE
  8
0
 10
189.800613
 20
124.673576
 11
189.800613
 21
136.673584
  0
LINE
  8
0
 10
97.800598
 20
-158.424347
 11
177.800613
 21
-158.424347
  0
LINE
  8
0
 10
97.800598
 20
-113.424347
 11
177.800598
 21
-113.424347
  0
LINE
  8
0
 10
97.800583
 20
-151.424347
 11
177.800613
 21
-151.424347
  0
LINE
  8
0
 10
97.800583
 20
-120.424347
 11
177.800598
 21
-120.424347
  0
LINE
  8
0
  6
CENTER
 62
     2
 10
137.800583
 20
-107.604347
 11
137.800583
 21
-164.724335
  0
LINE
  8
0
  6
CENTER
 62
     2
 10
63.467255
 20
-132.424347
 11
214.800598
 21
-132.424347
  0
LINE
  8
0
 10
111.600578
 20
-148.771881
 11
111.600578
 21
-145.076843
  0
LINE
  8
0
 10
118.000572
 20
-148.771851
 11
118.000572
 21
-145.076843
  0
LINE
  8
0
 10
111.600647
 20
-148.771805
 11
114.800644
 21
-150.619324
  0
LINE
  8
0
 10
114.800644
 20
-143.229218
 11
118.000656
 21
-145.076752
  0
LINE
  8
0
 10
114.800621
 20
-150.619400
 11
118.000610
 21
-148.771881
  0
LINE
  8
0
 10
111.600601
 20
-145.076813
 11
114.800598
 21
-143.229294
  0
LINE
  8
0
 10
88.800652
 20
-134.733719
 11
92.800667
 21
-137.043121
  0
LINE
  8
0
 10
92.800674
 20
-127.805473
 11
96.800636
 21
-130.114853
  0
LINE
  8
0
 10
96.800583
 20
-134.733734
 11
96.800583
 21
-130.114929
  0
LINE
  8
0
 10
88.800583
 20
-134.733765
 11
88.800583
 21
-130.114960
  0
LINE
  8
0
 10
92.800583
 20
-137.043137
 11
96.800583
 21
-134.733734
  0
LINE
  8
0
 10
88.800591
 20
-130.114975
 11
92.800583
 21
-127.805580
  0
LINE
  8
0
 10
96.200577
 20
-128.895905
 11
96.200577
 21
-126.424355
  0
LINE
  8
0
 10
97.800575
 20
-124.924347
 11
87.900597
 21
-124.924347
  0
LINE
  8
0
 10
96.200584
 20
-126.424347
 11
89.400597
 21
-126.424347
  0
LINE
  8
0
 10
89.400589
 20
-128.895905
 11
89.400589
 21
-126.424355
  0
LINE
  8
0
 10
97.700844
 20
-124.924629
 11
96.200859
 21
-126.424614
  0
LINE
  8
0
 10
87.900803
 20
-124.924164
 11
89.400803
 21
-126.424164
  0
LINE
  8
0
 10
178.800690
 20
-134.733688
 11
182.800705
 21
-137.043091
  0
LINE
  8
0
 10
182.800674
 20
-127.805420
 11
186.800659
 21
-130.114807
  0
LINE
  8
0
 10
186.800598
 20
-134.733734
 11
186.800598
 21
-130.114929
  0
LINE
  8
0
 10
178.800598
 20
-134.733765
 11
178.800598
 21
-130.114960
  0
LINE
  8
0
 10
182.800568
 20
-137.043152
 11
186.800583
 21
-134.733734
  0
LINE
  8
0
 10
178.800613
 20
-130.114975
 11
182.800629
 21
-127.805557
  0
LINE
  8
0
 10
186.200592
 20
-128.895905
 11
186.200592
 21
-126.424355
  0
LINE
  8
0
 10
187.700592
 20
-124.924347
 11
177.800598
 21
-124.924347
  0
LINE
  8
0
 10
186.200592
 20
-126.424347
 11
179.400604
 21
-126.424347
  0
LINE
  8
0
 10
179.400604
 20
-128.895905
 11
179.400604
 21
-126.424355
  0
LINE
  8
0
 10
187.700775
 20
-124.924606
 11
186.200775
 21
-126.424606
  0
LINE
  8
0
 10
177.900772
 20
-124.924217
 11
179.400772
 21
-126.424217
  0
LINE
  8
0
 10
164.000580
 20
-148.771851
 11
164.000580
 21
-145.076813
  0
LINE
  8
0
 10
157.600586
 20
-148.771851
 11
157.600586
 21
-145.076813
  0
LINE
  8
0
 10
164.000534
 20
-148.771835
 11
160.800537
 21
-150.619354
  0
LINE
  8
0
 10
160.800537
 20
-143.229279
 11
157.600540
 21
-145.076797
  0
LINE
  8
0
 10
160.800568
 20
-150.619415
 11
157.600586
 21
-148.771896
  0
LINE
  8
0
 10
164.000580
 20
-145.076843
 11
160.800568
 21
-143.229309
  0
LINE
  8
0
 10
177.800598
 20
-113.424355
 11
177.800598
 21
-144.924347
  0
LINE
  8
0
 10
177.800598
 20
-158.424347
 11
177.800598
 21
-151.424347
  0
LINE
  8
0
 10
97.800575
 20
-113.424347
 11
97.800575
 21
-144.924347
  0
LINE
  8
0
 10
97.800575
 20
-158.424377
 11
97.800575
 21
-151.424347
  0
LINE
  8
0
 10
163.800583
 20
-144.424347
 11
177.800613
 21
-144.424347
  0
LINE
  8
0
 10
111.800583
 20
-144.424347
 11
97.800583
 21
-144.424347
  0
LINE
  8
0
 10
88.300575
 20
-134.363403
 11
88.300575
 21
-144.924347
  0
LINE
  8
0
 10
187.300598
 20
-134.363403
 11
187.300598
 21
-144.924347
  0
LINE
  8
0
 10
97.800583
 20
-144.924347
 11
88.300583
 21
-144.924347
  0
LINE
  8
0
 10
177.800613
 20
-144.924347
 11
187.300613
 21
-144.924347
  0
LINE
  8
0
 10
107.800583
 20
-150.924347
 11
167.800583
 21
-150.924347
  0
LINE
  8
0
 10
201.500610
 20
-137.424347
 11
187.300598
 21
-137.424347
  0
LINE
  8
0
 62
     2
 10
202.300598
 20
-136.624359
 11
187.300598
 21
-136.624359
  0
LINE
  8
0
 62
     2
 10
202.300598
 20
-128.224365
 11
187.800583
 21
-128.224365
  0
LINE
  8
0
 10
201.500610
 20
-127.424347
 11
187.700592
 21
-127.424347
  0
LINE
  8
0
 10
206.300598
 20
-128.424347
 11
206.300598
 21
-136.424347
  0
LINE
  8
0
 10
201.501038
 20
-137.424881
 11
202.301010
 21
-136.624893
  0
LINE
  8
0
 10
202.300598
 20
-128.224365
 11
202.300598
 21
-136.624359
  0
LINE
  8
0
 10
201.500610
 20
-127.424370
 11
201.500610
 21
-137.424377
  0
LINE
  8
0
 10
202.300430
 20
-128.224594
 11
201.500412
 21
-127.424568
  0
LINE
  8
0
 10
205.300598
 20
-136.424347
 11
205.300598
 21
-128.424347
  0
LINE
  8
0
 10
202.300598
 20
-136.424347
 11
206.300598
 21
-136.424347
  0
LINE
  8
0
 10
202.300598
 20
-128.424347
 11
206.300598
 21
-128.424347
  0
LINE
  8
0
 10
163.800583
 20
-144.424347
 11
163.800583
 21
-144.961334
  0
LINE
  8
0
 10
167.800583
 20
-144.424347
 11
167.800583
 21
-150.924347
  0
LINE
  8
0
 10
163.800583
 20
-148.887329
 11
163.800583
 21
-150.924347
  0
LINE
  8
0
 10
111.800583
 20
-148.887329
 11
111.800583
 21
-150.924347
  0
LINE
  8
0
 10
111.800583
 20
-144.424347
 11
111.800583
 21
-144.961334
  0
LINE
  8
0
 10
107.800583
 20
-144.424347
 11
107.800583
 21
-150.924347
  0
LINE
  8
0
 10
73.300568
 20
-128.424347
 11
69.300568
 21
-128.424347
  0
LINE
  8
0
 10
74.100563
 20
-137.424347
 11
88.300560
 21
-137.424347
  0
LINE
  8
0
 62
     2
 10
73.300568
 20
-136.624359
 11
88.300560
 21
-136.624359
  0
LINE
  8
0
 62
     2
 10
73.300568
 20
-128.224365
 11
87.800583
 21
-128.224365
  0
LINE
  8
0
 10
74.100555
 20
-127.424347
 11
87.900566
 21
-127.424347
  0
LINE
  8
0
 10
69.300568
 20
-128.424347
 11
69.300568
 21
-136.424347
  0
LINE
  8
0
 10
74.100197
 20
-137.424789
 11
73.300217
 21
-136.624802
  0
LINE
  8
0
 10
73.300568
 20
-128.224396
 11
73.300568
 21
-136.624390
  0
LINE
  8
0
 10
74.100555
 20
-127.424385
 11
74.100555
 21
-137.424377
  0
LINE
  8
0
 10
73.300766
 20
-128.224640
 11
74.100777
 21
-127.424622
  0
LINE
  8
0
 10
70.300568
 20
-136.424347
 11
70.300568
 21
-128.424347
  0
LINE
  8
0
 10
73.300568
 20
-136.424347
 11
69.300568
 21
-136.424347
  0
LINE
  8
0
  6
CENTER
 62
     2
 10
170.300598
 20
-160.618286
 11
170.300598
 21
-149.752991
  0
LINE
  8
0
  6
CENTER
 62
     2
 10
105.300575
 20
-160.409332
 11
105.300575
 21
-150.379852
  0
LINE
  8
0
  6
CENTER
 62
     2
 10
170.300598
 20
-111.097641
 11
170.300598
 21
-122.380829
  0
LINE
  8
0
  6
CENTER
 62
     2
 10
162.800598
 20
-160.618286
 11
162.800598
 21
-149.752991
  0
LINE
  8
0
  6
CENTER
 62
     2
 10
112.800575
 20
-160.409332
 11
112.800575
 21
-150.379852
  0
LINE
  8
0
  6
CENTER
 62
     2
 10
105.300575
 20
-111.515541
 11
105.300575
 21
-122.380829
  0
LINE
  8
0
 10
97.800591
 20
-112.424347
 11
87.800591
 21
-112.424347
  0
LINE
  8
0
 10
97.800591
 20
-114.024353
 11
87.800591
 21
-114.024353
  0
LINE
  8
0
 10
97.800575
 20
-116.924347
 11
87.900597
 21
-116.924347
  0
LINE
  8
0
 10
97.550591
 20
-115.324341
 11
88.050591
 21
-115.324341
  0
LINE
  8
0
 10
97.800583
 20
-114.024361
 11
97.800583
 21
-112.424355
  0
LINE
  8
0
 10
97.550583
 20
-116.924355
 11
97.550583
 21
-115.324341
  0
LINE
  8
0
 10
87.800583
 20
-114.024361
 11
87.800583
 21
-112.424355
  0
LINE
  8
0
 10
88.050583
 20
-116.924355
 11
88.050583
 21
-115.324348
  0
LINE
  8
0
 10
87.900589
 20
-132.424347
 11
87.900589
 21
-116.924355
  0
LINE
  8
0
 10
96.050583
 20
-115.324348
 11
96.050583
 21
-114.024361
  0
LINE
  8
0
 10
89.550583
 20
-115.324348
 11
89.550583
 21
-114.024361
  0
LINE
  8
0
 10
187.700592
 20
-132.424347
 11
187.700592
 21
-116.924355
  0
LINE
  8
0
 10
187.800598
 20
-112.424347
 11
177.800598
 21
-112.424347
  0
LINE
  8
0
 10
187.800598
 20
-114.024353
 11
177.800598
 21
-114.024353
  0
LINE
  8
0
 10
187.700592
 20
-116.924347
 11
177.800598
 21
-116.924347
  0
LINE
  8
0
 10
187.550598
 20
-115.324341
 11
178.050598
 21
-115.324341
  0
LINE
  8
0
 10
187.800598
 20
-114.024361
 11
187.800598
 21
-112.424355
  0
LINE
  8
0
 10
187.550598
 20
-116.924355
 11
187.550598
 21
-115.324348
  0
LINE
  8
0
 10
177.800598
 20
-114.024361
 11
177.800598
 21
-112.424355
  0
LINE
  8
0
 10
178.050598
 20
-116.924355
 11
178.050598
 21
-114.024361
  0
LINE
  8
0
 10
186.050598
 20
-115.324348
 11
186.050598
 21
-114.024361
  0
LINE
  8
0
 10
179.550598
 20
-115.324348
 11
179.550598
 21
-114.024361
  0
LINE
  8
0
  6
CENTER
 62
     2
 10
-177.199493
 20
-40.913052
 11
-177.199493
 21
48.947239
  0
LINE
  8
0
 10
-217.199463
 20
43.886967
 11
-137.199463
 21
43.886967
  0
LINE
  8
0
 10
-217.199478
 20
43.886971
 11
-217.199478
 21
-36.713066
  0
LINE
  8
0
 10
-129.699524
 20
-53.213078
 11
-134.699524
 21
-53.213078
  0
LINE
  8
0
 10
-134.699509
 20
-53.213081
 11
-134.699509
 21
-49.213081
  0
LINE
  8
0
 10
-129.699509
 20
-53.213081
 11
-129.699509
 21
-49.213081
  0
LINE
  8
0
 10
-129.699524
 20
-49.213078
 11
-134.699524
 21
-49.213078
  0
LINE
  8
0
 10
-128.299484
 20
-26.213070
 11
-136.099472
 21
-26.213070
  0
LINE
  8
0
 10
-128.199478
 20
-40.713070
 11
-136.199478
 21
-40.713070
  0
LINE
  8
0
 10
-128.199524
 20
-41.513065
 11
-136.199524
 21
-41.513065
  0
LINE
  8
0
 10
-128.199524
 20
-44.013065
 11
-136.199524
 21
-44.013065
  0
LINE
  8
0
 10
-136.199509
 20
-44.013069
 11
-136.199509
 21
-41.513069
  0
LINE
  8
0
 10
-128.199509
 20
-44.013069
 11
-128.199509
 21
-41.513069
  0
LINE
  8
0
 10
-134.699509
 20
-41.513069
 11
-134.699509
 21
-40.713074
  0
LINE
  8
0
 10
-129.699509
 20
-41.513069
 11
-129.699509
 21
-40.713074
  0
LINE
  8
0
 10
-130.699509
 20
-49.213081
 11
-130.699509
 21
-44.013069
  0
LINE
  8
0
 10
-133.699509
 20
-49.213081
 11
-133.699509
 21
-44.013069
  0
LINE
  8
0
 62
     2
 10
-133.429001
 20
-49.213081
 11
-133.429001
 21
-44.013069
  0
LINE
  8
0
 62
     2
 10
-130.970016
 20
-49.213081
 11
-130.970016
 21
-44.013069
  0
LINE
  8
0
 10
-135.449509
 20
-27.713074
 11
-135.449509
 21
-26.213074
  0
LINE
  8
0
 10
-128.949509
 20
-27.713074
 11
-128.949509
 21
-26.213074
  0
LINE
  8
0
 10
-136.099503
 20
-26.213074
 11
-136.099503
 21
-25.113037
  0
LINE
  8
0
 10
-128.299515
 20
-26.213074
 11
-128.299515
 21
-25.113037
  0
LINE
  8
0
 10
-127.299484
 20
-36.713070
 11
-137.099548
 21
-36.713070
  0
LINE
  8
0
 10
-127.299484
 20
-27.713070
 11
-136.699493
 21
-27.713070
  0
LINE
  8
0
 10
-136.199509
 20
-40.713074
 11
-136.199509
 21
-36.713074
  0
LINE
  8
0
 10
-128.199509
 20
-40.713074
 11
-128.199509
 21
-36.713074
  0
LINE
  8
0
 10
-132.199509
 20
-40.355835
 11
-132.199509
 21
-37.713074
  0
LINE
  8
0
 10
-127.299515
 20
-36.713074
 11
-127.299515
 21
-27.713074
  0
LINE
  8
0
 10
-137.199478
 20
-36.113037
 11
-137.199478
 21
43.886963
  0
LINE
  8
0
 10
-217.199493
 20
-36.113033
 11
-137.199493
 21
-36.113033
  0
LINE
  8
0
  6
CENTER
 62
     2
 10
-208.182541
 20
28.886936
 11
-196.369354
 21
28.886936
  0
LINE
  8
0
  6
CENTER
 62
     2
 10
-202.199493
 20
22.460638
 11
-202.199493
 21
34.703377
  0
LINE
  8
0
  6
CENTER
 62
     2
 10
-152.199478
 20
-0.874846
 11
-152.199478
 21
8.790468
  0
LINE
  8
0
  6
CENTER
 62
     2
 10
-209.699478
 20
29.960638
 11
-209.699478
 21
42.203377
  0
LINE
  8
0
  6
CENTER
 62
     2
 10
-144.699478
 20
-0.874846
 11
-144.699478
 21
8.790468
  0
LINE
  8
0
  6
CENTER
 62
     2
 10
-208.182556
 20
-21.113033
 11
-196.369370
 21
-21.113033
  0
LINE
  8
0
  6
CENTER
 62
     2
 10
-202.199493
 20
-14.686701
 11
-202.199493
 21
-26.929468
  0
LINE
  8
0
  6
CENTER
 62
     2
 10
-209.699478
 20
-22.186731
 11
-209.699478
 21
-34.429497
  0
LINE
  8
0
  6
CENTER
 62
     2
 10
-144.699493
 20
29.960634
 11
-144.699493
 21
42.203369
  0
LINE
  8
0
  6
CENTER
 62
     2
 10
-138.716431
 20
36.386967
 11
-150.529617
 21
36.386967
  0
LINE
  8
0
  6
CENTER
 62
     2
 10
-146.216446
 20
-21.113033
 11
-158.029633
 21
-21.113033
  0
LINE
  8
0
  6
CENTER
 62
     2
 10
-152.199493
 20
-14.686705
 11
-152.199493
 21
-26.929472
  0
LINE
  8
0
  6
CENTER
 62
     2
 10
-144.699493
 20
-22.186735
 11
-144.699493
 21
-34.429504
  0
LINE
  8
0
  6
CENTER
 62
     2
 10
-138.716461
 20
-28.613033
 11
-150.529633
 21
-28.613033
  0
LINE
  8
0
  6
CENTER
 62
     2
 10
-209.699478
 20
-0.874841
 11
-209.699478
 21
8.790472
  0
LINE
  8
0
  6
CENTER
 62
     2
 10
-202.199448
 20
-0.874842
 11
-202.199448
 21
8.790472
  0
LINE
  8
0
  6
CENTER
 62
     2
 10
-234.048645
 20
3.886967
 11
-122.749496
 21
3.886967
  0
LINE
  8
0
  6
CENTER
 62
     2
 10
-181.264999
 20
-21.113033
 11
-172.295975
 21
-21.113033
  0
LINE
  8
0
  6
CENTER
 62
     2
 10
-181.725052
 20
-28.613033
 11
-172.295975
 21
-28.613033
  0
LINE
  8
0
 10
-137.199493
 20
-25.113033
 11
-127.699493
 21
-25.113033
  0
LINE
  8
0
 10
-137.099533
 20
-36.713074
 11
-137.099533
 21
-36.113037
  0
LINE
  8
0
 10
-224.699463
 20
-53.213078
 11
-219.699463
 21
-53.213078
  0
LINE
  8
0
 10
-219.699463
 20
-53.213074
 11
-219.699463
 21
-49.213074
  0
LINE
  8
0
 10
-224.699463
 20
-53.213074
 11
-224.699463
 21
-49.213074
  0
LINE
  8
0
 10
-224.699463
 20
-49.213078
 11
-219.699463
 21
-49.213078
  0
LINE
  8
0
 10
-226.099518
 20
-26.213070
 11
-218.299530
 21
-26.213070
  0
LINE
  8
0
 10
-226.199524
 20
-40.713070
 11
-218.199524
 21
-40.713070
  0
LINE
  8
0
 10
-226.199463
 20
-41.513065
 11
-218.199463
 21
-41.513065
  0
LINE
  8
0
 10
-226.199463
 20
-44.013065
 11
-218.199463
 21
-44.013065
  0
LINE
  8
0
 10
-218.199463
 20
-44.013062
 11
-218.199463
 21
-41.513062
  0
LINE
  8
0
 10
-226.199463
 20
-44.013062
 11
-226.199463
 21
-41.513062
  0
LINE
  8
0
 10
-219.699463
 20
-41.513062
 11
-219.699463
 21
-40.713066
  0
LINE
  8
0
 10
-224.699463
 20
-41.513062
 11
-224.699463
 21
-40.713066
  0
LINE
  8
0
 10
-223.699463
 20
-49.213074
 11
-223.699463
 21
-44.013062
  0
LINE
  8
0
 10
-220.699463
 20
-49.213074
 11
-220.699463
 21
-44.013062
  0
LINE
  8
0
 62
     2
 10
-220.969971
 20
-49.213074
 11
-220.969971
 21
-44.013062
  0
LINE
  8
0
 62
     2
 10
-223.428955
 20
-49.213074
 11
-223.428955
 21
-44.013062
  0
LINE
  8
0
 10
-218.949463
 20
-27.713066
 11
-218.949463
 21
-26.213066
  0
LINE
  8
0
 10
-225.449463
 20
-27.713066
 11
-225.449463
 21
-26.213066
  0
LINE
  8
0
 10
-218.299469
 20
-26.213066
 11
-218.299469
 21
-25.113029
  0
LINE
  8
0
 10
-226.099457
 20
-26.213066
 11
-226.099457
 21
-25.113029
  0
LINE
  8
0
 10
-227.099518
 20
-36.713070
 11
-217.199493
 21
-36.713070
  0
LINE
  8
0
 10
-227.099518
 20
-27.713070
 11
-217.199493
 21
-27.713070
  0
LINE
  8
0
 10
-218.199463
 20
-40.713066
 11
-218.199463
 21
-36.713066
  0
LINE
  8
0
 10
-226.199463
 20
-40.713066
 11
-226.199463
 21
-36.713066
  0
LINE
  8
0
 10
-222.199463
 20
-40.355827
 11
-222.199463
 21
-37.713066
  0
LINE
  8
0
 10
-227.099457
 20
-36.713066
 11
-227.099457
 21
-27.713066
  0
LINE
  8
0
 10
-217.199493
 20
-25.113033
 11
-226.699509
 21
-25.113033
  0
LINE
  8
0
 10
-222.199463
 20
-40.355766
 11
-222.199463
 21
-36.713066
  0
LINE
  8
0
 10
-132.199509
 20
-40.713074
 11
-132.199509
 21
-36.713074
  0
LINE
  8
0
 62
     2
 10
-164.285385
 20
5.301250
 11
-167.113815
 21
2.472836
  0
LINE
  8
0
 62
     2
 10
-164.285172
 20
2.472855
 11
-167.113586
 21
5.301284
  0
LINE
  8
0
  6
CENTER
 62
     2
 10
-152.199493
 20
22.460634
 11
-152.199493
 21
34.703369
  0
LINE
  8
0
  6
CENTER
 62
     2
 10
-146.216431
 20
28.886936
 11
-158.029617
 21
28.886936
  0
LINE
  8
0
  6
CENTER
 62
     2
 10
-215.682526
 20
36.386967
 11
-203.869339
 21
36.386967
  0
LINE
  8
0
  6
CENTER
 62
     2
 10
-215.682541
 20
-28.613033
 11
-203.869354
 21
-28.613033
  0
LINE
  8
0
 10
-228.663574
 20
25.315159
 11
-226.735138
 21
25.315159
  0
LINE
  8
0
 10
-228.499481
 20
14.922855
 11
-226.735382
 21
14.922855
  0
LINE
  8
0
 10
-228.663666
 20
11.458744
 11
-226.735321
 21
11.458744
  0
LINE
  8
0
 10
-229.199463
 20
24.386971
 11
-229.199463
 21
12.386971
  0
LINE
  8
0
 10
-228.663635
 20
25.315044
 11
-229.199524
 21
24.386858
  0
LINE
  8
0
 10
-228.663574
 20
21.851078
 11
-226.735382
 21
21.851078
  0
LINE
  8
0
 10
-228.663635
 20
11.458821
 11
-229.199554
 21
12.387061
  0
LINE
  8
0
 10
-226.199493
 20
24.386971
 11
-226.199493
 21
12.386971
  0
LINE
  8
0
 10
-226.735596
 20
11.458919
 11
-226.199692
 21
12.387131
  0
LINE
  8
0
 10
-226.735077
 20
25.315319
 11
-226.199158
 21
24.387079
  0
LINE
  8
0
 10
-125.735397
 20
25.315159
 11
-127.663834
 21
25.315159
  0
LINE
  8
0
 10
-125.899490
 20
14.922855
 11
-127.663589
 21
14.922855
  0
LINE
  8
0
 10
-125.735306
 20
11.458744
 11
-127.663651
 21
11.458744
  0
LINE
  8
0
 10
-125.199509
 20
24.386963
 11
-125.199509
 21
12.386963
  0
LINE
  8
0
 10
-125.735123
 20
25.315216
 11
-125.199219
 21
24.387003
  0
LINE
  8
0
 10
-125.735397
 20
21.851078
 11
-127.663589
 21
21.851078
  0
LINE
  8
0
 10
-125.735504
 20
11.458863
 11
-125.199585
 21
12.387102
  0
LINE
  8
0
 10
-128.199478
 20
24.386963
 11
-128.199478
 21
12.386963
  0
LINE
  8
0
 10
-127.663635
 20
11.458864
 11
-128.199524
 21
12.387051
  0
LINE
  8
0
 10
-127.664093
 20
25.315351
 11
-128.200012
 21
24.387114
  0
LINE
  8
0
 10
-113.499466
 20
23.386967
 11
-125.199509
 21
23.386967
  0
LINE
  8
0
 62
     2
 10
-112.699478
 20
22.586979
 11
-125.199509
 21
22.586979
  0
LINE
  8
0
 10
-109.699493
 20
22.586979
 11
-112.699478
 21
22.586979
  0
LINE
  8
0
 62
     2
 10
-112.699478
 20
14.186985
 11
-125.199509
 21
14.186985
  0
LINE
  8
0
 10
-113.499466
 20
13.386967
 11
-125.199509
 21
13.386967
  0
LINE
  8
0
 10
-109.699493
 20
14.186985
 11
-112.699478
 21
14.186985
  0
LINE
  8
0
 10
-108.699478
 20
15.186950
 11
-108.699478
 21
21.586943
  0
LINE
  8
0
 10
-113.499069
 20
23.387451
 11
-112.699089
 21
22.587465
  0
LINE
  8
0
 10
-112.699478
 20
14.186950
 11
-112.699478
 21
22.586943
  0
LINE
  8
0
 10
-113.499466
 20
13.386962
 11
-113.499466
 21
23.386961
  0
LINE
  8
0
 10
-112.699753
 20
14.187213
 11
-113.499756
 21
13.387205
  0
LINE
  8
0
 10
-109.699600
 20
22.586821
 11
-108.699600
 21
21.586819
  0
LINE
  8
0
 10
-109.699425
 20
14.186906
 11
-108.699425
 21
15.186907
  0
LINE
  8
0
 10
-112.699493
 20
21.397373
 11
-109.699493
 21
21.397373
  0
LINE
  8
0
 10
-112.699493
 20
15.376560
 11
-109.699493
 21
15.376560
  0
LINE
  8
0
 10
-109.699478
 20
22.586943
 11
-109.699478
 21
21.397337
  0
LINE
  8
0
 10
-109.700089
 20
15.376555
 11
-109.700089
 21
14.186950
  0
LINE
  8
0
 62
     2
 10
-109.699440
 20
21.397341
 11
-112.699455
 21
15.376523
  0
LINE
  8
0
 62
     2
 10
-112.699509
 20
21.397339
 11
-109.699509
 21
15.376528
  0
LINE
  8
0
 10
-131.199478
 20
8.886967
 11
-127.699478
 21
8.886967
  0
LINE
  8
0
 10
-127.699478
 20
-25.113037
 11
-127.699478
 21
8.886963
  0
LINE
  8
0
 10
-226.699493
 20
-25.113029
 11
-226.699493
 21
8.886971
  0
LINE
  8
0
 10
-223.199493
 20
8.886967
 11
-226.699493
 21
8.886967
  0
LINE
  8
0
 10
-223.199493
 20
29.886906
 11
-217.199493
 21
29.886906
  0
LINE
  8
0
 10
-223.199493
 20
26.065220
 11
-217.199493
 21
26.065220
  0
LINE
  8
0
 10
-223.199493
 20
8.886971
 11
-223.199493
 21
29.886909
  0
LINE
  8
0
 10
-131.199463
 20
29.886906
 11
-137.199463
 21
29.886906
  0
LINE
  8
0
 10
-131.199478
 20
26.065220
 11
-137.199478
 21
26.065220
  0
LINE
  8
0
 10
-131.199478
 20
8.886963
 11
-131.199478
 21
29.886902
  0
LINE
  8
0
 62
     2
 10
-175.785370
 20
16.801323
 11
-178.613800
 21
13.972898
  0
LINE
  8
0
 62
     2
 10
-178.613632
 20
16.801245
 11
-175.785202
 21
13.972816
  0
LINE
  8
0
 62
     2
 10
-190.113647
 20
5.301226
 11
-187.285217
 21
2.472797
  0
LINE
  8
0
 62
     2
 10
-190.113831
 20
2.472852
 11
-187.285400
 21
5.301278
  0
LINE
  8
0
 62
     2
 10
-178.613770
 20
-9.027163
 11
-175.785385
 21
-6.198780
  0
LINE
  8
0
 62
     2
 10
-175.785156
 20
-9.027207
 11
-178.613571
 21
-6.198778
  0
LINE
  8
0
  6
CENTER
 62
     2
 10
-181.264999
 20
36.386967
 11
-172.295959
 21
36.386967
  0
LINE
  8
0
  6
CENTER
 62
     2
 10
-181.264999
 20
28.886967
 11
-172.295959
 21
28.886967
  0
LINE
  8
0
 10
-240.899506
 20
23.386967
 11
-229.199463
 21
23.386967
  0
LINE
  8
0
 62
     2
 10
-241.699493
 20
22.586979
 11
-229.199463
 21
22.586979
  0
LINE
  8
0
 10
-244.699478
 20
22.586979
 11
-241.699493
 21
22.586979
  0
LINE
  8
0
 62
     2
 10
-241.699493
 20
14.186985
 11
-229.199463
 21
14.186985
  0
LINE
  8
0
 10
-240.899506
 20
13.386967
 11
-229.199463
 21
13.386967
  0
LINE
  8
0
 10
-244.699478
 20
14.186985
 11
-241.699493
 21
14.186985
  0
LINE
  8
0
 10
-245.699493
 20
15.186990
 11
-245.699493
 21
21.586985
  0
LINE
  8
0
 10
-240.900040
 20
23.387531
 11
-241.700027
 21
22.587545
  0
LINE
  8
0
 10
-241.699493
 20
14.186990
 11
-241.699493
 21
22.586985
  0
LINE
  8
0
 10
-240.899506
 20
13.387002
 11
-240.899506
 21
23.387003
  0
LINE
  8
0
 10
-241.699280
 20
14.187240
 11
-240.899246
 21
13.387210
  0
LINE
  8
0
 10
-244.699387
 20
22.586857
 11
-245.699387
 21
21.586855
  0
LINE
  8
0
 10
-244.699524
 20
14.186954
 11
-245.699524
 21
15.186954
  0
LINE
  8
0
 10
-241.699478
 20
21.397373
 11
-244.699478
 21
21.397373
  0
LINE
  8
0
 10
-241.699478
 20
15.376560
 11
-244.699478
 21
15.376560
  0
LINE
  8
0
 10
-244.699493
 20
22.586985
 11
-244.699493
 21
21.397379
  0
LINE
  8
0
 10
-244.698883
 20
15.376595
 11
-244.698883
 21
14.186990
  0
LINE
  8
0
 62
     2
 10
-244.699539
 20
21.397408
 11
-241.699539
 21
15.376614
  0
LINE
  8
0
 62
     2
 10
-241.699585
 20
21.397400
 11
-244.699585
 21
15.376609
  0
LINE
  8
0
 10
-156.199493
 20
-38.113033
 11
-152.199493
 21
-38.113033
  0
LINE
  8
0
 10
-202.199493
 20
-38.113033
 11
-202.199493
 21
-36.113033
  0
LINE
  8
0
 10
-198.199493
 20
-38.113033
 11
-198.199493
 21
-36.113033
  0
LINE
  8
0
 10
-198.199493
 20
-38.113033
 11
-202.199493
 21
-38.113033
  0
LINE
  8
0
 62
     2
 10
-201.599503
 20
-38.113033
 11
-201.599503
 21
-36.113033
  0
LINE
  8
0
 62
     2
 10
-198.799500
 20
-38.113033
 11
-198.799500
 21
-36.113033
  0
LINE
  8
0
 10
-152.199478
 20
-38.113033
 11
-152.199478
 21
-36.113033
  0
LINE
  8
0
 62
     2
 10
-152.799484
 20
-38.113033
 11
-152.799484
 21
-36.113033
  0
LINE
  8
0
 62
     2
 10
-155.599487
 20
-38.113033
 11
-155.599487
 21
-36.113033
  0
LINE
  8
0
 10
-156.199478
 20
-38.113033
 11
-156.199478
 21
-36.113033
  0
LINE
  8
0
 10
-128.735397
 20
25.315159
 11
-130.663834
 21
25.315159
  0
LINE
  8
0
 10
-128.899490
 20
14.922855
 11
-130.663589
 21
14.922855
  0
LINE
  8
0
 10
-128.735306
 20
11.458744
 11
-130.663651
 21
11.458744
  0
LINE
  8
0
 10
-128.199509
 20
24.386963
 11
-128.199509
 21
12.386963
  0
LINE
  8
0
 10
-128.735092
 20
25.315239
 11
-128.199173
 21
24.386999
  0
LINE
  8
0
 10
-128.735397
 20
21.851078
 11
-130.663589
 21
21.851078
  0
LINE
  8
0
 10
-128.735504
 20
11.458846
 11
-128.199585
 21
12.387085
  0
LINE
  8
0
 10
-131.199478
 20
24.386963
 11
-131.199478
 21
12.386963
  0
LINE
  8
0
 10
-130.663681
 20
11.458852
 11
-131.199570
 21
12.387038
  0
LINE
  8
0
 10
-130.664062
 20
25.315350
 11
-131.199982
 21
24.387110
  0
LINE
  8
0
 10
-225.663574
 20
25.315159
 11
-223.735138
 21
25.315159
  0
LINE
  8
0
 10
-225.499481
 20
14.922855
 11
-223.735382
 21
14.922855
  0
LINE
  8
0
 10
-225.663666
 20
11.458744
 11
-223.735321
 21
11.458744
  0
LINE
  8
0
 10
-226.199463
 20
24.386971
 11
-226.199463
 21
12.386971
  0
LINE
  8
0
 10
-225.663681
 20
25.315042
 11
-226.199570
 21
24.386843
  0
LINE
  8
0
 10
-225.663574
 20
21.851078
 11
-223.735382
 21
21.851078
  0
LINE
  8
0
 10
-225.663635
 20
11.458831
 11
-226.199554
 21
12.387071
  0
LINE
  8
0
 10
-223.199493
 20
24.386971
 11
-223.199493
 21
12.386971
  0
LINE
  8
0
 10
-223.735535
 20
11.458931
 11
-223.199631
 21
12.387143
  0
LINE
  8
0
 10
-223.735077
 20
25.315279
 11
-223.199158
 21
24.387039
  0
LINE
  8
0
 10
-161.279419
 20
-2.167257
 11
-152.086945
 21
-5.974900
  0
LINE
  8
0
 10
-161.662094
 20
-3.091085
 11
-152.469620
 21
-6.898728
  0
LINE
  8
0
 10
-171.146606
 20
19.807528
 11
-167.338959
 21
29.000015
  0
LINE
  8
0
 10
-170.222748
 20
19.424873
 11
-166.415100
 21
28.617361
  0
ARC
  8
0
 10
195.264725
 20
18.386976
 40
11.464125
 50
162.412003
 51
197.587967
  0
ARC
  8
0
 10
183.733612
 20
13.190834
 40
3.066973
 50
325.615387
 51
34.384144
  0
ARC
  8
0
 10
183.733612
 20
23.583136
 40
3.066975
 50
325.615875
 51
34.384613
  0
ARC
  8
0
 10
186.867569
 20
13.190835
 40
3.066975
 50
145.615875
 51
214.384613
  0
ARC
  8
0
 10
175.336456
 20
18.386967
 40
11.464137
 50
342.412048
 51
17.588017
  0
ARC
  8
0
 10
88.867584
 20
23.583084
 40
3.066968
 50
145.615311
 51
214.384216
  0
ARC
  8
0
 10
85.733627
 20
13.190748
 40
3.066972
 50
325.615417
 51
34.384254
  0
ARC
  8
0
 10
85.733627
 20
23.583082
 40
3.066968
 50
325.615784
 51
34.384724
  0
ARC
  8
0
 10
97.264740
 20
18.386921
 40
11.464130
 50
162.412048
 51
197.587997
  0
ARC
  8
0
 10
77.336472
 20
18.386911
 40
11.464131
 50
342.412018
 51
17.587976
  0
ARC
  8
0
 10
88.867592
 20
13.190750
 40
3.066969
 50
145.615768
 51
214.384674
  0
ARC
  8
0
 10
90.800629
 20
-34.436390
 40
5.776711
 50
249.743851
 51
290.256165
  0
CIRCLE
  8
0
 10
92.800629
 20
-32.213089
 40
2.000000
  0
ARC
  8
0
 10
94.800629
 20
-34.436382
 40
5.776713
 50
249.743774
 51
290.256165
  0
CIRCLE
  8
0
 10
92.800629
 20
-32.213089
 40
5.000000
  0
CIRCLE
  8
0
 62
     2
 10
105.300568
 20
36.386925
 40
2.000000
  0
CIRCLE
  8
0
 62
     2
 10
105.300613
 20
-28.613079
 40
2.000000
  0
CIRCLE
  8
0
 62
     2
 10
170.300629
 20
-28.613037
 40
2.000000
  0
ARC
  8
0
 10
137.800583
 20
35.386948
 40
3.000000
 50
180.000000
 51
0.000073
  0
ARC
  8
0
 10
74.331848
 20
18.386902
 40
5.031253
 50
143.248840
 51
216.751114
  0
CIRCLE
  8
0
 62
     2
 10
170.300583
 20
36.386967
 40
2.000000
  0
CIRCLE
  8
0
 10
137.800613
 20
-28.613056
 40
3.000000
  0
CIRCLE
  8
0
 62
     2
 10
137.800598
 20
3.886944
 40
12.200000
  0
CIRCLE
  8
0
 10
182.800613
 20
-32.213036
 40
5.000000
  0
ARC
  8
0
 10
180.800613
 20
-34.436337
 40
5.776711
 50
249.743851
 51
290.256165
  0
CIRCLE
  8
0
 10
182.800613
 20
-32.213036
 40
2.000000
  0
ARC
  8
0
 10
184.800613
 20
-34.436337
 40
5.776711
 50
249.743851
 51
290.256165
  0
ARC
  8
0
 10
178.336456
 20
18.386967
 40
11.464137
 50
342.412048
 51
17.588017
  0
ARC
  8
0
 10
189.867569
 20
23.583139
 40
3.066973
 50
145.615417
 51
214.384155
  0
ARC
  8
0
 10
186.733612
 20
23.583138
 40
3.066975
 50
325.615875
 51
34.384613
  0
ARC
  8
0
 10
189.867569
 20
13.190836
 40
3.066975
 50
145.615875
 51
214.384613
  0
ARC
  8
0
 10
198.264725
 20
18.386978
 40
11.464125
 50
162.412003
 51
197.587967
  0
ARC
  8
0
 10
186.733612
 20
13.190834
 40
3.066973
 50
325.615387
 51
34.384144
  0
ARC
  8
0
 10
201.269333
 20
18.386972
 40
5.031250
 50
323.248871
 51
36.751144
  0
ARC
  8
0
 10
88.733627
 20
23.583084
 40
3.066968
 50
325.615784
 51
34.384724
  0
ARC
  8
0
 10
91.867584
 20
23.583088
 40
3.066968
 50
145.615311
 51
214.384216
  0
ARC
  8
0
 10
91.867592
 20
13.190751
 40
3.066969
 50
145.615768
 51
214.384674
  0
ARC
  8
0
 10
80.336472
 20
18.386913
 40
11.464131
 50
342.412018
 51
17.587976
  0
ARC
  8
0
 10
88.733627
 20
13.190749
 40
3.066972
 50
325.615417
 51
34.384254
  0
ARC
  8
0
 10
100.264740
 20
18.386923
 40
11.464130
 50
162.412048
 51
197.587997
  0
ARC
  8
0
 10
186.867569
 20
23.583138
 40
3.066973
 50
145.615417
 51
214.384155
  0
CIRCLE
  8
0
 10
170.300583
 20
36.386967
 40
1.600000
  0
CIRCLE
  8
0
 10
170.300629
 20
-28.613037
 40
1.600000
  0
CIRCLE
  8
0
 10
105.300568
 20
36.386925
 40
1.600000
  0
CIRCLE
  8
0
 10
105.300613
 20
-28.613079
 40
1.600000
  0
CIRCLE
  8
0
 10
-4.934715
 20
18.386971
 40
5.000000
  0
CIRCLE
  8
0
 62
     2
 10
-4.934715
 20
18.386971
 40
4.200000
  0
CIRCLE
  8
0
 10
-4.934715
 20
18.386971
 40
6.500000
  0
ARC
  8
0
 10
-8.398827
 20
-38.168358
 40
2.044655
 50
235.615707
 51
304.384338
  0
ARC
  8
0
 10
-1.470604
 20
-38.168358
 40
2.044656
 50
235.615662
 51
304.384277
  0
ARC
  8
0
 10
-4.934715
 20
-32.570305
 40
7.642726
 50
252.411957
 51
287.587982
  0
ARC
  8
0
 10
-16.403923
 20
-26.024147
 40
1.788886
 50
235.615814
 51
304.384674
  0
ARC
  8
0
 10
-22.465508
 20
-26.024145
 40
1.788886
 50
235.615372
 51
304.384247
  0
ARC
  8
0
 10
-19.434715
 20
-21.126274
 40
6.686741
 50
252.412064
 51
287.588013
  0
ARC
  8
0
 62
     4
 10
-4.934715
 20
34.836967
 40
3.050000
 50
10.388917
 51
169.611084
  0
CIRCLE
  8
0
 62
     4
 10
137.800598
 20
130.673584
 40
2.750000
  0
CIRCLE
  8
0
 62
     4
 10
153.800598
 20
130.673584
 40
2.750000
  0
ARC
  8
0
 62
     4
 10
110.859489
 20
140.566864
 40
2.000002
 50
225.000000
 51
270.000000
  0
ARC
  8
0
 62
     4
 10
110.715187
 20
140.711121
 40
6.000007
 50
225.000000
 51
270.000000
  0
ARC
  8
0
 62
     4
 10
110.859497
 20
120.780327
 40
2.000000
 50
90.000000
 51
134.999847
  0
ARC
  8
0
 62
     4
 10
110.715195
 20
120.636040
 40
6.000000
 50
89.999924
 51
134.999954
  0
ARC
  8
0
 10
80.133720
 20
127.673744
 40
8.666962
 50
339.748322
 51
20.251465
  0
ARC
  8
0
 10
83.133675
 20
127.673737
 40
8.666962
 50
339.748322
 51
20.251417
  0
ARC
  8
0
 10
97.467590
 20
127.673706
 40
8.666959
 50
159.748352
 51
200.251465
  0
ARC
  8
0
 10
94.467651
 20
133.673721
 40
8.666965
 50
159.748260
 51
200.251419
  0
ARC
  8
0
 10
80.133728
 20
133.673752
 40
8.666966
 50
339.748383
 51
20.251513
  0
ARC
  8
0
 10
83.133682
 20
133.673737
 40
8.666966
 50
339.748383
 51
20.251513
  0
ARC
  8
0
 10
94.467636
 20
127.673714
 40
8.666962
 50
159.748306
 51
200.251465
  0
ARC
  8
0
 10
97.467606
 20
133.673706
 40
8.666965
 50
159.748260
 51
200.251419
  0
ARC
  8
0
 10
178.133667
 20
127.673744
 40
8.666962
 50
339.748322
 51
20.251465
  0
ARC
  8
0
 10
181.133636
 20
127.673737
 40
8.666962
 50
339.748322
 51
20.251417
  0
ARC
  8
0
 10
195.467545
 20
127.673706
 40
8.666959
 50
159.748352
 51
200.251465
  0
ARC
  8
0
 10
192.467606
 20
133.673721
 40
8.666965
 50
159.748260
 51
200.251419
  0
ARC
  8
0
 10
178.133682
 20
133.673752
 40
8.666959
 50
339.748352
 51
20.251513
  0
ARC
  8
0
 10
181.133636
 20
133.673737
 40
8.666959
 50
339.748352
 51
20.251513
  0
ARC
  8
0
 10
192.467590
 20
127.673714
 40
8.666962
 50
159.748306
 51
200.251465
  0
ARC
  8
0
 10
195.467560
 20
133.673706
 40
8.666965
 50
159.748260
 51
200.251419
  0
CIRCLE
  8
0
 62
     2
 10
114.800591
 20
-146.924347
 40
2.000000
  0
CIRCLE
  8
0
 10
114.800591
 20
-146.924347
 40
3.200000
  0
CIRCLE
  8
0
 10
92.800591
 20
-132.424347
 40
2.500000
  0
CIRCLE
  8
0
 10
92.800591
 20
-132.424347
 40
4.000000
  0
CIRCLE
  8
0
 10
92.800591
 20
-132.424347
 40
4.900000
  0
CIRCLE
  8
0
 10
182.800598
 20
-132.424347
 40
2.500000
  0
CIRCLE
  8
0
 10
182.800598
 20
-132.424347
 40
4.000000
  0
CIRCLE
  8
0
 10
182.800598
 20
-132.424347
 40
4.900000
  0
CIRCLE
  8
0
 10
160.800598
 20
-146.924347
 40
3.200000
  0
CIRCLE
  8
0
 62
     2
 10
160.800598
 20
-146.924347
 40
2.000000
  0
CIRCLE
  8
0
 62
     2
 10
129.800598
 20
-146.924347
 40
1.500000
  0
CIRCLE
  8
0
 10
129.800598
 20
-146.924347
 40
1.000000
  0
CIRCLE
  8
0
 10
114.800591
 20
-146.924347
 40
1.400000
  0
CIRCLE
  8
0
 10
160.800598
 20
-146.924347
 40
1.400000
  0
CIRCLE
  8
0
 10
-168.779495
 20
24.211918
 40
6.000000
  0
CIRCLE
  8
0
 10
-156.874527
 20
-4.533049
 40
6.000000
  0
ARC
  8
0
 10
-130.199493
 20
-34.936340
 40
5.776711
 50
249.743851
 51
290.256165
  0
ARC
  8
0
 10
-134.199493
 20
-34.936340
 40
5.776711
 50
249.743851
 51
290.256165
  0
CIRCLE
  8
0
 62
     2
 10
-156.874146
 20
12.306032
 40
4.000000
  0
CIRCLE
  8
0
 10
-202.199478
 20
28.886938
 40
2.250000
  0
CIRCLE
  8
0
  6
DASHED
 62
     2
 10
-209.699478
 20
36.386971
 40
4.000000
  0
CIRCLE
  8
0
 10
-209.699478
 20
36.386971
 40
2.250000
  0
CIRCLE
  8
0
 10
-152.199493
 20
3.886965
 40
2.000000
  0
CIRCLE
  8
0
 10
-177.199478
 20
36.386967
 40
2.000000
  0
CIRCLE
  8
0
 10
-202.199493
 20
-21.113031
 40
2.250000
  0
CIRCLE
  8
0
  6
DASHED
 62
     2
 10
-202.199493
 20
-21.113031
 40
4.000000
  0
CIRCLE
  8
0
  6
DASHED
 62
     2
 10
-209.699493
 20
-28.613029
 40
4.000000
  0
CIRCLE
  8
0
 10
-209.699493
 20
-28.613029
 40
2.250000
  0
CIRCLE
  8
0
  6
DASHED
 62
     2
 10
-144.699493
 20
36.386963
 40
4.000000
  0
CIRCLE
  8
0
 10
-144.699493
 20
36.386963
 40
2.250000
  0
CIRCLE
  8
0
 10
-152.199493
 20
-21.113035
 40
2.250000
  0
CIRCLE
  8
0
  6
DASHED
 62
     2
 10
-152.199493
 20
-21.113035
 40
4.000000
  0
CIRCLE
  8
0
  6
DASHED
 62
     2
 10
-144.699509
 20
-28.613037
 40
4.000000
  0
CIRCLE
  8
0
 10
-144.699509
 20
-28.613037
 40
2.250000
  0
CIRCLE
  8
0
 10
-177.199509
 20
-28.613033
 40
2.000000
  0
CIRCLE
  8
0
 10
-202.199463
 20
3.886969
 40
2.000000
  0
CIRCLE
  8
0
 10
-209.699493
 20
3.886969
 40
2.000000
  0
CIRCLE
  8
0
 10
-177.199478
 20
28.886936
 40
2.000000
  0
CIRCLE
  8
0
 10
-177.199493
 20
-21.113033
 40
2.000000
  0
CIRCLE
  8
0
 10
-144.699493
 20
3.886934
 40
2.000000
  0
CIRCLE
  8
0
 10
-152.199493
 20
28.886934
 40
2.250000
  0
ARC
  8
0
 10
-224.199509
 20
-34.936333
 40
5.776711
 50
249.743851
 51
290.256165
  0
ARC
  8
0
 10
-220.199509
 20
-34.936333
 40
5.776711
 50
249.743851
 51
290.256165
  0
CIRCLE
  8
0
  6
DASHED
 62
     2
 10
-202.199478
 20
28.886938
 40
4.000000
  0
CIRCLE
  8
0
 62
     2
 10
-168.780411
 20
-16.438381
 40
4.000000
  0
CIRCLE
  8
0
 62
     2
 10
-185.618500
 20
-16.438412
 40
4.000000
  0
CIRCLE
  8
0
 62
     2
 10
-197.524826
 20
-4.532129
 40
4.000000
  0
CIRCLE
  8
0
 62
     2
 10
-197.524872
 20
12.305944
 40
4.000000
  0
CIRCLE
  8
0
 10
-177.199493
 20
3.886967
 40
15.500000
  0
ARC
  8
0
 10
-217.735352
 20
18.386971
 40
11.464126
 50
162.411987
 51
197.587967
  0
ARC
  8
0
 10
-229.266464
 20
23.583138
 40
3.066976
 50
325.615845
 51
34.384583
  0
ARC
  8
0
 10
-226.132507
 20
23.583138
 40
3.066974
 50
145.615387
 51
214.384155
  0
ARC
  8
0
 10
-229.266464
 20
13.190834
 40
3.066974
 50
325.615387
 51
34.384129
  0
ARC
  8
0
 10
-237.663620
 20
18.386971
 40
11.464137
 50
342.412079
 51
17.588007
  0
ARC
  8
0
 10
-226.132507
 20
13.190834
 40
3.066975
 50
145.615860
 51
214.384598
  0
ARC
  8
0
 10
-125.132507
 20
23.583130
 40
3.066973
 50
145.615417
 51
214.384232
  0
ARC
  8
0
 10
-128.266464
 20
23.583130
 40
3.066968
 50
325.615784
 51
34.384693
  0
ARC
  8
0
 10
-125.132507
 20
13.190826
 40
3.066968
 50
145.615799
 51
214.384705
  0
ARC
  8
0
 10
-116.735352
 20
18.386932
 40
11.464131
 50
162.412018
 51
197.587967
  0
ARC
  8
0
 10
-128.266464
 20
13.190826
 40
3.066967
 50
325.615326
 51
34.384239
  0
ARC
  8
0
 10
-136.663620
 20
18.386963
 40
11.464129
 50
342.412048
 51
17.588015
  0
ARC
  8
0
 10
-113.730743
 20
18.386963
 40
5.031252
 50
323.248840
 51
36.751129
  0
CIRCLE
  8
0
  6
DASHED
 62
     2
 10
-152.199493
 20
28.886934
 40
4.000000
  0
CIRCLE
  8
0
 10
-177.199493
 20
3.886967
 40
2.000000
  0
CIRCLE
  8
0
 62
     2
 10
-165.699493
 20
3.886966
 40
3.000000
  0
CIRCLE
  8
0
 62
     2
 10
-177.199493
 20
15.386967
 40
3.000000
  0
CIRCLE
  8
0
 62
     2
 10
-188.699493
 20
3.886968
 40
3.000000
  0
CIRCLE
  8
0
 62
     2
 10
-177.199493
 20
-7.613033
 40
3.000000
  0
CIRCLE
  8
0
 10
-177.199493
 20
3.886967
 40
7.500000
  0
CIRCLE
  8
0
 62
     2
 10
-185.618576
 20
24.212315
 40
4.000000
  0
ARC
  8
0
 10
-240.668228
 20
18.386971
 40
5.031251
 50
143.248871
 51
216.751144
  0
ARC
  8
0
 10
-119.735352
 20
18.386932
 40
11.464125
 50
162.412018
 51
197.587982
  0
ARC
  8
0
 10
-131.266464
 20
23.583130
 40
3.066975
 50
325.615875
 51
34.384613
  0
ARC
  8
0
 10
-128.132507
 20
13.190826
 40
3.066974
 50
145.615891
 51
214.384628
  0
ARC
  8
0
 10
-131.266464
 20
13.190826
 40
3.066973
 50
325.615387
 51
34.384159
  0
ARC
  8
0
 10
-139.663620
 20
18.386963
 40
11.464137
 50
342.412079
 51
17.588026
  0
ARC
  8
0
 10
-128.132507
 20
23.583130
 40
3.066973
 50
145.615417
 51
214.384155
  0
ARC
  8
0
 10
-223.132507
 20
13.190834
 40
3.066975
 50
145.615860
 51
214.384598
  0
ARC
  8
0
 10
-214.735352
 20
18.386971
 40
11.464126
 50
162.411987
 51
197.587967
  0
ARC
  8
0
 10
-226.266464
 20
13.190834
 40
3.066974
 50
325.615387
 51
34.384129
  0
ARC
  8
0
 10
-226.266464
 20
23.583138
 40
3.066976
 50
325.615845
 51
34.384583
  0
ARC
  8
0
 10
-223.132507
 20
23.583138
 40
3.066974
 50
145.615387
 51
214.384155
  0
ARC
  8
0
 10
-234.663620
 20
18.386971
 40
11.464137
 50
342.412079
 51
17.588007
  0
CIRCLE
  8
0
 10
-156.874527
 20
-4.533049
 40
5.000000
  0
CIRCLE
  8
0
 10
-168.780746
 20
24.212406
 40
5.000000
  0
CIRCLE
  8
0
 10
-185.618576
 20
24.212315
 40
3.500000
  0
CIRCLE
  8
0
 10
-197.524872
 20
12.305944
 40
3.500000
  0
CIRCLE
  8
0
 10
-197.524826
 20
-4.532129
 40
3.500000
  0
CIRCLE
  8
0
 10
-185.618500
 20
-16.438412
 40
3.500000
  0
CIRCLE
  8
0
 10
-168.780411
 20
-16.438381
 40
3.500000
  0
CIRCLE
  8
0
 10
-156.874146
 20
12.306032
 40
3.500000
  0
TEXT
  8
0
 10
174.200241
 20
180.830002
 40
6.300000
  1
DATE: MAY ,1993
 50
0.000000
 41
1.052632
 51
0.000000
  7
STANDARD
  0
TEXT
  8
0
 10
167.564667
 20
-192.100006
 40
9.000000
  1
KOGANEI CORP.
 50
0.000000
 41
1.052632
 51
0.000000
  7
STANDARD
  0
TEXT
  8
0
 10
-269.149719
 20
180.830002
 40
6.300000
  1
HANDLING MODULE
 50
0.000000
 41
1.052632
 51
0.000000
  7
STANDARD
  0
TEXT
  8
0
 10
-270.049713
 20
155.830002
 40
6.300000
  1
MODEL:SHM21M-NA
 50
0.000000
 41
1.052632
 51
0.000000
  7
STANDARD
  0
ENDSEC
  0
EOF
