  0
SECTION
  2
HEADER
  0
ENDSEC
  0
SECTION
  2
TABLES
  0
TABLE
  2
LTYPE
 70
     4
  0
LTYPE
  2
CONTINUOUS
 70
    64
  3
Solid line
 72
    65
 73
     0
 40
0.000000
  0
LTYPE
  2
DASHED
 70
    64
  3
__ __ __ __ __ __ __ __ __ __ __ __ __ __ __
 72
    65
 73
     2
 40
3.500000
 49
2.000000
 49
-1.500000
  0
LTYPE
  2
CENTER
 70
    64
  3
____ _ ____ _ ____ _ ____ _ ____ _ ____ _ ____
 72
    65
 73
     4
 40
17.500000
 49
13.000000
 49
-1.500000
 49
1.500000
 49
-1.500000
  0
LTYPE
  2
PHANTOM
 70
    64
  3
_____ _ _ _____ _ _ _____ _ _ _____ _ _ ____  
 72
    65
 73
     6
 40
15.500000
 49
8.000000
 49
-1.500000
 49
1.500000
 49
-1.500000
 49
1.500000
 49
-1.500000
  0
LTYPE
  2
DASHED1
 70
    64
  3
__ __ __ __ __ __ __ __ __ __ __ __ __ __ __
 72
    65
 73
     2
 40
1.500000
 49
1.000000
 49
-0.500000
  0
LTYPE
  2
DASHED2
 70
    64
  3
__ __ __ __ __ __ __ __ __ __ __ __ __ __ __
 72
    65
 73
     2
 40
3.500000
 49
2.500000
 49
-1.000000
  0
LTYPE
  2
DASHED3
 70
    64
  3
__ __ __ __ __ __ __ __ __ __ __ __ __ __ __
 72
    65
 73
     2
 40
6.000000
 49
4.000000
 49
-2.000000
  0
LTYPE
  2
DASHED4
 70
    64
  3
__ __ __ __ __ __ __ __ __ __ __ __ __ __ __
 72
    65
 73
     2
 40
12.000000
 49
10.000000
 49
-2.000000
  0
LTYPE
  2
DASHED5
 70
    64
  3
__ __ __ __ __ __ __ __ __ __ __ __ __ __ __
 72
    65
 73
     2
 40
17.000000
 49
15.000000
 49
-2.000000
  0
LTYPE
  2
DASHED6
 70
    64
  3
__ __ __ __ __ __ __ __ __ __ __ __ __ __ __
 72
    65
 73
     2
 40
29.000000
 49
27.000000
 49
-2.000000
  0
LTYPE
  2
PHANTOM1
 70
    64
  3
_____ _ _ _____ _ _ _____ _ _ _____ _ _ ____  
 72
    65
 73
     6
 40
31.000000
 49
25.000000
 49
-1.500000
 49
1.000000
 49
-1.000000
 49
1.000000
 49
-1.500000
  0
LTYPE
  2
PHANTOM2
 70
    64
  3
_____ _ _ _____ _ _ _____ _ _ _____ _ _ ____  
 72
    65
 73
     6
 40
36.000000
 49
27.000000
 49
-1.500000
 49
2.500000
 49
-1.000000
 49
2.500000
 49
-1.500000
  0
LTYPE
  2
PHANTOM3
 70
    64
  3
_____ _ _ _____ _ _ _____ _ _ _____ _ _ ____  
 72
    65
 73
     6
 40
78.000000
 49
64.000000
 49
-2.000000
 49
4.000000
 49
-2.000000
 49
4.000000
 49
-2.000000
  0
LTYPE
  2
CENTER1
 70
    64
  3
____ _ ____ _ ____ _ ____ _ ____ _ ____ _ ____
 72
    65
 73
     4
 40
19.000000
 49
14.000000
 49
-1.000000
 49
3.000000
 49
-1.000000
  0
LTYPE
  2
CENTER2
 70
    64
  3
____ _ ____ _ ____ _ ____ _ ____ _ ____ _ ____
 72
    65
 73
     4
 40
28.500000
 49
25.000000
 49
-1.000000
 49
1.500000
 49
-1.000000
  0
LTYPE
  2
CENTER3
 70
    64
  3
____ _ ____ _ ____ _ ____ _ ____ _ ____ _ ____
 72
    65
 73
     4
 40
31.500000
 49
27.000000
 49
-1.000000
 49
2.500000
 49
-1.000000
  0
LTYPE
  2
CENTER4
 70
    64
  3
____ _ ____ _ ____ _ ____ _ ____ _ ____ _ ____
 72
    65
 73
     4
 40
50.000000
 49
45.000000
 49
-1.000000
 49
3.000000
 49
-1.000000
  0
LTYPE
  2
CENTER5
 70
    64
  3
____ _ ____ _ ____ _ ____ _ ____ _ ____ _ ____
 72
    65
 73
     4
 40
100.000000
 49
92.000000
 49
-2.000000
 49
4.000000
 49
-2.000000
  0
LTYPE
  2
SBK1
 70
    64
  3
______ _ _ _ ______ _ _ _ ______ _ _ _ _____  
 72
    65
 73
     8
 40
60.500000
 49
45.000000
 49
-2.000000
 49
2.500000
 49
-2.000000
 49
2.500000
 49
-2.000000
 49
2.500000
 49
-2.000000
  0
LTYPE
  2
SBK2
 70
    64
  3
______ _ _ _ ______ _ _ _ ______ _ _ _ _____  
 72
    65
 73
     8
 40
84.000000
 49
64.000000
 49
-2.000000
 49
4.000000
 49
-2.000000
 49
4.000000
 49
-2.000000
 49
4.000000
 49
-2.000000
  0
LTYPE
  2
STCH
 70
    64
  3
__ __ __ __ __ __ __ __ __ __ __ __ __ __ __
 72
    65
 73
     2
 40
3.000000
 49
1.000000
 49
-2.000000
  0
LTYPE
  2
MTCH
 70
    64
  3
_____ _ _ _____ _ _ _____ _ _ _____ _ _ ____  
 72
    65
 73
     6
 40
80.000000
 49
66.000000
 49
-2.000000
 49
4.000000
 49
-2.000000
 49
4.000000
 49
-2.000000
  0
ENDTAB
  0
TABLE
  2
LAYER
 70
     1
  0
LAYER
  2
0
 70
     0
 62
     7
  6
CONTINUOUS
  0
ENDTAB
  0
TABLE
  2
STYLE
 70
     1
  0
STYLE
  2
STANDARD
 70
     0
 40
0.000000
 41
1.000000
 50
0.000000
 71
     0
 42
0.200000
  3
txt
  4
BIGFONT
  0
ENDTAB
  0
TABLE
  2
VIEW
 70
     0
  0
ENDTAB
  0
ENDSEC
  0
SECTION
  2
BLOCKS
  0
ENDSEC
  0
SECTION
  2
ENTITIES
  0
LINE
  8
0
 10
399.799988
 20
276.250000
 11
399.799988
 21
-276.750000
  0
LINE
  8
0
 10
-399.250000
 20
276.250000
 11
-399.250000
 21
-276.750000
  0
LINE
  8
0
 10
-399.250000
 20
276.250000
 11
399.799988
 21
276.250000
  0
LINE
  8
0
 10
-399.250000
 20
-276.750000
 11
399.799988
 21
-276.750000
  0
LINE
  8
0
 10
239.799988
 20
-251.750000
 11
399.799988
 21
-251.750000
  0
LINE
  8
0
 10
239.799988
 20
251.250000
 11
399.799988
 21
251.250000
  0
LINE
  8
0
 10
-399.250000
 20
251.250000
 11
-239.250000
 21
251.250000
  0
LINE
  8
0
 10
239.799988
 20
-251.750000
 11
239.799988
 21
-276.750000
  0
LINE
  8
0
 10
239.799988
 20
251.250000
 11
239.799988
 21
276.250000
  0
LINE
  8
0
 10
-239.250000
 20
276.250000
 11
-239.250000
 21
251.250000
  0
LINE
  8
0
 10
305.783600
 20
19.750000
 11
285.083344
 21
19.750000
  0
LINE
  8
0
 62
     2
 10
306.583588
 20
20.549988
 11
285.083344
 21
20.549988
  0
LINE
  8
0
 10
309.583588
 20
20.549988
 11
306.583588
 21
20.549988
  0
LINE
  8
0
 62
     2
 10
306.583588
 20
28.949982
 11
285.083344
 21
28.949982
  0
LINE
  8
0
 10
305.783600
 20
29.750000
 11
285.083344
 21
29.750000
  0
LINE
  8
0
 10
309.583588
 20
28.949982
 11
306.583588
 21
28.949982
  0
LINE
  8
0
 10
305.783813
 20
19.749626
 11
306.583832
 21
20.549656
  0
LINE
  8
0
 10
306.583588
 20
28.949982
 11
306.583588
 21
20.549988
  0
LINE
  8
0
 10
305.783600
 20
29.750000
 11
305.783600
 21
19.750000
  0
LINE
  8
0
 10
306.583588
 20
28.949921
 11
305.783569
 21
29.749928
  0
LINE
  8
0
 10
309.583588
 20
20.550043
 11
310.583557
 21
21.550022
  0
LINE
  8
0
 10
309.583435
 20
28.949869
 11
310.583435
 21
27.949869
  0
LINE
  8
0
 10
306.583588
 20
21.739594
 11
309.583588
 21
21.739594
  0
LINE
  8
0
 10
306.583588
 20
27.760376
 11
309.583588
 21
27.760376
  0
LINE
  8
0
 10
309.583588
 20
20.549988
 11
309.583588
 21
21.739594
  0
LINE
  8
0
 10
309.582977
 20
27.760376
 11
309.582977
 21
28.949982
  0
LINE
  8
0
 62
     2
 10
309.583588
 20
21.739666
 11
306.583588
 21
27.760466
  0
LINE
  8
0
 62
     2
 10
306.583649
 20
21.739521
 11
309.583649
 21
27.760342
  0
LINE
  8
0
 10
310.583466
 20
27.949951
 11
310.583466
 21
21.550049
  0
LINE
  8
0
 10
172.083359
 20
49.250000
 11
172.083359
 21
-46.750000
  0
LINE
  8
0
 10
272.083344
 20
49.250000
 11
272.083344
 21
-46.750000
  0
LINE
  8
0
 10
270.083344
 20
51.250000
 11
174.083328
 21
51.250000
  0
LINE
  8
0
 10
162.083344
 20
41.750000
 11
162.083344
 21
-39.250000
  0
LINE
  8
0
 10
282.083344
 20
41.750000
 11
282.083344
 21
-39.250000
  0
LINE
  8
0
  6
CENTER
 62
     2
 10
167.083359
 20
-39.650002
 11
167.083359
 21
-69.424431
  0
LINE
  8
0
  6
CENTER
 62
     2
 10
277.083344
 20
-39.650002
 11
277.083344
 21
-70.065506
  0
LINE
  8
0
 10
159.083313
 20
31.750000
 11
159.083313
 21
17.750000
  0
LINE
  8
0
 10
161.458099
 20
28.791443
 11
159.708511
 21
28.791443
  0
LINE
  8
0
 10
161.458099
 20
32.832886
 11
159.708511
 21
32.832886
  0
LINE
  8
0
 10
159.708313
 20
32.832989
 11
159.083099
 21
31.750088
  0
LINE
  8
0
 10
161.458099
 20
16.667114
 11
159.708511
 21
16.667114
  0
LINE
  8
0
 10
161.458115
 20
20.708557
 11
159.708511
 21
20.708557
  0
LINE
  8
0
 10
159.708405
 20
16.666992
 11
159.083191
 21
17.749893
  0
LINE
  8
0
 10
270.083344
 20
-48.750000
 11
174.083328
 21
-48.750000
  0
LINE
  8
0
 10
248.083344
 20
-54.530518
 11
248.083344
 21
-48.750000
  0
LINE
  8
0
 62
     2
 10
248.883331
 20
-54.530518
 11
248.883331
 21
-48.750000
  0
LINE
  8
0
 10
254.083344
 20
-54.530518
 11
254.083344
 21
-48.750000
  0
LINE
  8
0
 62
     2
 10
253.283356
 20
-54.530518
 11
253.283356
 21
-48.750000
  0
LINE
  8
0
 10
248.083344
 20
-54.530487
 11
254.083344
 21
-54.530487
  0
LINE
  8
0
 10
161.458038
 20
16.667048
 11
162.083252
 21
17.749949
  0
LINE
  8
0
 10
161.458023
 20
32.832851
 11
162.083237
 21
31.749950
  0
LINE
  8
0
 10
285.083344
 20
31.750000
 11
285.083344
 21
17.749969
  0
LINE
  8
0
 10
282.708527
 20
28.791443
 11
284.458099
 21
28.791443
  0
LINE
  8
0
 10
282.708527
 20
32.832886
 11
284.458099
 21
32.832886
  0
LINE
  8
0
 10
284.457977
 20
32.832821
 11
285.083191
 21
31.749914
  0
LINE
  8
0
 10
282.708527
 20
16.667114
 11
284.458099
 21
16.667114
  0
LINE
  8
0
 10
282.708527
 20
20.708557
 11
284.458099
 21
20.708557
  0
LINE
  8
0
 10
284.458130
 20
16.667154
 11
285.083344
 21
17.750055
  0
LINE
  8
0
 10
282.708313
 20
16.666977
 11
282.083099
 21
17.749876
  0
LINE
  8
0
 10
282.708588
 20
32.832836
 11
282.083405
 21
31.749956
  0
LINE
  8
0
  6
CENTER
 62
     2
 10
222.083359
 20
54.651764
 11
222.083359
 21
-52.997490
  0
LINE
  8
0
 10
272.083344
 20
41.750000
 11
282.083344
 21
41.750000
  0
LINE
  8
0
 10
172.083328
 20
41.750000
 11
162.083328
 21
41.750000
  0
LINE
  8
0
 10
172.083328
 20
-39.250000
 11
162.083328
 21
-39.250000
  0
LINE
  8
0
 10
272.083344
 20
-39.250000
 11
282.083344
 21
-39.250000
  0
LINE
  8
0
 10
272.083344
 20
-38.250000
 11
282.083344
 21
-38.250000
  0
LINE
  8
0
 10
272.083344
 20
40.750000
 11
282.083344
 21
40.750000
  0
LINE
  8
0
 10
172.083328
 20
-38.250000
 11
162.083328
 21
-38.250000
  0
LINE
  8
0
 10
172.083328
 20
40.750000
 11
162.083328
 21
40.750000
  0
LINE
  8
0
  6
CENTER
 62
     2
 10
184.216507
 20
-41.250000
 11
174.432785
 21
-41.250000
  0
LINE
  8
0
  6
CENTER
 62
     2
 10
179.583359
 20
-36.079742
 11
179.583359
 21
-46.515747
  0
LINE
  8
0
 10
172.083374
 20
49.249908
 11
174.083389
 21
51.249908
  0
LINE
  8
0
 10
270.083313
 20
51.249973
 11
272.083313
 21
49.249969
  0
LINE
  8
0
 10
270.083313
 20
-48.749969
 11
272.083313
 21
-46.749969
  0
LINE
  8
0
 10
172.083328
 20
-46.749985
 11
174.083328
 21
-48.749989
  0
LINE
  8
0
 10
165.083267
 20
-67.750008
 11
169.083267
 21
-67.750008
  0
LINE
  8
0
 10
169.583359
 20
-67.250069
 11
169.583359
 21
-64.250069
  0
LINE
  8
0
 10
164.583344
 20
-67.250069
 11
164.583344
 21
-64.250069
  0
LINE
  8
0
 10
169.583221
 20
-67.250168
 11
169.083237
 21
-67.750160
  0
LINE
  8
0
 10
165.083466
 20
-67.749817
 11
164.583481
 21
-67.249832
  0
LINE
  8
0
 10
165.083267
 20
-63.750008
 11
169.083267
 21
-63.750008
  0
LINE
  8
0
 10
164.583084
 20
-64.249908
 11
165.083054
 21
-63.749939
  0
LINE
  8
0
 10
169.083420
 20
-63.749928
 11
169.583435
 21
-64.249939
  0
LINE
  8
0
 10
164.583267
 20
-67.250008
 11
169.583267
 21
-67.250008
  0
LINE
  8
0
 10
164.583267
 20
-64.250008
 11
169.583267
 21
-64.250008
  0
LINE
  8
0
 62
     2
 10
166.583359
 20
-67.250069
 11
166.583359
 21
-64.250069
  0
LINE
  8
0
 10
163.183304
 20
-40.350006
 11
170.983292
 21
-40.350006
  0
LINE
  8
0
 10
163.083267
 20
-54.850006
 11
171.083267
 21
-54.850006
  0
LINE
  8
0
 10
163.583267
 20
-55.649994
 11
170.583267
 21
-55.649994
  0
LINE
  8
0
 10
163.583267
 20
-58.149994
 11
170.583267
 21
-58.149994
  0
LINE
  8
0
 10
171.083359
 20
-57.650024
 11
171.083359
 21
-56.150024
  0
LINE
  8
0
 10
163.083344
 20
-57.650024
 11
163.083344
 21
-56.150024
  0
LINE
  8
0
 10
171.083160
 20
-57.649818
 11
170.583176
 21
-58.149811
  0
LINE
  8
0
 10
163.583481
 20
-58.149879
 11
163.083481
 21
-57.649868
  0
LINE
  8
0
 10
163.083359
 20
-56.150078
 11
163.583389
 21
-55.650043
  0
LINE
  8
0
 10
170.583511
 20
-55.649822
 11
171.083542
 21
-56.149857
  0
LINE
  8
0
 62
     2
 10
164.083344
 20
-57.650024
 11
164.083344
 21
-56.150024
  0
LINE
  8
0
 62
     2
 10
165.083344
 20
-57.650024
 11
165.083344
 21
-56.150024
  0
LINE
  8
0
 62
     2
 10
166.083359
 20
-57.650024
 11
166.083359
 21
-56.150024
  0
LINE
  8
0
 10
163.083267
 20
-57.649994
 11
171.083267
 21
-57.649994
  0
LINE
  8
0
 10
163.083267
 20
-56.149994
 11
171.083267
 21
-56.149994
  0
LINE
  8
0
 10
169.583359
 20
-55.650024
 11
169.583359
 21
-54.850037
  0
LINE
  8
0
 10
164.583344
 20
-55.650024
 11
164.583344
 21
-54.850037
  0
LINE
  8
0
 10
165.583344
 20
-63.750069
 11
165.583344
 21
-58.149994
  0
LINE
  8
0
 10
168.583359
 20
-63.750069
 11
168.583359
 21
-58.149994
  0
LINE
  8
0
 62
     2
 10
168.312851
 20
-63.750069
 11
168.312851
 21
-58.149994
  0
LINE
  8
0
 62
     2
 10
165.853867
 20
-63.750069
 11
165.853867
 21
-58.149994
  0
LINE
  8
0
 62
     2
 10
165.583344
 20
-67.250069
 11
165.583344
 21
-64.250069
  0
LINE
  8
0
 10
170.333359
 20
-41.850037
 11
170.333359
 21
-40.350037
  0
LINE
  8
0
 10
163.833344
 20
-41.850037
 11
163.833344
 21
-40.350037
  0
LINE
  8
0
 10
170.983322
 20
-40.350037
 11
170.983322
 21
-39.250000
  0
LINE
  8
0
 10
163.183350
 20
-40.350037
 11
163.183350
 21
-39.250000
  0
LINE
  8
0
 10
171.983322
 20
-50.850006
 11
171.983322
 21
-47.845032
  0
LINE
  8
0
 10
162.183350
 20
-50.850037
 11
162.183350
 21
-47.845032
  0
LINE
  8
0
 10
162.183304
 20
-50.850006
 11
164.083267
 21
-50.850006
  0
LINE
  8
0
 10
162.183304
 20
-41.850006
 11
171.983292
 21
-41.850006
  0
LINE
  8
0
 10
171.083359
 20
-54.850006
 11
171.083359
 21
-50.850037
  0
LINE
  8
0
 10
163.083344
 20
-54.850037
 11
163.083344
 21
-50.850037
  0
LINE
  8
0
 10
167.083359
 20
-54.492798
 11
167.083359
 21
-51.850037
  0
LINE
  8
0
  6
CENTER
 62
     2
 10
160.232010
 20
-46.850006
 11
173.694641
 21
-46.850006
  0
LINE
  8
0
 10
171.983322
 20
-45.855042
 11
171.983322
 21
-41.850006
  0
LINE
  8
0
 10
162.183350
 20
-45.855042
 11
162.183350
 21
-41.850037
  0
LINE
  8
0
 10
170.083267
 20
-50.850006
 11
171.983292
 21
-50.850006
  0
LINE
  8
0
 10
275.083282
 20
-67.750008
 11
279.083282
 21
-67.750008
  0
LINE
  8
0
 10
279.583344
 20
-67.250069
 11
279.583344
 21
-64.250069
  0
LINE
  8
0
 10
274.583344
 20
-67.250069
 11
274.583344
 21
-64.250069
  0
LINE
  8
0
 10
279.583344
 20
-67.250084
 11
279.083313
 21
-67.750099
  0
LINE
  8
0
 10
275.083435
 20
-67.749794
 11
274.583435
 21
-67.249809
  0
LINE
  8
0
 10
275.083282
 20
-63.750008
 11
279.083282
 21
-63.750008
  0
LINE
  8
0
 10
274.583191
 20
-64.250015
 11
275.083130
 21
-63.750069
  0
LINE
  8
0
 10
279.083405
 20
-63.749901
 11
279.583405
 21
-64.249893
  0
LINE
  8
0
 10
274.583282
 20
-67.250008
 11
279.583282
 21
-67.250008
  0
LINE
  8
0
 10
274.583282
 20
-64.250008
 11
279.583282
 21
-64.250008
  0
LINE
  8
0
 62
     2
 10
276.583344
 20
-67.250069
 11
276.583344
 21
-64.250069
  0
LINE
  8
0
 10
273.183258
 20
-40.350006
 11
280.983246
 21
-40.350006
  0
LINE
  8
0
 10
273.083282
 20
-54.850006
 11
281.083282
 21
-54.850006
  0
LINE
  8
0
 10
273.583282
 20
-55.649994
 11
280.583282
 21
-55.649994
  0
LINE
  8
0
 10
273.583282
 20
-58.149994
 11
280.583282
 21
-58.149994
  0
LINE
  8
0
 10
281.083344
 20
-57.650055
 11
281.083344
 21
-56.150055
  0
LINE
  8
0
 10
273.083344
 20
-57.650055
 11
273.083344
 21
-56.150055
  0
LINE
  8
0
 10
281.083191
 20
-57.649899
 11
280.583191
 21
-58.149910
  0
LINE
  8
0
 10
273.583435
 20
-58.149929
 11
273.083435
 21
-57.649929
  0
LINE
  8
0
 10
273.083221
 20
-56.149960
 11
273.583252
 21
-55.649948
  0
LINE
  8
0
 10
280.583466
 20
-55.649818
 11
281.083496
 21
-56.149841
  0
LINE
  8
0
 62
     2
 10
274.083344
 20
-57.650055
 11
274.083344
 21
-56.150055
  0
LINE
  8
0
 62
     2
 10
275.083344
 20
-57.650055
 11
275.083344
 21
-56.150055
  0
LINE
  8
0
 62
     2
 10
276.083344
 20
-57.650055
 11
276.083344
 21
-56.150055
  0
LINE
  8
0
 10
273.083282
 20
-57.649994
 11
281.083282
 21
-57.649994
  0
LINE
  8
0
 10
273.083282
 20
-56.149994
 11
281.083282
 21
-56.149994
  0
LINE
  8
0
 10
279.583344
 20
-55.650055
 11
279.583344
 21
-54.850067
  0
LINE
  8
0
 10
274.583344
 20
-55.650055
 11
274.583344
 21
-54.850067
  0
LINE
  8
0
 10
275.583344
 20
-63.750069
 11
275.583344
 21
-58.149994
  0
LINE
  8
0
 10
278.583344
 20
-63.750069
 11
278.583344
 21
-58.149994
  0
LINE
  8
0
 62
     2
 10
278.312836
 20
-63.750069
 11
278.312836
 21
-58.149994
  0
LINE
  8
0
 62
     2
 10
275.853851
 20
-63.750069
 11
275.853851
 21
-58.149994
  0
LINE
  8
0
 62
     2
 10
275.583344
 20
-67.250069
 11
275.583344
 21
-64.250069
  0
LINE
  8
0
 10
280.333344
 20
-41.850037
 11
280.333344
 21
-40.350037
  0
LINE
  8
0
 10
273.833344
 20
-41.850037
 11
273.833344
 21
-40.350037
  0
LINE
  8
0
 10
280.983307
 20
-40.350037
 11
280.983307
 21
-39.250000
  0
LINE
  8
0
 10
273.183319
 20
-40.350037
 11
273.183319
 21
-39.250000
  0
LINE
  8
0
 10
281.983307
 20
-50.850006
 11
281.983307
 21
-47.845032
  0
LINE
  8
0
 10
272.183319
 20
-50.850037
 11
272.183319
 21
-47.845032
  0
LINE
  8
0
 10
272.183258
 20
-50.850006
 11
274.083282
 21
-50.850006
  0
LINE
  8
0
 10
272.183258
 20
-41.850006
 11
281.983246
 21
-41.850006
  0
LINE
  8
0
 10
281.083344
 20
-54.850037
 11
281.083344
 21
-50.850037
  0
LINE
  8
0
 10
273.083344
 20
-54.850067
 11
273.083344
 21
-50.850037
  0
LINE
  8
0
 10
277.083344
 20
-54.492828
 11
277.083344
 21
-51.850037
  0
LINE
  8
0
  6
CENTER
 62
     2
 10
269.642578
 20
-46.850006
 11
284.173676
 21
-46.850006
  0
LINE
  8
0
 10
281.983307
 20
-45.855042
 11
281.983307
 21
-41.850006
  0
LINE
  8
0
 10
272.183319
 20
-45.855042
 11
272.183319
 21
-41.850037
  0
LINE
  8
0
 10
280.083282
 20
-50.850006
 11
281.983246
 21
-50.850006
  0
LINE
  8
0
 10
196.083359
 20
-54.530518
 11
196.083359
 21
-48.750000
  0
LINE
  8
0
 62
     2
 10
195.283340
 20
-54.530518
 11
195.283340
 21
-48.750000
  0
LINE
  8
0
 62
     2
 10
190.883347
 20
-54.530518
 11
190.883347
 21
-48.750000
  0
LINE
  8
0
 10
196.083328
 20
-54.530487
 11
190.083328
 21
-54.530487
  0
LINE
  8
0
 10
190.083359
 20
-54.530518
 11
190.083359
 21
-48.750000
  0
LINE
  8
0
  6
CENTER
 62
     2
 10
264.583344
 20
-36.079742
 11
264.583344
 21
-46.515747
  0
LINE
  8
0
  6
CENTER
 62
     2
 10
184.216507
 20
43.750000
 11
174.432785
 21
43.750000
  0
LINE
  8
0
  6
CENTER
 62
     2
 10
179.583359
 20
38.579742
 11
179.583359
 21
49.015747
  0
LINE
  8
0
  6
CENTER
 62
     2
 10
259.950165
 20
43.750000
 11
269.733856
 21
43.750000
  0
LINE
  8
0
  6
CENTER
 62
     2
 10
264.583344
 20
38.579742
 11
264.583344
 21
49.015747
  0
LINE
  8
0
 10
225.083359
 20
51.250000
 11
225.083359
 21
42.750000
  0
LINE
  8
0
 10
219.083359
 20
51.250000
 11
219.083359
 21
42.750000
  0
LINE
  8
0
  6
CENTER
 62
     2
 10
259.950165
 20
-41.250000
 11
269.733856
 21
-41.250000
  0
LINE
  8
0
 10
138.383057
 20
19.750000
 11
159.083313
 21
19.750000
  0
LINE
  8
0
 62
     2
 10
137.583069
 20
20.549988
 11
159.083313
 21
20.549988
  0
LINE
  8
0
 10
134.583069
 20
20.549988
 11
137.583069
 21
20.549988
  0
LINE
  8
0
 62
     2
 10
137.583069
 20
28.949982
 11
159.083313
 21
28.949982
  0
LINE
  8
0
 10
138.383057
 20
29.750000
 11
159.083313
 21
29.750000
  0
LINE
  8
0
 10
134.583069
 20
28.949982
 11
137.583069
 21
28.949982
  0
LINE
  8
0
 10
138.382797
 20
19.749704
 11
137.582794
 21
20.549709
  0
LINE
  8
0
 10
137.583069
 20
28.949982
 11
137.583069
 21
20.549988
  0
LINE
  8
0
 10
138.383057
 20
29.750000
 11
138.383057
 21
19.750000
  0
LINE
  8
0
 10
137.583145
 20
28.949833
 11
138.383163
 21
29.749861
  0
LINE
  8
0
 10
134.583099
 20
20.550037
 11
133.583099
 21
21.550039
  0
LINE
  8
0
 10
134.583206
 20
28.949903
 11
133.583191
 21
27.949881
  0
LINE
  8
0
 10
137.583069
 20
21.739594
 11
134.583069
 21
21.739594
  0
LINE
  8
0
 10
137.583069
 20
27.760376
 11
134.583069
 21
27.760376
  0
LINE
  8
0
 10
134.583069
 20
20.549988
 11
134.583069
 21
21.739594
  0
LINE
  8
0
 10
134.583679
 20
27.760376
 11
134.583679
 21
28.949982
  0
LINE
  8
0
 62
     2
 10
134.583038
 20
21.739708
 11
137.583038
 21
27.760500
  0
LINE
  8
0
 62
     2
 10
137.583206
 20
21.739624
 11
134.583191
 21
27.760456
  0
LINE
  8
0
 10
133.583191
 20
27.949951
 11
133.583191
 21
21.550049
  0
LINE
  8
0
 10
272.083344
 20
33.750000
 11
172.083328
 21
33.750000
  0
LINE
  8
0
 10
272.083344
 20
-31.250000
 11
172.083328
 21
-31.250000
  0
LINE
  8
0
 10
272.083344
 20
32.750000
 11
172.083328
 21
32.750000
  0
LINE
  8
0
 10
272.083344
 20
-30.250000
 11
172.083328
 21
-30.250000
  0
LINE
  8
0
  6
CENTER
 62
     2
 10
151.364380
 20
1.250000
 11
291.688873
 21
1.250000
  0
LINE
  8
0
  6
CENTER
 62
     2
 10
318.798706
 20
182.750000
 11
130.330856
 21
182.750000
  0
LINE
  8
0
 10
249.143860
 20
183.810562
 11
247.022537
 21
181.689240
  0
LINE
  8
0
 10
249.144012
 20
181.689423
 11
247.022690
 21
183.810745
  0
LINE
  8
0
 10
234.883316
 20
174.258667
 11
234.883316
 21
179.310547
  0
LINE
  8
0
 10
259.883179
 20
186.149933
 11
259.883179
 21
191.241180
  0
LINE
  8
0
 10
233.383316
 20
173.856720
 11
209.883316
 21
173.856720
  0
LINE
  8
0
 10
209.883316
 20
173.856750
 11
209.883316
 21
179.349976
  0
LINE
  8
0
 10
234.883194
 20
186.149963
 11
234.883194
 21
191.643097
  0
LINE
  8
0
 10
233.383316
 20
173.856750
 11
233.383316
 21
179.350006
  0
LINE
  8
0
 10
258.383179
 20
186.149933
 11
258.383179
 21
191.643097
  0
LINE
  8
0
 10
258.383179
 20
191.643127
 11
234.883194
 21
191.643127
  0
LINE
  8
0
 10
234.883301
 20
174.258682
 11
233.383301
 21
173.856750
  0
LINE
  8
0
 10
259.883270
 20
191.241379
 11
258.383270
 21
191.643311
  0
LINE
  8
0
 10
221.022675
 20
183.810822
 11
223.143997
 21
181.689514
  0
LINE
  8
0
 10
221.022614
 20
181.689346
 11
223.143936
 21
183.810669
  0
LINE
  8
0
 10
225.083298
 20
165.250000
 11
219.083298
 21
165.250000
  0
LINE
  8
0
 10
219.083328
 20
161.250000
 11
219.083328
 21
165.250000
  0
LINE
  8
0
 10
225.083328
 20
161.250000
 11
225.083328
 21
165.250000
  0
LINE
  8
0
 10
272.083313
 20
179.349976
 11
251.983154
 21
179.349976
  0
LINE
  8
0
 10
272.083313
 20
174.449982
 11
234.883316
 21
174.449982
  0
LINE
  8
0
 10
209.883316
 20
174.449982
 11
194.933273
 21
174.449982
  0
LINE
  8
0
 10
272.083313
 20
186.149963
 11
251.983154
 21
186.149963
  0
LINE
  8
0
 10
272.083191
 20
191.049927
 11
259.883179
 21
191.049927
  0
LINE
  8
0
  6
CENTER
 62
     2
 10
234.883194
 20
188.715393
 11
196.070053
 21
188.715393
  0
LINE
  8
0
 10
218.183304
 20
186.787537
 11
195.997910
 21
186.787537
  0
LINE
  8
0
 10
234.883194
 20
190.643250
 11
196.142197
 21
190.643250
  0
LINE
  8
0
 10
225.983292
 20
186.750000
 11
225.983292
 21
175.750000
  0
LINE
  8
0
 10
218.183304
 20
186.750000
 11
218.183304
 21
175.750000
  0
LINE
  8
0
 10
218.183304
 20
186.749939
 11
225.983292
 21
186.749939
  0
LINE
  8
0
 10
218.183304
 20
175.749939
 11
225.983292
 21
175.749939
  0
LINE
  8
0
 10
244.183167
 20
179.349976
 11
225.983292
 21
179.349976
  0
LINE
  8
0
 10
244.183167
 20
186.149963
 11
225.983292
 21
186.149963
  0
LINE
  8
0
 10
251.983215
 20
178.749908
 11
251.983215
 21
189.749908
  0
LINE
  8
0
 10
251.983154
 20
189.749939
 11
244.183167
 21
189.749939
  0
LINE
  8
0
 10
244.183228
 20
178.749908
 11
244.183228
 21
189.749908
  0
LINE
  8
0
 10
251.983154
 20
178.749939
 11
244.183167
 21
178.749939
  0
LINE
  8
0
 10
218.183304
 20
186.149963
 11
172.083298
 21
186.149963
  0
LINE
  8
0
 10
218.183304
 20
179.349976
 11
172.083298
 21
179.349976
  0
LINE
  8
0
 10
284.547424
 20
189.678162
 11
282.618958
 21
189.678162
  0
LINE
  8
0
 10
284.383301
 20
179.285889
 11
282.619202
 21
179.285889
  0
LINE
  8
0
 10
284.547485
 20
175.821747
 11
282.619141
 21
175.821747
  0
LINE
  8
0
 10
285.083252
 20
188.750000
 11
285.083252
 21
176.750000
  0
LINE
  8
0
 10
284.547180
 20
189.677933
 11
285.083069
 21
188.749756
  0
LINE
  8
0
 10
284.547424
 20
186.214111
 11
282.619202
 21
186.214111
  0
LINE
  8
0
 10
284.547729
 20
175.821701
 11
285.083618
 21
176.749893
  0
LINE
  8
0
 10
282.083313
 20
188.750000
 11
282.083313
 21
176.750000
  0
LINE
  8
0
 10
282.618927
 20
175.821533
 11
282.083008
 21
176.749771
  0
LINE
  8
0
 10
282.619171
 20
189.678268
 11
282.083252
 21
188.750031
  0
LINE
  8
0
 10
282.083313
 20
169.250000
 11
189.706955
 21
169.250000
  0
LINE
  8
0
 10
191.755402
 20
188.545059
 11
183.813080
 21
196.487366
  0
LINE
  8
0
 10
194.728119
 20
191.229187
 11
186.641541
 21
199.315781
  0
LINE
  8
0
 62
     2
 10
183.812912
 20
196.487320
 11
186.641342
 21
199.315750
  0
LINE
  8
0
  6
CENTER
 62
     2
 10
193.241714
 20
189.887177
 11
183.209610
 21
199.919266
  0
LINE
  8
0
 10
189.250168
 20
191.049988
 11
172.083298
 21
191.049988
  0
LINE
  8
0
 10
272.083313
 20
192.750000
 11
193.207169
 21
192.750000
  0
LINE
  8
0
 10
209.883316
 20
178.712433
 11
195.997910
 21
178.712433
  0
LINE
  8
0
  6
CENTER
 62
     2
 10
209.883316
 20
176.784576
 11
196.070053
 21
176.784576
  0
LINE
  8
0
 10
209.883316
 20
174.856720
 11
196.142197
 21
174.856720
  0
LINE
  8
0
 62
     2
 10
183.813095
 20
169.012970
 11
186.641510
 21
166.184540
  0
LINE
  8
0
 10
194.727890
 20
174.271072
 11
186.641296
 21
166.184494
  0
LINE
  8
0
  6
CENTER
 62
     2
 10
193.241608
 20
175.613174
 11
183.209457
 21
165.581024
  0
LINE
  8
0
 10
191.755203
 20
176.955154
 11
183.812897
 21
169.012848
  0
LINE
  8
0
 10
189.250168
 20
174.449982
 11
172.083298
 21
174.449982
  0
LINE
  8
0
 10
282.083313
 20
188.750000
 11
282.083313
 21
176.750000
  0
LINE
  8
0
 10
172.083298
 20
216.250000
 11
272.083313
 21
216.250000
  0
LINE
  8
0
 10
272.083313
 20
161.250000
 11
172.083298
 21
161.250000
  0
LINE
  8
0
 10
172.083298
 20
208.250000
 11
272.083313
 21
208.250000
  0
LINE
  8
0
 10
183.083298
 20
207.250000
 11
261.083313
 21
207.250000
  0
LINE
  8
0
 10
162.083298
 20
197.750000
 11
185.075638
 21
197.750000
  0
LINE
  8
0
  6
CENTER
 62
     2
 10
222.083328
 20
222.154907
 11
222.083328
 21
157.151306
  0
LINE
  8
0
 10
270.083313
 20
169.250000
 11
270.083313
 21
161.249969
  0
LINE
  8
0
 10
272.083313
 20
197.749969
 11
272.083313
 21
161.249969
  0
LINE
  8
0
 10
174.083328
 20
216.250000
 11
174.083328
 21
208.249969
  0
LINE
  8
0
 10
172.083328
 20
216.250000
 11
172.083328
 21
208.249969
  0
LINE
  8
0
 10
174.083328
 20
161.249969
 11
174.083328
 21
169.250000
  0
LINE
  8
0
 10
172.083328
 20
161.249969
 11
172.083328
 21
197.749969
  0
LINE
  8
0
 10
272.083313
 20
208.249969
 11
272.083313
 21
216.250000
  0
LINE
  8
0
 10
270.083313
 20
208.249969
 11
270.083313
 21
216.250000
  0
LINE
  8
0
 10
282.083313
 20
197.749969
 11
282.083313
 21
169.250000
  0
LINE
  8
0
 10
261.083313
 20
207.249969
 11
261.083313
 21
197.749969
  0
LINE
  8
0
 10
183.083328
 20
207.249969
 11
183.083328
 21
197.749969
  0
LINE
  8
0
 10
159.619171
 20
189.678162
 11
161.547607
 21
189.678162
  0
LINE
  8
0
 10
159.783264
 20
179.285889
 11
161.547363
 21
179.285889
  0
LINE
  8
0
 10
159.619080
 20
175.821747
 11
161.547424
 21
175.821747
  0
LINE
  8
0
 10
159.083328
 20
188.750000
 11
159.083328
 21
176.750000
  0
LINE
  8
0
 10
159.619293
 20
189.677979
 11
159.083420
 21
188.749786
  0
LINE
  8
0
 10
159.619171
 20
186.214111
 11
161.547363
 21
186.214111
  0
LINE
  8
0
 10
159.618759
 20
175.821625
 11
159.082870
 21
176.749817
  0
LINE
  8
0
 10
162.083282
 20
188.750000
 11
162.083282
 21
176.750000
  0
LINE
  8
0
 10
161.547607
 20
175.821625
 11
162.083527
 21
176.749863
  0
LINE
  8
0
 10
161.547379
 20
189.678116
 11
162.083298
 21
188.749878
  0
LINE
  8
0
 10
162.083313
 20
188.750000
 11
162.083313
 21
176.750000
  0
LINE
  8
0
 10
162.083313
 20
197.749969
 11
162.083313
 21
169.250000
  0
LINE
  8
0
 10
188.207199
 20
197.750000
 11
282.083313
 21
197.750000
  0
LINE
  8
0
 10
234.883194
 20
191.050018
 11
194.933273
 21
191.050018
  0
LINE
  8
0
 10
187.550339
 20
192.750000
 11
172.083298
 21
192.750000
  0
LINE
  8
0
 10
184.050064
 20
169.250000
 11
162.083298
 21
169.250000
  0
LINE
  8
0
 10
187.550339
 20
172.750000
 11
172.083298
 21
172.750000
  0
LINE
  8
0
 10
272.083313
 20
172.750000
 11
193.207169
 21
172.750000
  0
LINE
  8
0
 10
138.383316
 20
177.750000
 11
159.083328
 21
177.750000
  0
LINE
  8
0
 62
     2
 10
137.583328
 20
178.549988
 11
159.083328
 21
178.549988
  0
LINE
  8
0
 62
     2
 10
137.583328
 20
186.949982
 11
159.083328
 21
186.949982
  0
LINE
  8
0
 10
138.383316
 20
187.750000
 11
159.083328
 21
187.750000
  0
LINE
  8
0
 10
133.583328
 20
186.750000
 11
133.583328
 21
178.750000
  0
LINE
  8
0
 10
138.382996
 20
177.749512
 11
137.583008
 21
178.549500
  0
LINE
  8
0
 10
137.583328
 20
186.949982
 11
137.583328
 21
178.549957
  0
LINE
  8
0
 10
138.383316
 20
187.749969
 11
138.383316
 21
177.749969
  0
LINE
  8
0
 10
137.583481
 20
186.949677
 11
138.383484
 21
187.749680
  0
LINE
  8
0
 10
134.583328
 20
178.750000
 11
134.583328
 21
186.750000
  0
LINE
  8
0
 10
137.583328
 20
178.750000
 11
133.583328
 21
178.750000
  0
LINE
  8
0
 10
137.583328
 20
186.750000
 11
133.583328
 21
186.750000
  0
LINE
  8
0
 62
     2
 10
306.583313
 20
178.549988
 11
285.083252
 21
178.549988
  0
LINE
  8
0
 10
305.783325
 20
177.750000
 11
285.083252
 21
177.750000
  0
LINE
  8
0
 10
305.783661
 20
177.749496
 11
306.583649
 21
178.549484
  0
LINE
  8
0
 10
305.783325
 20
187.749969
 11
305.783325
 21
177.749969
  0
LINE
  8
0
 10
306.583313
 20
186.949982
 11
306.583313
 21
178.549957
  0
LINE
  8
0
 10
306.583160
 20
186.949677
 11
305.783173
 21
187.749680
  0
LINE
  8
0
 10
305.783325
 20
187.750000
 11
285.083252
 21
187.750000
  0
LINE
  8
0
 62
     2
 10
306.583313
 20
186.949982
 11
285.083252
 21
186.949982
  0
LINE
  8
0
 10
306.583313
 20
186.750000
 11
310.583313
 21
186.750000
  0
LINE
  8
0
 10
309.583313
 20
178.750000
 11
309.583313
 21
186.750000
  0
LINE
  8
0
 10
310.583313
 20
186.750000
 11
310.583313
 21
178.750000
  0
LINE
  8
0
 10
306.583313
 20
178.750000
 11
310.583313
 21
178.750000
  0
LINE
  8
0
  6
CENTER
 62
     2
 10
179.583328
 20
218.448639
 11
179.583328
 21
206.666046
  0
LINE
  8
0
  6
CENTER
 62
     2
 10
189.583328
 20
218.648346
 11
189.583328
 21
206.266632
  0
LINE
  8
0
  6
CENTER
 62
     2
 10
179.583328
 20
158.736847
 11
179.583328
 21
171.517960
  0
LINE
  8
0
  6
CENTER
 62
     2
 10
264.583313
 20
218.448639
 11
264.583313
 21
206.666046
  0
LINE
  8
0
  6
CENTER
 62
     2
 10
254.583328
 20
218.648346
 11
254.583328
 21
206.266632
  0
LINE
  8
0
  6
CENTER
 62
     2
 10
264.583313
 20
158.736847
 11
264.583313
 21
171.517960
  0
LINE
  8
0
  6
CENTER
 62
     2
 10
277.083313
 20
-177.030365
 11
277.083313
 21
-146.366760
  0
LINE
  8
0
 10
273.083405
 20
-172.559387
 11
277.083374
 21
-174.868774
  0
LINE
  8
0
 10
277.083374
 20
-165.631088
 11
281.083374
 21
-167.940475
  0
LINE
  8
0
 10
281.083313
 20
-172.559448
 11
281.083313
 21
-167.940613
  0
LINE
  8
0
 10
273.083313
 20
-172.559448
 11
273.083313
 21
-167.940674
  0
LINE
  8
0
 10
277.083252
 20
-174.868820
 11
281.083252
 21
-172.559402
  0
LINE
  8
0
 10
273.083191
 20
-167.940674
 11
277.083221
 21
-165.631256
  0
LINE
  8
0
 10
281.983276
 20
-170.250061
 11
281.983276
 21
-154.750061
  0
LINE
  8
0
 10
282.083313
 20
-150.250031
 11
272.083313
 21
-150.250031
  0
LINE
  8
0
 10
282.083313
 20
-151.850037
 11
272.083313
 21
-151.850037
  0
LINE
  8
0
 10
280.483276
 20
-166.721619
 11
280.483276
 21
-164.250061
  0
LINE
  8
0
 10
281.983276
 20
-162.750031
 11
272.183289
 21
-162.750031
  0
LINE
  8
0
 10
280.483276
 20
-164.250031
 11
273.683289
 21
-164.250031
  0
LINE
  8
0
 10
281.983276
 20
-154.750031
 11
272.183289
 21
-154.750031
  0
LINE
  8
0
 10
281.833313
 20
-153.150024
 11
272.333313
 21
-153.150024
  0
LINE
  8
0
 10
282.083313
 20
-151.850037
 11
282.083313
 21
-150.250061
  0
LINE
  8
0
 10
281.833313
 20
-154.750061
 11
281.833313
 21
-153.150024
  0
LINE
  8
0
 10
272.083313
 20
-151.850037
 11
272.083313
 21
-150.250061
  0
LINE
  8
0
 10
272.333313
 20
-154.750061
 11
272.333313
 21
-153.150024
  0
LINE
  8
0
 10
272.183289
 20
-170.250061
 11
272.183289
 21
-154.750061
  0
LINE
  8
0
 10
273.683289
 20
-166.721619
 11
273.683289
 21
-164.250061
  0
LINE
  8
0
 10
280.333313
 20
-153.150024
 11
280.333313
 21
-151.850037
  0
LINE
  8
0
 10
273.833313
 20
-153.150024
 11
273.833313
 21
-151.850037
  0
LINE
  8
0
 10
281.983459
 20
-162.750214
 11
280.483459
 21
-164.250229
  0
LINE
  8
0
 10
272.183441
 20
-162.749878
 11
273.683411
 21
-164.249878
  0
LINE
  8
0
 10
252.026184
 20
-190.383118
 11
250.140381
 21
-190.383118
  0
LINE
  8
0
 10
252.026184
 20
-187.116882
 11
250.140442
 21
-187.116882
  0
LINE
  8
0
 10
252.026276
 20
-190.383209
 11
252.969177
 21
-188.750061
  0
LINE
  8
0
 10
249.197601
 20
-188.750092
 11
250.140488
 21
-187.116959
  0
LINE
  8
0
 10
252.969086
 20
-188.749939
 11
252.026199
 21
-187.116821
  0
LINE
  8
0
 10
250.140442
 20
-190.383209
 11
249.197556
 21
-188.750076
  0
LINE
  8
0
 10
255.883301
 20
-191.521301
 11
255.883301
 21
-185.978760
  0
LINE
  8
0
 10
246.283325
 20
-191.521301
 11
246.283325
 21
-185.978760
  0
LINE
  8
0
 10
255.883331
 20
-191.521225
 11
251.083344
 21
-194.292496
  0
LINE
  8
0
 10
251.083282
 20
-183.207413
 11
246.283295
 21
-185.978683
  0
LINE
  8
0
 10
251.083298
 20
-194.292572
 11
246.283310
 21
-191.521301
  0
LINE
  8
0
 10
255.883362
 20
-185.978683
 11
251.083344
 21
-183.207397
  0
LINE
  8
0
 10
305.783264
 20
-175.250031
 11
282.083313
 21
-175.250031
  0
LINE
  8
0
 62
     2
 10
306.583252
 20
-174.450043
 11
282.083313
 21
-174.450043
  0
LINE
  8
0
 62
     2
 10
306.583252
 20
-166.050049
 11
282.083313
 21
-166.050049
  0
LINE
  8
0
 10
305.783264
 20
-165.250031
 11
282.083313
 21
-165.250031
  0
LINE
  8
0
 10
310.583252
 20
-166.250031
 11
310.583252
 21
-174.250031
  0
LINE
  8
0
 10
305.783752
 20
-175.250565
 11
306.583740
 21
-174.450592
  0
LINE
  8
0
 10
306.583252
 20
-166.050049
 11
306.583252
 21
-174.450073
  0
LINE
  8
0
 10
305.783264
 20
-165.250061
 11
305.783264
 21
-175.250061
  0
LINE
  8
0
 10
306.583221
 20
-166.050247
 11
305.783234
 21
-165.250229
  0
LINE
  8
0
 10
309.583252
 20
-174.250031
 11
309.583252
 21
-166.250031
  0
LINE
  8
0
 10
306.583252
 20
-174.250031
 11
310.583252
 21
-174.250031
  0
LINE
  8
0
 10
306.583252
 20
-166.250031
 11
310.583252
 21
-166.250031
  0
LINE
  8
0
  6
CENTER
 62
     2
 10
317.261932
 20
-170.250031
 11
131.608078
 21
-170.250031
  0
LINE
  8
0
 10
282.083313
 20
-156.750031
 11
162.083313
 21
-156.750031
  0
LINE
  8
0
 10
172.083328
 20
-203.750031
 11
272.083313
 21
-203.750031
  0
LINE
  8
0
 10
272.083313
 20
-148.750000
 11
172.083328
 21
-148.750000
  0
LINE
  8
0
 10
172.083328
 20
-195.750000
 11
272.083313
 21
-195.750000
  0
LINE
  8
0
 10
183.083328
 20
-194.750000
 11
261.083313
 21
-194.750000
  0
LINE
  8
0
  6
CENTER
 62
     2
 10
222.083328
 20
-209.654938
 11
222.083328
 21
-144.651337
  0
LINE
  8
0
 10
270.083313
 20
-156.750031
 11
270.083313
 21
-148.750000
  0
LINE
  8
0
 10
272.083313
 20
-185.250000
 11
272.083313
 21
-148.750000
  0
LINE
  8
0
 10
174.083328
 20
-203.750031
 11
174.083328
 21
-195.750000
  0
LINE
  8
0
 10
172.083328
 20
-203.750031
 11
172.083328
 21
-195.750000
  0
LINE
  8
0
 10
174.083328
 20
-148.750000
 11
174.083328
 21
-156.750031
  0
LINE
  8
0
 10
172.083328
 20
-148.750000
 11
172.083328
 21
-185.250000
  0
LINE
  8
0
 10
272.083313
 20
-195.750000
 11
272.083313
 21
-203.750031
  0
LINE
  8
0
 10
270.083313
 20
-195.750000
 11
270.083313
 21
-203.750031
  0
LINE
  8
0
 10
261.083313
 20
-194.750000
 11
261.083313
 21
-185.250000
  0
LINE
  8
0
 10
183.083328
 20
-194.750000
 11
183.083328
 21
-185.250000
  0
LINE
  8
0
 10
261.083313
 20
-185.250000
 11
282.083313
 21
-185.250000
  0
LINE
  8
0
 10
282.083313
 20
-185.250000
 11
282.083313
 21
-156.750031
  0
LINE
  8
0
 10
162.083313
 20
-185.250000
 11
162.083313
 21
-156.750031
  0
LINE
  8
0
 10
192.140396
 20
-190.383118
 11
194.026199
 21
-190.383118
  0
LINE
  8
0
 10
192.140396
 20
-187.116882
 11
194.026199
 21
-187.116882
  0
LINE
  8
0
 10
192.140442
 20
-190.383179
 11
191.197540
 21
-188.750031
  0
LINE
  8
0
 10
194.969055
 20
-188.750107
 11
194.026169
 21
-187.116974
  0
LINE
  8
0
 10
191.197510
 20
-188.749985
 11
192.140411
 21
-187.116837
  0
LINE
  8
0
 10
194.026199
 20
-190.383270
 11
194.969101
 21
-188.750122
  0
LINE
  8
0
 10
188.283279
 20
-191.521301
 11
188.283279
 21
-185.978760
  0
LINE
  8
0
 10
197.883286
 20
-191.521301
 11
197.883286
 21
-185.978760
  0
LINE
  8
0
 10
188.283310
 20
-191.521317
 11
193.083328
 21
-194.292603
  0
LINE
  8
0
 10
193.083359
 20
-183.207458
 11
197.883362
 21
-185.978745
  0
LINE
  8
0
 10
193.083344
 20
-194.292587
 11
197.883316
 21
-191.521317
  0
LINE
  8
0
 10
188.283264
 20
-185.978745
 11
193.083282
 21
-183.207458
  0
LINE
  8
0
 10
183.083328
 20
-185.250000
 11
162.083313
 21
-185.250000
  0
LINE
  8
0
  6
CENTER
 62
     2
 10
167.083328
 20
-191.959686
 11
167.083328
 21
-179.028290
  0
LINE
  8
0
 10
171.083252
 20
-172.559372
 11
167.083252
 21
-174.868774
  0
LINE
  8
0
 10
167.083267
 20
-165.631134
 11
163.083267
 21
-167.940536
  0
LINE
  8
0
 10
163.083313
 20
-172.559448
 11
163.083313
 21
-167.940613
  0
LINE
  8
0
 10
171.083328
 20
-172.559448
 11
171.083328
 21
-167.940674
  0
LINE
  8
0
 10
167.083359
 20
-174.868835
 11
163.083359
 21
-172.559418
  0
LINE
  8
0
 10
171.083374
 20
-167.940689
 11
167.083359
 21
-165.631287
  0
LINE
  8
0
 10
162.183319
 20
-170.250061
 11
162.183319
 21
-154.750061
  0
LINE
  8
0
 10
162.083313
 20
-150.250031
 11
172.083328
 21
-150.250031
  0
LINE
  8
0
 10
162.083313
 20
-151.850037
 11
172.083328
 21
-151.850037
  0
LINE
  8
0
 10
163.683319
 20
-166.721619
 11
163.683319
 21
-164.250061
  0
LINE
  8
0
 10
162.183319
 20
-162.750031
 11
171.983292
 21
-162.750031
  0
LINE
  8
0
 10
163.683319
 20
-164.250031
 11
170.483292
 21
-164.250031
  0
LINE
  8
0
 10
162.183319
 20
-154.750031
 11
171.983292
 21
-154.750031
  0
LINE
  8
0
 10
162.333313
 20
-153.150024
 11
171.833328
 21
-153.150024
  0
LINE
  8
0
 10
162.083313
 20
-151.850037
 11
162.083313
 21
-150.250061
  0
LINE
  8
0
 10
162.333313
 20
-154.750061
 11
162.333313
 21
-153.150024
  0
LINE
  8
0
 10
172.083328
 20
-151.850037
 11
172.083328
 21
-150.250061
  0
LINE
  8
0
 10
171.833328
 20
-154.750061
 11
171.833328
 21
-151.850037
  0
LINE
  8
0
 10
171.983292
 20
-170.250061
 11
171.983292
 21
-154.750061
  0
LINE
  8
0
 10
170.483292
 20
-166.721619
 11
170.483292
 21
-164.250061
  0
LINE
  8
0
 10
163.833313
 20
-153.150024
 11
163.833313
 21
-151.850037
  0
LINE
  8
0
 10
170.333328
 20
-153.150024
 11
170.333328
 21
-151.850037
  0
LINE
  8
0
 10
162.183105
 20
-162.750275
 11
163.683136
 21
-164.250305
  0
LINE
  8
0
 10
171.983215
 20
-162.749847
 11
170.483231
 21
-164.249832
  0
LINE
  8
0
 10
138.383316
 20
-175.250031
 11
162.183319
 21
-175.250031
  0
LINE
  8
0
 62
     2
 10
137.583328
 20
-174.450043
 11
162.183319
 21
-174.450043
  0
LINE
  8
0
 62
     2
 10
137.583328
 20
-166.050049
 11
162.183319
 21
-166.050049
  0
LINE
  8
0
 10
138.383316
 20
-165.250031
 11
162.183319
 21
-165.250031
  0
LINE
  8
0
 10
133.583328
 20
-166.250031
 11
133.583328
 21
-174.250031
  0
LINE
  8
0
 10
138.383011
 20
-175.250519
 11
137.583038
 21
-174.450531
  0
LINE
  8
0
 10
137.583328
 20
-166.050049
 11
137.583328
 21
-174.450073
  0
LINE
  8
0
 10
138.383316
 20
-165.250061
 11
138.383316
 21
-175.250061
  0
LINE
  8
0
 10
137.583466
 20
-166.050339
 11
138.383469
 21
-165.250336
  0
LINE
  8
0
 10
134.583328
 20
-174.250031
 11
134.583328
 21
-166.250031
  0
LINE
  8
0
 10
137.583328
 20
-174.250031
 11
133.583328
 21
-174.250031
  0
LINE
  8
0
 10
137.583328
 20
-166.250031
 11
133.583328
 21
-166.250031
  0
LINE
  8
0
  6
CENTER
 62
     2
 10
167.083328
 20
-176.479767
 11
167.083328
 21
-146.366760
  0
LINE
  8
0
  6
CENTER
 62
     2
 10
179.583328
 20
-146.282166
 11
179.583328
 21
-158.960617
  0
LINE
  8
0
  6
CENTER
 62
     2
 10
179.583328
 20
-205.910538
 11
179.583328
 21
-193.826385
  0
LINE
  8
0
  6
CENTER
 62
     2
 10
189.583328
 20
-205.910538
 11
189.583328
 21
-193.826385
  0
LINE
  8
0
  6
CENTER
 62
     2
 10
264.583313
 20
-146.282166
 11
264.583313
 21
-158.960617
  0
LINE
  8
0
  6
CENTER
 62
     2
 10
264.583313
 20
-205.910538
 11
264.583313
 21
-193.826385
  0
LINE
  8
0
  6
CENTER
 62
     2
 10
254.583328
 20
-205.910538
 11
254.583328
 21
-193.826385
  0
LINE
  8
0
 10
-31.916710
 20
29.250000
 11
-25.916710
 21
29.250000
  0
LINE
  8
0
  6
CENTER
 62
     2
 10
-4.831627
 20
1.250000
 11
-63.245842
 21
1.250000
  0
LINE
  8
0
 10
-7.416679
 20
-48.749985
 11
-8.916679
 21
-48.749985
  0
LINE
  8
0
 10
-54.416710
 20
51.250000
 11
-62.416710
 21
51.250000
  0
LINE
  8
0
 10
-54.416679
 20
-48.749985
 11
-62.416679
 21
-48.749985
  0
LINE
  8
0
 10
-7.416672
 20
51.250031
 11
-7.416672
 21
33.750031
  0
LINE
  8
0
 10
-7.416710
 20
51.250000
 11
-14.916710
 21
51.250000
  0
LINE
  8
0
 10
-50.416679
 20
-54.530487
 11
-50.416679
 21
-42.749969
  0
LINE
  8
0
 62
     2
 10
-49.616661
 20
-54.530487
 11
-49.616661
 21
-42.749969
  0
LINE
  8
0
 10
-44.416679
 20
-54.530472
 11
-44.416679
 21
-42.749969
  0
LINE
  8
0
 62
     2
 10
-45.216667
 20
-54.530472
 11
-45.216667
 21
-42.749969
  0
LINE
  8
0
 10
-36.416679
 20
43.480682
 11
-36.416679
 21
41.750031
  0
LINE
  8
0
 10
-33.433411
 20
44.449909
 11
-36.416679
 21
43.480576
  0
LINE
  8
0
 10
-33.433327
 20
44.450012
 11
-24.399956
 21
44.450012
  0
LINE
  8
0
 10
-31.916679
 20
44.450012
 11
-31.916679
 21
41.750031
  0
LINE
  8
0
 10
-24.399916
 20
44.449928
 11
-21.416666
 21
43.480629
  0
LINE
  8
0
 10
-21.416679
 20
43.480682
 11
-21.416679
 21
41.750031
  0
LINE
  8
0
 10
-53.416679
 20
-38.749985
 11
-43.416679
 21
-38.749985
  0
LINE
  8
0
 10
-50.416679
 20
-54.530487
 11
-44.416679
 21
-54.530487
  0
LINE
  8
0
 10
-53.416710
 20
40.250000
 11
-43.916710
 21
40.250000
  0
LINE
  8
0
 10
-52.416679
 20
-42.749985
 11
-42.416664
 21
-42.749985
  0
LINE
  8
0
 10
-53.190216
 20
-42.303467
 11
-52.416733
 21
-42.750027
  0
LINE
  8
0
 10
-53.190178
 20
-38.749969
 11
-53.190178
 21
-42.303406
  0
LINE
  8
0
 10
-50.303429
 20
-38.749969
 11
-50.303429
 21
-42.303406
  0
LINE
  8
0
 10
-41.643177
 20
-42.303333
 11
-42.416672
 21
-42.749912
  0
LINE
  8
0
 10
-41.643181
 20
-39.249969
 11
-41.643181
 21
-42.303391
  0
LINE
  8
0
 10
-44.529930
 20
-38.749969
 11
-44.529930
 21
-42.303391
  0
LINE
  8
0
  6
CENTER
 62
     2
 10
-28.916679
 20
55.017448
 11
-28.916679
 21
-68.899971
  0
LINE
  8
0
 10
-53.416679
 20
-22.749985
 11
-54.416679
 21
-22.749985
  0
LINE
  8
0
 62
     2
 10
-35.524345
 20
1.250000
 11
-44.389900
 21
1.250000
  0
LINE
  8
0
 62
     2
 10
-13.524345
 20
1.250000
 11
-22.389900
 21
1.250000
  0
LINE
  8
0
 10
-43.029930
 20
-39.249985
 11
-14.916679
 21
-39.249985
  0
LINE
  8
0
 10
-42.916695
 20
41.750000
 11
-14.916725
 21
41.750000
  0
LINE
  8
0
 10
-14.916679
 20
-39.249969
 11
-14.916679
 21
-41.449951
  0
LINE
  8
0
 10
-14.916679
 20
41.750031
 11
-14.916679
 21
51.250031
  0
LINE
  8
0
 10
-28.916637
 20
17.012419
 11
-20.916651
 21
21.631226
  0
LINE
  8
0
 10
-36.916611
 20
30.868786
 11
-28.916607
 21
35.487591
  0
LINE
  8
0
 10
-28.916689
 20
35.487701
 11
-20.916691
 21
30.868898
  0
LINE
  8
0
 10
-36.916664
 20
21.631369
 11
-28.916666
 21
17.012566
  0
LINE
  8
0
 10
-36.916679
 20
21.631226
 11
-36.916679
 21
30.868835
  0
LINE
  8
0
 10
-20.916679
 20
21.631226
 11
-20.916679
 21
30.868835
  0
LINE
  8
0
 10
-13.916679
 20
40.750031
 11
-13.916679
 21
-38.249969
  0
LINE
  8
0
 10
-31.916710
 20
23.250000
 11
-25.916710
 21
23.250000
  0
LINE
  8
0
 10
-43.916676
 20
40.750019
 11
-42.916672
 21
41.750019
  0
LINE
  8
0
 10
-14.916737
 20
41.749996
 11
-13.916736
 21
40.749996
  0
LINE
  8
0
 10
-42.916618
 20
-39.249878
 11
-43.916618
 21
-38.249874
  0
LINE
  8
0
 10
-14.916698
 20
-39.249950
 11
-13.916698
 21
-38.249950
  0
LINE
  8
0
 10
-53.416710
 20
25.250000
 11
-54.416710
 21
25.250000
  0
LINE
  8
0
 10
-8.416672
 20
32.750031
 11
-8.416672
 21
-30.249969
  0
LINE
  8
0
 10
-8.416688
 20
32.750027
 11
-7.416687
 21
33.750031
  0
LINE
  8
0
 10
-8.416717
 20
-30.250017
 11
-7.416706
 21
-31.250019
  0
LINE
  8
0
 10
-7.916672
 20
21.250031
 11
-7.916672
 21
-18.749969
  0
LINE
  8
0
 10
-7.916710
 20
21.250000
 11
-8.416710
 21
21.250000
  0
LINE
  8
0
 10
-7.916679
 20
-18.750000
 11
-8.416679
 21
-18.750000
  0
LINE
  8
0
 10
-54.416679
 20
-46.749985
 11
-62.416679
 21
-46.749985
  0
LINE
  8
0
 10
-7.416679
 20
-46.749985
 11
-8.916679
 21
-46.749985
  0
LINE
  8
0
 10
-7.416710
 20
49.250000
 11
-14.916710
 21
49.250000
  0
LINE
  8
0
 10
-54.416710
 20
49.250000
 11
-62.416710
 21
49.250000
  0
LINE
  8
0
 10
-24.016685
 20
-50.349945
 11
-24.016685
 21
-49.749969
  0
LINE
  8
0
 10
-33.816673
 20
-50.349945
 11
-33.816673
 21
-41.349945
  0
LINE
  8
0
 10
-33.816673
 20
-41.349960
 11
-24.016685
 21
-41.349960
  0
LINE
  8
0
 10
-33.816673
 20
-50.349960
 11
-24.016685
 21
-50.349960
  0
LINE
  8
0
 10
-28.916679
 20
-47.049973
 11
-21.416679
 21
-47.049973
  0
LINE
  8
0
 10
-28.916679
 20
-45.649979
 11
-21.416679
 21
-45.649979
  0
LINE
  8
0
 10
-24.016802
 20
-49.750050
 11
-25.316816
 21
-47.050045
  0
LINE
  8
0
 10
-24.016796
 20
-42.949810
 11
-25.316816
 21
-45.649845
  0
LINE
  8
0
 10
-24.016685
 20
-42.949951
 11
-24.016685
 21
-41.349945
  0
LINE
  8
0
 10
-21.416679
 20
-51.249985
 11
-13.416679
 21
-51.249985
  0
LINE
  8
0
 10
-8.916672
 20
-51.349945
 11
-8.916672
 21
-41.349945
  0
LINE
  8
0
 10
-10.516678
 20
-51.349945
 11
-10.516678
 21
-41.349945
  0
LINE
  8
0
 10
-24.016685
 20
-49.749985
 11
-22.916679
 21
-49.749985
  0
LINE
  8
0
 10
-21.416679
 20
-51.249969
 11
-21.416679
 21
-41.449951
  0
LINE
  8
0
 10
-22.916679
 20
-49.749969
 11
-22.916679
 21
-47.049957
  0
LINE
  8
0
 10
-13.416664
 20
-51.249969
 11
-13.416664
 21
-41.449951
  0
LINE
  8
0
 10
-11.816666
 20
-51.099945
 11
-11.816666
 21
-41.599945
  0
LINE
  8
0
 10
-10.516685
 20
-51.349960
 11
-8.916679
 21
-51.349960
  0
LINE
  8
0
 10
-13.416679
 20
-51.099960
 11
-11.816673
 21
-51.099960
  0
LINE
  8
0
 10
-10.516685
 20
-41.349960
 11
-8.916679
 21
-41.349960
  0
LINE
  8
0
 10
-13.416679
 20
-41.599960
 11
-11.816673
 21
-41.599960
  0
LINE
  8
0
 10
-21.416679
 20
-41.449966
 11
-13.416679
 21
-41.449966
  0
LINE
  8
0
 10
-24.016685
 20
-42.949966
 11
-22.916679
 21
-42.949966
  0
LINE
  8
0
 10
-11.816673
 20
-49.599960
 11
-10.516685
 21
-49.599960
  0
LINE
  8
0
 10
-11.816673
 20
-43.099960
 11
-10.516685
 21
-43.099960
  0
LINE
  8
0
 10
-22.916679
 20
-45.649963
 11
-22.916679
 21
-42.949951
  0
LINE
  8
0
 10
-21.416718
 20
-51.250034
 11
-22.916702
 21
-49.750038
  0
LINE
  8
0
 10
-21.416655
 20
-41.450043
 11
-22.916676
 21
-42.950050
  0
LINE
  8
0
 10
-32.816673
 20
-39.849960
 11
-25.016685
 21
-39.849960
  0
LINE
  8
0
 10
-25.666679
 20
-41.349945
 11
-25.666679
 21
-39.849945
  0
LINE
  8
0
 10
-32.166679
 20
-41.349945
 11
-32.166679
 21
-39.849945
  0
LINE
  8
0
 10
-25.016685
 20
-39.849945
 11
-25.016685
 21
-39.249969
  0
LINE
  8
0
 10
-32.816673
 20
-39.849945
 11
-32.816673
 21
-39.249969
  0
LINE
  8
0
 10
-30.916679
 20
-67.249962
 11
-26.916679
 21
-67.249962
  0
LINE
  8
0
 10
-26.416679
 20
-66.749947
 11
-26.416679
 21
-63.749947
  0
LINE
  8
0
 10
-31.416679
 20
-66.749947
 11
-31.416679
 21
-63.749947
  0
LINE
  8
0
 10
-26.416605
 20
-66.750000
 11
-26.916584
 21
-67.249977
  0
LINE
  8
0
 10
-30.916704
 20
-67.250008
 11
-31.416691
 21
-66.750008
  0
LINE
  8
0
 10
-30.916679
 20
-63.249962
 11
-26.916679
 21
-63.249962
  0
LINE
  8
0
 10
-31.416719
 20
-63.749908
 11
-30.916697
 21
-63.249886
  0
LINE
  8
0
 10
-26.916693
 20
-63.249931
 11
-26.416693
 21
-63.749931
  0
LINE
  8
0
 10
-31.416679
 20
-66.749962
 11
-26.416679
 21
-66.749962
  0
LINE
  8
0
 10
-31.416679
 20
-63.749962
 11
-26.416679
 21
-63.749962
  0
LINE
  8
0
 62
     2
 10
-28.416679
 20
-66.749947
 11
-28.416679
 21
-63.749947
  0
LINE
  8
0
 10
-32.380791
 20
-54.349960
 11
-25.452568
 21
-54.349960
  0
LINE
  8
0
 10
-32.416679
 20
-55.149948
 11
-25.416679
 21
-55.149948
  0
LINE
  8
0
 10
-32.416679
 20
-57.649948
 11
-25.416679
 21
-57.649948
  0
LINE
  8
0
 10
-24.916679
 20
-57.149933
 11
-24.916679
 21
-55.649933
  0
LINE
  8
0
 10
-32.916679
 20
-57.149933
 11
-32.916679
 21
-55.649933
  0
LINE
  8
0
 10
-24.916643
 20
-57.149967
 11
-25.416624
 21
-57.649963
  0
LINE
  8
0
 10
-32.416672
 20
-57.649975
 11
-32.916672
 21
-57.149994
  0
LINE
  8
0
 10
-32.916668
 20
-55.650021
 11
-32.416649
 21
-55.150017
  0
LINE
  8
0
 10
-25.416706
 20
-55.149967
 11
-24.916693
 21
-55.649967
  0
LINE
  8
0
 62
     2
 10
-25.916679
 20
-57.149933
 11
-25.916679
 21
-55.649933
  0
LINE
  8
0
 62
     2
 10
-26.916679
 20
-57.149933
 11
-26.916679
 21
-55.649933
  0
LINE
  8
0
 62
     2
 10
-27.916679
 20
-57.149933
 11
-27.916679
 21
-55.649933
  0
LINE
  8
0
 10
-32.916679
 20
-57.149948
 11
-24.916679
 21
-57.149948
  0
LINE
  8
0
 10
-32.916679
 20
-55.649948
 11
-24.916679
 21
-55.649948
  0
LINE
  8
0
 10
-24.297874
 20
-53.992706
 11
-24.297874
 21
-50.349945
  0
LINE
  8
0
 10
-26.607292
 20
-53.992706
 11
-26.607292
 21
-50.349945
  0
LINE
  8
0
 10
-31.226097
 20
-53.992706
 11
-31.226097
 21
-50.349945
  0
LINE
  8
0
 10
-33.535484
 20
-53.992706
 11
-33.535484
 21
-50.349945
  0
LINE
  8
0
 10
-26.416679
 20
-55.149933
 11
-26.416679
 21
-54.349945
  0
LINE
  8
0
 10
-31.416679
 20
-55.149933
 11
-31.416679
 21
-54.349945
  0
LINE
  8
0
 10
-30.416679
 20
-63.249947
 11
-30.416679
 21
-57.649948
  0
LINE
  8
0
 10
-27.416679
 20
-63.249947
 11
-27.416679
 21
-57.649948
  0
LINE
  8
0
 62
     2
 10
-27.687187
 20
-63.249947
 11
-27.687187
 21
-57.649948
  0
LINE
  8
0
 62
     2
 10
-30.146172
 20
-63.249947
 11
-30.146172
 21
-57.649948
  0
LINE
  8
0
 62
     2
 10
-27.416679
 20
-66.749947
 11
-27.416679
 21
-63.749947
  0
LINE
  8
0
 10
-62.416679
 20
51.250031
 11
-62.416679
 21
-48.749969
  0
LINE
  8
0
 10
-54.416679
 20
51.250031
 11
-54.416679
 21
-48.749969
  0
LINE
  8
0
 10
-53.416679
 20
40.250031
 11
-53.416679
 21
-38.749969
  0
LINE
  8
0
 10
-43.916679
 20
40.750031
 11
-43.916679
 21
-38.249969
  0
LINE
  8
0
 10
-7.416672
 20
-48.749969
 11
-7.416672
 21
-31.249969
  0
LINE
  8
0
  6
CENTER
 62
     2
 10
-51.628738
 20
43.750000
 11
-65.034668
 21
43.750000
  0
LINE
  8
0
  6
CENTER
 62
     2
 10
-51.628738
 20
33.750000
 11
-65.034668
 21
33.750000
  0
LINE
  8
0
  6
CENTER
 62
     2
 10
-51.628738
 20
-41.250000
 11
-65.034668
 21
-41.250000
  0
LINE
  8
0
  6
CENTER
 62
     2
 10
-51.628738
 20
-31.250000
 11
-65.034668
 21
-31.250000
  0
LINE
  8
0
  6
CENTER
 62
     2
 10
-18.204613
 20
-41.250000
 11
-4.798687
 21
-41.250000
  0
LINE
  8
0
  6
CENTER
 62
     2
 10
-18.204613
 20
43.750000
 11
-4.798687
 21
43.750000
  0
LINE
  8
0
 10
-197.916702
 20
49.250031
 11
-197.916702
 21
-46.749969
  0
LINE
  8
0
 10
-297.916687
 20
49.250000
 11
-297.916687
 21
-46.749985
  0
LINE
  8
0
 10
-295.916748
 20
51.250000
 11
-199.916733
 21
51.250000
  0
LINE
  8
0
 10
-187.916702
 20
41.750031
 11
-187.916702
 21
-39.249969
  0
LINE
  8
0
 10
-307.916687
 20
41.750000
 11
-307.916687
 21
-39.249985
  0
LINE
  8
0
 10
-184.916672
 20
31.750031
 11
-184.916672
 21
17.750000
  0
LINE
  8
0
 10
-187.291504
 20
28.791443
 11
-185.541916
 21
28.791443
  0
LINE
  8
0
 10
-187.291504
 20
32.832886
 11
-185.541916
 21
32.832886
  0
LINE
  8
0
 10
-185.541733
 20
32.833019
 11
-184.916519
 21
31.750120
  0
LINE
  8
0
 10
-187.291504
 20
16.667114
 11
-185.541916
 21
16.667114
  0
LINE
  8
0
 10
-187.291519
 20
20.708557
 11
-185.541916
 21
20.708557
  0
LINE
  8
0
 10
-185.541916
 20
16.667084
 11
-184.916702
 21
17.749989
  0
LINE
  8
0
 10
-295.916748
 20
-48.749985
 11
-199.916702
 21
-48.749985
  0
LINE
  8
0
 10
-273.916687
 20
-54.530487
 11
-273.916687
 21
-48.749985
  0
LINE
  8
0
 62
     2
 10
-274.716675
 20
-54.530487
 11
-274.716675
 21
-48.749985
  0
LINE
  8
0
 10
-279.916687
 20
-54.530487
 11
-279.916687
 21
-48.749985
  0
LINE
  8
0
 62
     2
 10
-279.116699
 20
-54.530487
 11
-279.116699
 21
-48.749985
  0
LINE
  8
0
 10
-273.916687
 20
-54.530487
 11
-279.916687
 21
-54.530487
  0
LINE
  8
0
 10
-213.010620
 20
-12.342346
 11
-224.929749
 21
-7.405270
  0
LINE
  8
0
 10
-213.622940
 20
-13.820580
 11
-225.542099
 21
-8.883508
  0
LINE
  8
0
  6
CENTER
 62
     2
 10
-221.374985
 20
-31.249985
 11
-210.047989
 21
-31.249985
  0
LINE
  8
0
  6
CENTER
 62
     2
 10
-215.416672
 20
-26.027618
 11
-215.416672
 21
-37.568329
  0
LINE
  8
0
  6
CENTER
 62
     2
 10
-205.416687
 20
5.175049
 11
-205.416687
 21
-2.091339
  0
LINE
  8
0
  6
CENTER
 62
     2
 10
-215.416672
 20
5.175049
 11
-215.416672
 21
-2.091339
  0
LINE
  8
0
  6
CENTER
 62
     2
 10
-211.757767
 20
43.750000
 11
-198.721024
 21
43.750000
  0
LINE
  8
0
  6
CENTER
 62
     2
 10
-205.416687
 20
36.648895
 11
-205.416687
 21
50.326782
  0
LINE
  8
0
  6
CENTER
 62
     2
 10
-215.416672
 20
28.527649
 11
-215.416672
 21
40.068359
  0
LINE
  8
0
  6
CENTER
 62
     2
 10
-221.375015
 20
33.750000
 11
-210.048019
 21
33.750000
  0
LINE
  8
0
 10
-187.291458
 20
16.667154
 11
-187.916656
 21
17.750011
  0
LINE
  8
0
 10
-187.291458
 20
32.832886
 11
-187.916641
 21
31.750006
  0
LINE
  8
0
 10
-310.916687
 20
31.750000
 11
-310.916687
 21
17.750000
  0
LINE
  8
0
 10
-308.541931
 20
28.791443
 11
-310.291504
 21
28.791443
  0
LINE
  8
0
 10
-308.541931
 20
32.832886
 11
-310.291504
 21
32.832886
  0
LINE
  8
0
 10
-310.291412
 20
32.832905
 11
-310.916626
 21
31.750021
  0
LINE
  8
0
 10
-308.541931
 20
16.667114
 11
-310.291565
 21
16.667114
  0
LINE
  8
0
 10
-308.541931
 20
20.708557
 11
-310.291565
 21
20.708557
  0
LINE
  8
0
 10
-310.291412
 20
16.667126
 11
-310.916656
 21
17.750011
  0
LINE
  8
0
 10
-308.541901
 20
16.667051
 11
-307.916687
 21
17.749969
  0
LINE
  8
0
 10
-308.541870
 20
32.832893
 11
-307.916687
 21
31.750078
  0
LINE
  8
0
  6
CENTER
 62
     2
 10
-247.916672
 20
54.651794
 11
-247.916672
 21
-51.265030
  0
LINE
  8
0
 10
-297.916748
 20
41.750000
 11
-307.916748
 21
41.750000
  0
LINE
  8
0
 10
-197.916733
 20
41.750000
 11
-187.916733
 21
41.750000
  0
LINE
  8
0
 10
-197.916702
 20
-39.249985
 11
-187.916702
 21
-39.249985
  0
LINE
  8
0
 10
-297.916687
 20
-39.249985
 11
-307.916687
 21
-39.249985
  0
LINE
  8
0
 10
-297.916687
 20
-38.249985
 11
-307.916687
 21
-38.249985
  0
LINE
  8
0
 10
-297.916748
 20
40.750000
 11
-307.916748
 21
40.750000
  0
LINE
  8
0
  6
CENTER
 62
     2
 10
-312.251892
 20
1.250000
 11
-184.795486
 21
1.250000
  0
LINE
  8
0
 10
-197.916702
 20
-38.249985
 11
-187.916702
 21
-38.249985
  0
LINE
  8
0
 10
-197.916733
 20
40.750000
 11
-187.916733
 21
40.750000
  0
LINE
  8
0
  6
CENTER
 62
     2
 10
-211.757736
 20
-41.249985
 11
-198.720993
 21
-41.249985
  0
LINE
  8
0
  6
CENTER
 62
     2
 10
-205.416687
 20
-34.148834
 11
-205.416687
 21
-47.826721
  0
LINE
  8
0
 10
-197.916748
 20
49.249928
 11
-199.916748
 21
51.249931
  0
LINE
  8
0
 10
-295.916626
 20
51.249996
 11
-297.916687
 21
49.249962
  0
LINE
  8
0
 10
-295.916687
 20
-48.750004
 11
-297.916687
 21
-46.750000
  0
LINE
  8
0
 10
-197.916672
 20
-46.749973
 11
-199.916687
 21
-48.749989
  0
LINE
  8
0
 10
-190.916641
 20
-67.750008
 11
-194.916641
 21
-67.750008
  0
LINE
  8
0
 10
-195.416702
 20
-67.250038
 11
-195.416702
 21
-64.250038
  0
LINE
  8
0
 10
-190.416702
 20
-67.250038
 11
-190.416702
 21
-64.250038
  0
LINE
  8
0
 10
-195.416595
 20
-67.250092
 11
-194.916611
 21
-67.750084
  0
LINE
  8
0
 10
-190.916855
 20
-67.749725
 11
-190.416855
 21
-67.249741
  0
LINE
  8
0
 10
-190.916641
 20
-63.750008
 11
-194.916641
 21
-63.750008
  0
LINE
  8
0
 10
-190.416473
 20
-64.249886
 11
-190.916458
 21
-63.749893
  0
LINE
  8
0
 10
-194.916824
 20
-63.749878
 11
-195.416824
 21
-64.249878
  0
LINE
  8
0
 10
-190.416641
 20
-67.250008
 11
-195.416641
 21
-67.250008
  0
LINE
  8
0
 10
-190.416641
 20
-64.250008
 11
-195.416641
 21
-64.250008
  0
LINE
  8
0
 62
     2
 10
-192.416702
 20
-67.250038
 11
-192.416702
 21
-64.250038
  0
LINE
  8
0
 10
-189.016678
 20
-40.349991
 11
-196.816666
 21
-40.349991
  0
LINE
  8
0
 10
-188.916641
 20
-54.850006
 11
-196.916641
 21
-54.850006
  0
LINE
  8
0
 10
-189.416641
 20
-55.649994
 11
-196.416641
 21
-55.649994
  0
LINE
  8
0
 10
-189.416641
 20
-58.149994
 11
-196.416641
 21
-58.149994
  0
LINE
  8
0
 10
-196.916702
 20
-57.650024
 11
-196.916702
 21
-56.150024
  0
LINE
  8
0
 10
-188.916702
 20
-57.650024
 11
-188.916702
 21
-56.150024
  0
LINE
  8
0
 10
-196.916489
 20
-57.649857
 11
-196.416473
 21
-58.149849
  0
LINE
  8
0
 10
-189.416824
 20
-58.149887
 11
-188.916824
 21
-57.649876
  0
LINE
  8
0
 10
-188.916718
 20
-56.150101
 11
-189.416718
 21
-55.650089
  0
LINE
  8
0
 10
-196.416885
 20
-55.649780
 11
-196.916916
 21
-56.149815
  0
LINE
  8
0
 62
     2
 10
-189.916702
 20
-57.650024
 11
-189.916702
 21
-56.150024
  0
LINE
  8
0
 62
     2
 10
-190.916702
 20
-57.650024
 11
-190.916702
 21
-56.150024
  0
LINE
  8
0
 62
     2
 10
-191.916702
 20
-57.650024
 11
-191.916702
 21
-56.150024
  0
LINE
  8
0
 10
-188.916641
 20
-57.649994
 11
-196.916641
 21
-57.649994
  0
LINE
  8
0
 10
-188.916641
 20
-56.149994
 11
-196.916641
 21
-56.149994
  0
LINE
  8
0
 10
-195.416702
 20
-55.650024
 11
-195.416702
 21
-54.850037
  0
LINE
  8
0
 10
-190.416702
 20
-55.650024
 11
-190.416702
 21
-54.850037
  0
LINE
  8
0
 10
-191.416702
 20
-63.750038
 11
-191.416702
 21
-58.149994
  0
LINE
  8
0
 10
-194.416702
 20
-63.750038
 11
-194.416702
 21
-58.149994
  0
LINE
  8
0
 62
     2
 10
-194.146194
 20
-63.750038
 11
-194.146194
 21
-58.149994
  0
LINE
  8
0
 62
     2
 10
-191.687210
 20
-63.750038
 11
-191.687210
 21
-58.149994
  0
LINE
  8
0
 62
     2
 10
-191.416702
 20
-67.250038
 11
-191.416702
 21
-64.250038
  0
LINE
  8
0
 10
-196.166702
 20
-41.850037
 11
-196.166702
 21
-40.350037
  0
LINE
  8
0
 10
-189.666702
 20
-41.850037
 11
-189.666702
 21
-40.350037
  0
LINE
  8
0
 10
-196.816696
 20
-40.350037
 11
-196.816696
 21
-39.249969
  0
LINE
  8
0
 10
-189.016708
 20
-40.350037
 11
-189.016708
 21
-39.249969
  0
LINE
  8
0
 10
-197.816696
 20
-50.850006
 11
-197.816696
 21
-47.845032
  0
LINE
  8
0
 10
-188.016678
 20
-50.849991
 11
-197.916702
 21
-50.849991
  0
LINE
  8
0
 10
-188.016678
 20
-41.849991
 11
-197.816666
 21
-41.849991
  0
LINE
  8
0
 10
-196.916702
 20
-54.850006
 11
-196.916702
 21
-50.850037
  0
LINE
  8
0
 10
-188.916702
 20
-54.850037
 11
-188.916702
 21
-50.850037
  0
LINE
  8
0
 10
-192.916702
 20
-54.492798
 11
-192.916702
 21
-51.850037
  0
LINE
  8
0
 10
-188.016708
 20
-50.849976
 11
-188.016708
 21
-41.850037
  0
LINE
  8
0
 10
-300.916687
 20
-67.750008
 11
-304.916687
 21
-67.750008
  0
LINE
  8
0
 10
-305.416687
 20
-67.250023
 11
-305.416687
 21
-64.250023
  0
LINE
  8
0
 10
-300.416687
 20
-67.250023
 11
-300.416687
 21
-64.250023
  0
LINE
  8
0
 10
-305.416626
 20
-67.250053
 11
-304.916626
 21
-67.750053
  0
LINE
  8
0
 10
-300.916840
 20
-67.749802
 11
-300.416840
 21
-67.249802
  0
LINE
  8
0
 10
-300.916687
 20
-63.750008
 11
-304.916687
 21
-63.750008
  0
LINE
  8
0
 10
-300.416504
 20
-64.249893
 11
-300.916473
 21
-63.749889
  0
LINE
  8
0
 10
-304.916748
 20
-63.749912
 11
-305.416748
 21
-64.249901
  0
LINE
  8
0
 10
-300.416687
 20
-67.250008
 11
-305.416687
 21
-67.250008
  0
LINE
  8
0
 10
-300.416687
 20
-64.250008
 11
-305.416687
 21
-64.250008
  0
LINE
  8
0
 62
     2
 10
-302.416687
 20
-67.250023
 11
-302.416687
 21
-64.250023
  0
LINE
  8
0
 10
-299.016663
 20
-40.349991
 11
-306.816650
 21
-40.349991
  0
LINE
  8
0
 10
-298.916687
 20
-54.850006
 11
-306.916687
 21
-54.850006
  0
LINE
  8
0
 10
-299.416687
 20
-55.649994
 11
-306.416687
 21
-55.649994
  0
LINE
  8
0
 10
-299.416687
 20
-58.149994
 11
-306.416687
 21
-58.149994
  0
LINE
  8
0
 10
-306.916687
 20
-57.650024
 11
-306.916687
 21
-56.150024
  0
LINE
  8
0
 10
-298.916687
 20
-57.650024
 11
-298.916687
 21
-56.150024
  0
LINE
  8
0
 10
-306.916534
 20
-57.649876
 11
-306.416534
 21
-58.149895
  0
LINE
  8
0
 10
-299.416809
 20
-58.149864
 11
-298.916840
 21
-57.649876
  0
LINE
  8
0
 10
-298.916718
 20
-56.150017
 11
-299.416687
 21
-55.650009
  0
LINE
  8
0
 10
-306.416840
 20
-55.649788
 11
-306.916870
 21
-56.149818
  0
LINE
  8
0
 62
     2
 10
-299.916687
 20
-57.650024
 11
-299.916687
 21
-56.150024
  0
LINE
  8
0
 62
     2
 10
-300.916687
 20
-57.650024
 11
-300.916687
 21
-56.150024
  0
LINE
  8
0
 62
     2
 10
-301.916687
 20
-57.650024
 11
-301.916687
 21
-56.150024
  0
LINE
  8
0
 10
-298.916687
 20
-57.649994
 11
-306.916687
 21
-57.649994
  0
LINE
  8
0
 10
-298.916687
 20
-56.149994
 11
-306.916687
 21
-56.149994
  0
LINE
  8
0
 10
-305.416687
 20
-55.650024
 11
-305.416687
 21
-54.850037
  0
LINE
  8
0
 10
-300.416687
 20
-55.650024
 11
-300.416687
 21
-54.850037
  0
LINE
  8
0
 10
-301.416687
 20
-63.750023
 11
-301.416687
 21
-58.149994
  0
LINE
  8
0
 10
-304.416687
 20
-63.750023
 11
-304.416687
 21
-58.149994
  0
LINE
  8
0
 62
     2
 10
-304.146179
 20
-63.750023
 11
-304.146179
 21
-58.149994
  0
LINE
  8
0
 62
     2
 10
-301.687195
 20
-63.750023
 11
-301.687195
 21
-58.149994
  0
LINE
  8
0
 62
     2
 10
-301.416687
 20
-67.250023
 11
-301.416687
 21
-64.250023
  0
LINE
  8
0
 10
-306.166687
 20
-41.850021
 11
-306.166687
 21
-40.350021
  0
LINE
  8
0
 10
-299.666687
 20
-41.850021
 11
-299.666687
 21
-40.350021
  0
LINE
  8
0
 10
-306.816711
 20
-40.350021
 11
-306.816711
 21
-39.249985
  0
LINE
  8
0
 10
-299.016724
 20
-40.350021
 11
-299.016724
 21
-39.249985
  0
LINE
  8
0
 10
-298.016663
 20
-50.849991
 11
-307.816711
 21
-50.849991
  0
LINE
  8
0
 10
-298.016663
 20
-41.849991
 11
-307.816650
 21
-41.849991
  0
LINE
  8
0
 10
-306.916687
 20
-54.850006
 11
-306.916687
 21
-50.850021
  0
LINE
  8
0
 10
-298.916687
 20
-54.850037
 11
-298.916687
 21
-50.850021
  0
LINE
  8
0
 10
-302.916687
 20
-54.492798
 11
-302.916687
 21
-51.850021
  0
LINE
  8
0
 10
-307.816711
 20
-50.849991
 11
-307.816711
 21
-41.849991
  0
LINE
  8
0
 10
-298.016724
 20
-50.849991
 11
-298.016724
 21
-41.850021
  0
LINE
  8
0
  6
CENTER
 62
     2
 10
-290.416687
 20
-2.674988
 11
-290.416687
 21
4.591370
  0
LINE
  8
0
  6
CENTER
 62
     2
 10
-280.416687
 20
-2.674988
 11
-280.416687
 21
4.591370
  0
LINE
  8
0
 62
     2
 10
-274.458435
 20
-31.249985
 11
-285.785400
 21
-31.249985
  0
LINE
  8
0
 62
     2
 10
-280.416687
 20
-26.027618
 11
-280.416687
 21
-37.568329
  0
LINE
  8
0
 62
     2
 10
-290.416687
 20
-34.148849
 11
-290.416687
 21
-47.826736
  0
LINE
  8
0
 62
     2
 10
-284.075684
 20
-41.249985
 11
-297.112427
 21
-41.249985
  0
LINE
  8
0
  6
CENTER
 62
     2
 10
-284.075684
 20
43.750000
 11
-297.112427
 21
43.750000
  0
LINE
  8
0
  6
CENTER
 62
     2
 10
-290.416687
 20
36.648865
 11
-290.416687
 21
50.326782
  0
LINE
  8
0
 62
     2
 10
-274.458435
 20
33.750000
 11
-285.785461
 21
33.750000
  0
LINE
  8
0
 62
     2
 10
-280.416687
 20
28.527649
 11
-280.416687
 21
40.068359
  0
LINE
  8
0
 10
-215.916672
 20
-54.530487
 11
-215.916672
 21
-48.749969
  0
LINE
  8
0
 62
     2
 10
-216.716690
 20
-54.530487
 11
-216.716690
 21
-48.749969
  0
LINE
  8
0
 62
     2
 10
-221.116684
 20
-54.530487
 11
-221.116684
 21
-48.749969
  0
LINE
  8
0
 10
-221.916672
 20
-54.530487
 11
-221.916672
 21
-48.749969
  0
LINE
  8
0
 10
-221.916702
 20
-54.530487
 11
-215.916702
 21
-54.530487
  0
LINE
  8
0
 10
-262.987793
 20
35.543610
 11
-258.050720
 21
23.624466
  0
LINE
  8
0
 10
-261.509552
 20
36.155876
 11
-256.572479
 21
24.236738
  0
LINE
  8
0
  6
CENTER
 62
     2
 10
-284.715393
 20
16.492336
 11
-268.196838
 21
9.650123
  0
LINE
  8
0
  6
CENTER
 62
     2
 10
-263.159424
 20
38.048500
 11
-256.317200
 21
21.529924
  0
LINE
  8
0
  6
CENTER
 62
     2
 10
-232.674408
 20
38.048687
 11
-239.516647
 21
21.530066
  0
LINE
  8
0
  6
CENTER
 62
     2
 10
-211.118179
 20
16.492741
 11
-227.636795
 21
9.650515
  0
LINE
  8
0
  6
CENTER
 62
     2
 10
-211.117981
 20
-13.992136
 11
-227.636566
 21
-7.149915
  0
LINE
  8
0
  6
CENTER
 62
     2
 10
-232.673950
 20
-35.548428
 11
-239.516205
 21
-19.029837
  0
LINE
  8
0
  6
CENTER
 62
     2
 10
-263.159027
 20
-35.548656
 11
-256.316803
 21
-19.030058
  0
LINE
  8
0
  6
CENTER
 62
     2
 10
-284.715240
 20
-13.992661
 11
-268.196655
 21
-7.150440
  0
LINE
  8
0
 10
-197.816696
 20
-50.849976
 11
-197.816696
 21
-41.850006
  0
LINE
  8
0
 10
-164.216400
 20
19.750000
 11
-184.916656
 21
19.750000
  0
LINE
  8
0
 62
     2
 10
-163.416412
 20
20.549988
 11
-184.916656
 21
20.549988
  0
LINE
  8
0
 10
-160.416412
 20
20.549988
 11
-163.416412
 21
20.549988
  0
LINE
  8
0
 62
     2
 10
-163.416412
 20
28.949982
 11
-184.916656
 21
28.949982
  0
LINE
  8
0
 10
-164.216400
 20
29.750000
 11
-184.916656
 21
29.750000
  0
LINE
  8
0
 10
-160.416412
 20
28.949982
 11
-163.416412
 21
28.949982
  0
LINE
  8
0
 10
-164.216217
 20
19.749620
 11
-163.416199
 21
20.549648
  0
LINE
  8
0
 10
-163.416412
 20
28.949982
 11
-163.416412
 21
20.549988
  0
LINE
  8
0
 10
-164.216400
 20
29.750000
 11
-164.216400
 21
19.750000
  0
LINE
  8
0
 10
-163.416443
 20
28.949932
 11
-164.216446
 21
29.749941
  0
LINE
  8
0
 10
-160.416412
 20
20.550058
 11
-159.416443
 21
21.550037
  0
LINE
  8
0
 10
-160.416550
 20
28.949865
 11
-159.416550
 21
27.949863
  0
LINE
  8
0
 10
-163.416412
 20
21.739594
 11
-160.416412
 21
21.739594
  0
LINE
  8
0
 10
-163.416412
 20
27.760376
 11
-160.416412
 21
27.760376
  0
LINE
  8
0
 10
-160.416412
 20
20.549988
 11
-160.416412
 21
21.739594
  0
LINE
  8
0
 10
-160.417023
 20
27.760376
 11
-160.417023
 21
28.949982
  0
LINE
  8
0
 62
     2
 10
-160.416397
 20
21.739666
 11
-163.416397
 21
27.760471
  0
LINE
  8
0
 62
     2
 10
-163.416412
 20
21.739511
 11
-160.416412
 21
27.760332
  0
LINE
  8
0
 10
-159.416534
 20
27.949951
 11
-159.416534
 21
21.550049
  0
LINE
  8
0
 10
-331.616943
 20
19.750000
 11
-310.916687
 21
19.750000
  0
LINE
  8
0
 62
     2
 10
-332.416931
 20
20.549988
 11
-310.916687
 21
20.549988
  0
LINE
  8
0
 10
-335.416931
 20
20.549988
 11
-332.416931
 21
20.549988
  0
LINE
  8
0
 62
     2
 10
-332.416931
 20
28.949982
 11
-310.916687
 21
28.949982
  0
LINE
  8
0
 10
-331.616943
 20
29.750000
 11
-310.916687
 21
29.750000
  0
LINE
  8
0
 10
-335.416931
 20
28.949982
 11
-332.416931
 21
28.949982
  0
LINE
  8
0
 10
-331.617157
 20
19.749706
 11
-332.417175
 21
20.549713
  0
LINE
  8
0
 10
-332.416931
 20
28.949982
 11
-332.416931
 21
20.549988
  0
LINE
  8
0
 10
-331.616943
 20
29.750000
 11
-331.616943
 21
19.750000
  0
LINE
  8
0
 10
-332.416840
 20
28.949831
 11
-331.616821
 21
29.749859
  0
LINE
  8
0
 10
-335.416870
 20
20.550024
 11
-336.416870
 21
21.550026
  0
LINE
  8
0
 10
-335.416779
 20
28.949907
 11
-336.416809
 21
27.949884
  0
LINE
  8
0
 10
-332.416931
 20
21.739594
 11
-335.416931
 21
21.739594
  0
LINE
  8
0
 10
-332.416931
 20
27.760376
 11
-335.416931
 21
27.760376
  0
LINE
  8
0
 10
-335.416931
 20
20.549988
 11
-335.416931
 21
21.739594
  0
LINE
  8
0
 10
-335.416321
 20
27.760376
 11
-335.416321
 21
28.949982
  0
LINE
  8
0
 62
     2
 10
-335.416962
 20
21.739712
 11
-332.416962
 21
27.760504
  0
LINE
  8
0
 62
     2
 10
-332.416809
 20
21.739614
 11
-335.416840
 21
27.760460
  0
LINE
  8
0
 10
-336.416809
 20
27.949951
 11
-336.416809
 21
21.550049
  0
ARC
  8
0
 10
305.552338
 20
24.750031
 40
5.031250
 50
323.248901
 51
36.751144
  0
ARC
  8
0
 10
162.661499
 20
30.812195
 40
3.578195
 50
145.616165
 51
214.383774
  0
ARC
  8
0
 10
172.458267
 20
24.750000
 40
13.374964
 50
162.412262
 51
197.587692
  0
ARC
  8
0
 10
162.661514
 20
18.687836
 40
3.578194
 50
145.616196
 51
214.383774
  0
ARC
  8
0
 10
158.505127
 20
18.687836
 40
3.578193
 50
325.616211
 51
34.383781
  0
ARC
  8
0
 10
148.708359
 20
24.750000
 40
13.374962
 50
342.412292
 51
17.587708
  0
ARC
  8
0
 10
158.505112
 20
30.812195
 40
3.578193
 50
325.616211
 51
34.383781
  0
ARC
  8
0
 10
271.708405
 20
24.750031
 40
13.374962
 50
342.412292
 51
17.587708
  0
ARC
  8
0
 10
281.505157
 20
18.687836
 40
3.578181
 50
325.616089
 51
34.383919
  0
ARC
  8
0
 10
285.661530
 20
30.812195
 40
3.578183
 50
145.616028
 51
214.383911
  0
ARC
  8
0
 10
295.458282
 20
24.750031
 40
13.374964
 50
162.412262
 51
197.587692
  0
ARC
  8
0
 10
285.661530
 20
18.687836
 40
3.578182
 50
145.616058
 51
214.383911
  0
ARC
  8
0
 10
281.505157
 20
30.812195
 40
3.578181
 50
325.616089
 51
34.383919
  0
CIRCLE
  8
0
 10
167.083267
 20
-46.850006
 40
2.000000
  0
ARC
  8
0
 10
165.083267
 20
-49.073303
 40
5.776714
 50
249.743866
 51
290.256165
  0
CIRCLE
  8
0
 10
167.083267
 20
-46.850006
 40
5.000000
  0
ARC
  8
0
 10
169.083267
 20
-49.073303
 40
5.776711
 50
249.743851
 51
290.256165
  0
CIRCLE
  8
0
 10
277.083282
 20
-46.850006
 40
2.000000
  0
ARC
  8
0
 10
275.083282
 20
-49.073303
 40
5.776714
 50
249.743866
 51
290.256165
  0
CIRCLE
  8
0
 10
277.083282
 20
-46.850006
 40
5.000000
  0
ARC
  8
0
 10
279.083282
 20
-49.073303
 40
5.776711
 50
249.743851
 51
290.256165
  0
CIRCLE
  8
0
 62
     2
 10
179.583359
 20
-41.250000
 40
2.500000
  0
CIRCLE
  8
0
 10
179.583359
 20
-41.250000
 40
1.800000
  0
CIRCLE
  8
0
 10
264.583344
 20
-41.249969
 40
1.800000
  0
CIRCLE
  8
0
 62
     2
 10
264.583344
 20
-41.249969
 40
2.500000
  0
CIRCLE
  8
0
 10
179.583328
 20
43.750000
 40
1.800000
  0
CIRCLE
  8
0
 62
     2
 10
179.583328
 20
43.750000
 40
2.500000
  0
CIRCLE
  8
0
 10
264.583344
 20
43.750031
 40
1.800000
  0
CIRCLE
  8
0
 62
     2
 10
264.583344
 20
43.750031
 40
2.500000
  0
CIRCLE
  8
0
 10
222.083328
 20
-41.250000
 40
3.000000
  0
ARC
  8
0
 10
222.083328
 20
42.750000
 40
3.000000
 50
180.000000
 51
0.000000
  0
ARC
  8
0
 10
138.614319
 20
24.750000
 40
5.031256
 50
143.248810
 51
216.751083
  0
CIRCLE
  8
0
 10
222.083328
 20
1.250000
 40
20.000000
  0
CIRCLE
  8
0
 10
222.083298
 20
182.750000
 40
2.750000
  0
CIRCLE
  8
0
 10
248.083191
 20
182.749939
 40
2.750000
  0
ARC
  8
0
 10
273.619202
 20
182.750000
 40
11.464123
 50
342.412018
 51
17.588043
  0
ARC
  8
0
 10
285.150269
 20
187.946167
 40
3.066972
 50
145.615448
 51
214.384323
  0
ARC
  8
0
 10
282.016357
 20
187.946167
 40
3.066963
 50
325.615692
 51
34.384556
  0
ARC
  8
0
 10
285.150269
 20
177.553864
 40
3.066963
 50
145.615677
 51
214.384552
  0
ARC
  8
0
 10
293.547424
 20
182.750000
 40
11.464123
 50
162.412033
 51
197.587967
  0
ARC
  8
0
 10
282.016357
 20
177.553864
 40
3.066972
 50
325.615448
 51
34.384319
  0
ARC
  8
0
 10
196.142197
 20
192.643250
 40
2.000002
 50
225.000000
 51
270.000000
  0
ARC
  8
0
  6
CENTER
 62
     2
 10
196.070053
 20
192.715393
 40
4.000004
 50
225.000000
 51
270.000000
  0
ARC
  8
0
 10
195.997879
 20
192.787537
 40
6.000007
 50
225.000000
 51
270.000000
  0
ARC
  8
0
 10
196.142197
 20
172.856750
 40
2.000000
 50
90.000000
 51
135.000000
  0
ARC
  8
0
  6
CENTER
 62
     2
 10
196.070053
 20
172.784607
 40
4.000000
 50
90.000000
 51
135.000000
  0
ARC
  8
0
 10
195.997879
 20
172.712463
 40
6.000000
 50
90.000000
 51
135.000000
  0
ARC
  8
0
 10
162.150238
 20
177.553864
 40
3.066963
 50
145.615677
 51
214.384552
  0
ARC
  8
0
 10
150.619125
 20
182.750000
 40
11.464128
 50
342.411957
 51
17.587948
  0
ARC
  8
0
 10
159.016296
 20
177.553864
 40
3.066972
 50
325.615448
 51
34.384159
  0
ARC
  8
0
 10
170.547379
 20
182.750000
 40
11.464128
 50
162.411957
 51
197.587875
  0
ARC
  8
0
 10
159.016296
 20
187.946167
 40
3.066963
 50
325.615692
 51
34.384556
  0
ARC
  8
0
 10
162.150238
 20
187.946167
 40
3.066972
 50
145.615448
 51
214.384155
  0
CIRCLE
  8
0
 10
277.083313
 20
-170.250061
 40
2.500000
  0
CIRCLE
  8
0
 10
277.083313
 20
-170.250061
 40
4.000000
  0
CIRCLE
  8
0
 10
277.083313
 20
-170.250061
 40
4.900000
  0
CIRCLE
  8
0
 10
251.083313
 20
-188.750031
 40
3.000000
  0
CIRCLE
  8
0
 10
193.083328
 20
-188.750031
 40
3.000000
  0
CIRCLE
  8
0
 10
167.083328
 20
-170.250061
 40
2.500000
  0
CIRCLE
  8
0
 10
167.083328
 20
-170.250061
 40
4.000000
  0
CIRCLE
  8
0
 10
167.083328
 20
-170.250061
 40
4.900000
  0
CIRCLE
  8
0
 62
     2
 10
212.083328
 20
-188.750031
 40
2.500000
  0
CIRCLE
  8
0
 10
212.083328
 20
-188.750031
 40
1.800000
  0
ARC
  8
0
 10
-28.916695
 20
43.899994
 40
3.049999
 50
10.388991
 51
169.611084
  0
ARC
  8
0
 10
-51.746803
 20
-40.194122
 40
2.555851
 50
235.616211
 51
304.383850
  0
ARC
  8
0
 10
-47.416679
 20
-33.196426
 40
9.553544
 50
252.412354
 51
287.587738
  0
CIRCLE
  8
0
 10
-28.916695
 20
26.250031
 40
8.000000
  0
CIRCLE
  8
0
 10
-28.916695
 20
26.250031
 40
5.000000
  0
CIRCLE
  8
0
 10
-28.916695
 20
26.250031
 40
4.200000
  0
ARC
  8
0
 10
-43.086555
 20
-40.194122
 40
2.555851
 50
235.616211
 51
304.383850
  0
ARC
  8
0
 10
-32.380791
 20
-52.305298
 40
2.044654
 50
235.615768
 51
304.384430
  0
ARC
  8
0
 10
-25.452568
 20
-52.305298
 40
2.044656
 50
235.615692
 51
304.384308
  0
ARC
  8
0
 10
-28.916679
 20
-46.707245
 40
7.642725
 50
252.412003
 51
287.588043
  0
ARC
  8
0
 10
-188.494888
 20
30.812195
 40
3.578192
 50
325.616241
 51
34.383831
  0
ARC
  8
0
 10
-198.291641
 20
24.750031
 40
13.374959
 50
342.412323
 51
17.587748
  0
ARC
  8
0
 10
-188.494888
 20
18.687836
 40
3.578192
 50
325.616241
 51
34.383804
  0
CIRCLE
  8
0
 10
-219.276443
 20
-10.613159
 40
7.000000
  0
CIRCLE
  8
0
 10
-219.276474
 20
13.113220
 40
7.000000
  0
CIRCLE
  8
0
 62
     2
 10
-219.276474
 20
13.113220
 40
5.000000
  0
CIRCLE
  8
0
 10
-219.276474
 20
13.113220
 40
4.200000
  0
CIRCLE
  8
0
 10
-219.276443
 20
-10.613159
 40
6.500000
  0
CIRCLE
  8
0
 10
-247.916702
 20
1.250000
 40
8.500000
  0
CIRCLE
  8
0
 62
     2
 10
-247.916702
 20
1.250000
 40
6.000000
  0
CIRCLE
  8
0
 10
-247.916702
 20
1.250000
 40
5.200000
  0
CIRCLE
  8
0
 10
-215.416702
 20
-31.249985
 40
2.250000
  0
CIRCLE
  8
0
  6
DASHED
 62
     2
 10
-215.416702
 20
-31.249985
 40
4.000000
  0
CIRCLE
  8
0
 10
-247.916733
 20
33.750000
 40
2.000000
  0
CIRCLE
  8
0
 10
-205.416702
 20
1.250031
 40
2.000000
  0
CIRCLE
  8
0
 10
-215.416702
 20
1.250031
 40
2.000000
  0
CIRCLE
  8
0
  6
DASHED
 62
     2
 10
-205.416718
 20
43.750000
 40
4.750000
  0
CIRCLE
  8
0
 10
-205.416718
 20
43.750000
 40
2.750000
  0
CIRCLE
  8
0
  6
DASHED
 62
     2
 10
-215.416733
 20
33.750031
 40
4.000000
  0
CIRCLE
  8
0
 10
-215.416733
 20
33.750031
 40
2.250000
  0
CIRCLE
  8
0
  6
CENTER
 62
     2
 10
-247.916702
 20
1.250000
 40
31.000000
  0
ARC
  8
0
 10
-184.338486
 20
18.687836
 40
3.578192
 50
145.616241
 51
214.383804
  0
ARC
  8
0
 10
-174.541733
 20
24.750031
 40
13.374959
 50
162.412323
 51
197.587738
  0
ARC
  8
0
 10
-184.338486
 20
30.812195
 40
3.578193
 50
145.616226
 51
214.383804
  0
ARC
  8
0
 10
-297.541809
 20
24.750000
 40
13.374959
 50
162.412323
 51
197.587738
  0
ARC
  8
0
 10
-307.338562
 20
18.687836
 40
3.578205
 50
145.616379
 51
214.383942
  0
ARC
  8
0
 10
-311.494934
 20
30.812195
 40
3.578205
 50
325.616394
 51
34.383968
  0
ARC
  8
0
 10
-321.291687
 20
24.750000
 40
13.374959
 50
342.412323
 51
17.587748
  0
ARC
  8
0
 10
-311.494934
 20
18.687836
 40
3.578205
 50
325.616394
 51
34.383945
  0
ARC
  8
0
 10
-307.338562
 20
30.812195
 40
3.578206
 50
145.616364
 51
214.383942
  0
CIRCLE
  8
0
 10
-247.916702
 20
1.250000
 40
2.000000
  0
CIRCLE
  8
0
  6
DASHED
 62
     2
 10
-205.416702
 20
-41.249985
 40
4.750000
  0
CIRCLE
  8
0
 10
-205.416702
 20
-41.249985
 40
2.750000
  0
CIRCLE
  8
0
 10
-247.916733
 20
43.750000
 40
2.000000
  0
ARC
  8
0
 10
-190.916641
 20
-49.073303
 40
5.776711
 50
249.743851
 51
290.256165
  0
ARC
  8
0
 10
-194.916641
 20
-49.073303
 40
5.776711
 50
249.743851
 51
290.256165
  0
ARC
  8
0
 10
-300.916687
 20
-49.073303
 40
5.776711
 50
249.743851
 51
290.256165
  0
ARC
  8
0
 10
-304.916687
 20
-49.073303
 40
5.776711
 50
249.743851
 51
290.256165
  0
CIRCLE
  8
0
 10
-247.916702
 20
-41.249985
 40
2.000000
  0
CIRCLE
  8
0
 10
-247.916702
 20
-31.249985
 40
2.000000
  0
CIRCLE
  8
0
 10
-290.416687
 20
1.250000
 40
2.000000
  0
CIRCLE
  8
0
 10
-280.416687
 20
1.250000
 40
2.000000
  0
CIRCLE
  8
0
  6
DASHED
 62
     2
 10
-280.416687
 20
-31.249985
 40
4.000000
  0
CIRCLE
  8
0
 10
-280.416687
 20
-31.249985
 40
2.250000
  0
CIRCLE
  8
0
  6
DASHED
 62
     2
 10
-290.416687
 20
-41.249985
 40
4.750000
  0
CIRCLE
  8
0
 10
-290.416687
 20
-41.249985
 40
2.750000
  0
CIRCLE
  8
0
  6
DASHED
 62
     2
 10
-290.416748
 20
43.750000
 40
4.750000
  0
CIRCLE
  8
0
 10
-290.416748
 20
43.750000
 40
2.750000
  0
CIRCLE
  8
0
  6
DASHED
 62
     2
 10
-280.416748
 20
33.750000
 40
4.000000
  0
CIRCLE
  8
0
 10
-280.416748
 20
33.750000
 40
2.250000
  0
CIRCLE
  8
0
 10
-236.053513
 20
-27.390244
 40
7.000000
  0
CIRCLE
  8
0
 62
     2
 10
-236.053513
 20
-27.390244
 40
5.000000
  0
CIRCLE
  8
0
 10
-236.053513
 20
-27.390244
 40
4.200000
  0
CIRCLE
  8
0
 10
-259.779907
 20
-27.390244
 40
7.000000
  0
CIRCLE
  8
0
 62
     2
 10
-259.779907
 20
-27.390244
 40
5.000000
  0
CIRCLE
  8
0
 10
-259.779907
 20
-27.390244
 40
4.200000
  0
CIRCLE
  8
0
 10
-276.556946
 20
-10.613159
 40
7.000000
  0
CIRCLE
  8
0
 62
     2
 10
-276.556946
 20
-10.613159
 40
5.000000
  0
CIRCLE
  8
0
 10
-276.556946
 20
-10.613159
 40
4.200000
  0
CIRCLE
  8
0
 10
-276.557007
 20
13.113190
 40
7.000000
  0
CIRCLE
  8
0
 62
     2
 10
-276.557007
 20
13.113190
 40
5.000000
  0
CIRCLE
  8
0
 10
-276.557007
 20
13.113190
 40
4.200000
  0
CIRCLE
  8
0
 10
-259.779907
 20
29.890259
 40
7.000000
  0
CIRCLE
  8
0
 10
-259.779907
 20
29.890259
 40
6.500000
  0
CIRCLE
  8
0
 10
-236.053513
 20
29.890259
 40
7.000000
  0
CIRCLE
  8
0
 62
     2
 10
-236.053513
 20
29.890259
 40
5.000000
  0
CIRCLE
  8
0
 10
-236.053513
 20
29.890259
 40
4.200000
  0
ARC
  8
0
 10
-164.447662
 20
24.750031
 40
5.031250
 50
323.248901
 51
36.751144
  0
ARC
  8
0
 10
-331.385681
 20
24.750000
 40
5.031256
 50
143.248810
 51
216.751083
  0
TEXT
  8
0
 10
-387.785309
 20
256.649994
 40
9.000000
  1
HANDLING MODULE
 50
0.000000
 41
1.052632
 51
0.000000
  7
STANDARD
  0
TEXT
  8
0
 10
242.014816
 20
-274.500000
 40
12.500000
  1
KOGANEI CORP.
 50
0.000000
 41
1.052632
 51
0.000000
  7
STANDARD
  0
TEXT
  8
0
 10
251.264664
 20
256.649994
 40
9.000000
  1
DATE: Apr ,1994
 50
0.000000
 41
1.052632
 51
0.000000
  7
STANDARD
  0
TEXT
  8
0
 10
-384.785309
 20
224.149994
 40
9.000000
  1
MODEL:SHM21L-NA
 50
0.000000
 41
1.052632
 51
0.000000
  7
STANDARD
  0
ENDSEC
  0
EOF
