  0
SECTION
  2
HEADER
  0
ENDSEC
  0
SECTION
  2
TABLES
  0
TABLE
  2
LTYPE
 70
     4
  0
LTYPE
  2
CONTINUOUS
 70
    64
  3
Solid line
 72
    65
 73
     0
 40
0.000000
  0
LTYPE
  2
DASHED
 70
    64
  3
__ __ __ __ __ __ __ __ __ __ __ __ __ __ __
 72
    65
 73
     2
 40
3.500000
 49
2.000000
 49
-1.500000
  0
LTYPE
  2
CENTER
 70
    64
  3
____ _ ____ _ ____ _ ____ _ ____ _ ____ _ ____
 72
    65
 73
     4
 40
17.500000
 49
13.000000
 49
-1.500000
 49
1.500000
 49
-1.500000
  0
LTYPE
  2
PHANTOM
 70
    64
  3
_____ _ _ _____ _ _ _____ _ _ _____ _ _ ____  
 72
    65
 73
     6
 40
15.500000
 49
8.000000
 49
-1.500000
 49
1.500000
 49
-1.500000
 49
1.500000
 49
-1.500000
  0
LTYPE
  2
DASHED1
 70
    64
  3
__ __ __ __ __ __ __ __ __ __ __ __ __ __ __
 72
    65
 73
     2
 40
1.500000
 49
1.000000
 49
-0.500000
  0
LTYPE
  2
DASHED2
 70
    64
  3
__ __ __ __ __ __ __ __ __ __ __ __ __ __ __
 72
    65
 73
     2
 40
3.500000
 49
2.500000
 49
-1.000000
  0
LTYPE
  2
DASHED3
 70
    64
  3
__ __ __ __ __ __ __ __ __ __ __ __ __ __ __
 72
    65
 73
     2
 40
6.000000
 49
4.000000
 49
-2.000000
  0
LTYPE
  2
DASHED4
 70
    64
  3
__ __ __ __ __ __ __ __ __ __ __ __ __ __ __
 72
    65
 73
     2
 40
12.000000
 49
10.000000
 49
-2.000000
  0
LTYPE
  2
DASHED5
 70
    64
  3
__ __ __ __ __ __ __ __ __ __ __ __ __ __ __
 72
    65
 73
     2
 40
17.000000
 49
15.000000
 49
-2.000000
  0
LTYPE
  2
DASHED6
 70
    64
  3
__ __ __ __ __ __ __ __ __ __ __ __ __ __ __
 72
    65
 73
     2
 40
29.000000
 49
27.000000
 49
-2.000000
  0
LTYPE
  2
PHANTOM1
 70
    64
  3
_____ _ _ _____ _ _ _____ _ _ _____ _ _ ____  
 72
    65
 73
     6
 40
31.000000
 49
25.000000
 49
-1.500000
 49
1.000000
 49
-1.000000
 49
1.000000
 49
-1.500000
  0
LTYPE
  2
PHANTOM2
 70
    64
  3
_____ _ _ _____ _ _ _____ _ _ _____ _ _ ____  
 72
    65
 73
     6
 40
36.000000
 49
27.000000
 49
-1.500000
 49
2.500000
 49
-1.000000
 49
2.500000
 49
-1.500000
  0
LTYPE
  2
PHANTOM3
 70
    64
  3
_____ _ _ _____ _ _ _____ _ _ _____ _ _ ____  
 72
    65
 73
     6
 40
78.000000
 49
64.000000
 49
-2.000000
 49
4.000000
 49
-2.000000
 49
4.000000
 49
-2.000000
  0
LTYPE
  2
CENTER1
 70
    64
  3
____ _ ____ _ ____ _ ____ _ ____ _ ____ _ ____
 72
    65
 73
     4
 40
19.000000
 49
14.000000
 49
-1.000000
 49
3.000000
 49
-1.000000
  0
LTYPE
  2
CENTER2
 70
    64
  3
____ _ ____ _ ____ _ ____ _ ____ _ ____ _ ____
 72
    65
 73
     4
 40
28.500000
 49
25.000000
 49
-1.000000
 49
1.500000
 49
-1.000000
  0
LTYPE
  2
CENTER3
 70
    64
  3
____ _ ____ _ ____ _ ____ _ ____ _ ____ _ ____
 72
    65
 73
     4
 40
31.500000
 49
27.000000
 49
-1.000000
 49
2.500000
 49
-1.000000
  0
LTYPE
  2
CENTER4
 70
    64
  3
____ _ ____ _ ____ _ ____ _ ____ _ ____ _ ____
 72
    65
 73
     4
 40
50.000000
 49
45.000000
 49
-1.000000
 49
3.000000
 49
-1.000000
  0
LTYPE
  2
CENTER5
 70
    64
  3
____ _ ____ _ ____ _ ____ _ ____ _ ____ _ ____
 72
    65
 73
     4
 40
100.000000
 49
92.000000
 49
-2.000000
 49
4.000000
 49
-2.000000
  0
LTYPE
  2
SBK1
 70
    64
  3
______ _ _ _ ______ _ _ _ ______ _ _ _ _____  
 72
    65
 73
     8
 40
60.500000
 49
45.000000
 49
-2.000000
 49
2.500000
 49
-2.000000
 49
2.500000
 49
-2.000000
 49
2.500000
 49
-2.000000
  0
LTYPE
  2
SBK2
 70
    64
  3
______ _ _ _ ______ _ _ _ ______ _ _ _ _____  
 72
    65
 73
     8
 40
84.000000
 49
64.000000
 49
-2.000000
 49
4.000000
 49
-2.000000
 49
4.000000
 49
-2.000000
 49
4.000000
 49
-2.000000
  0
LTYPE
  2
STCH
 70
    64
  3
__ __ __ __ __ __ __ __ __ __ __ __ __ __ __
 72
    65
 73
     2
 40
3.000000
 49
1.000000
 49
-2.000000
  0
LTYPE
  2
MTCH
 70
    64
  3
_____ _ _ _____ _ _ _____ _ _ _____ _ _ ____  
 72
    65
 73
     6
 40
80.000000
 49
66.000000
 49
-2.000000
 49
4.000000
 49
-2.000000
 49
4.000000
 49
-2.000000
  0
ENDTAB
  0
TABLE
  2
LAYER
 70
     1
  0
LAYER
  2
0
 70
     0
 62
     7
  6
CONTINUOUS
  0
ENDTAB
  0
TABLE
  2
STYLE
 70
     1
  0
STYLE
  2
STANDARD
 70
     0
 40
0.000000
 41
1.000000
 50
0.000000
 71
     0
 42
0.200000
  3
txt
  4
BIGFONT
  0
ENDTAB
  0
TABLE
  2
VIEW
 70
     0
  0
ENDTAB
  0
ENDSEC
  0
SECTION
  2
BLOCKS
  0
ENDSEC
  0
SECTION
  2
ENTITIES
  0
LINE
  8
0
 10
-194.250000
 20
132.600006
 11
194.800003
 21
132.600006
  0
LINE
  8
0
 10
194.800003
 20
132.600006
 11
194.800003
 21
-133.500000
  0
LINE
  8
0
 10
-194.250000
 20
132.600006
 11
-194.250000
 21
-133.500000
  0
LINE
  8
0
 10
-194.250000
 20
-133.500000
 11
194.800003
 21
-133.500000
  0
LINE
  8
0
 10
109.800003
 20
-118.500000
 11
109.800003
 21
-133.500000
  0
LINE
  8
0
 10
109.800003
 20
-118.500000
 11
194.800003
 21
-118.500000
  0
LINE
  8
0
 10
109.800003
 20
132.600006
 11
109.800003
 21
117.600006
  0
LINE
  8
0
 10
109.800003
 20
117.600006
 11
194.800003
 21
117.600006
  0
LINE
  8
0
 10
-194.250000
 20
117.600006
 11
-109.250000
 21
117.600006
  0
LINE
  8
0
 10
-109.250000
 20
132.600006
 11
-109.250000
 21
117.600006
  0
LINE
  8
0
  6
CENTER
 62
     2
 10
-34.781425
 20
39.999992
 11
35.689373
 21
39.999992
  0
LINE
  8
0
  6
CENTER
 62
     2
 10
-0.000008
 20
4.707611
 11
-0.000008
 21
75.356812
  0
LINE
  8
0
 10
12.849995
 20
11.199989
 11
10.999996
 21
11.199989
  0
LINE
  8
0
 10
7.499996
 20
2.927391
 11
7.499996
 21
14.199997
  0
LINE
  8
0
 10
5.499996
 20
3.463287
 11
5.499996
 21
14.199997
  0
LINE
  8
0
 10
4.000000
 20
2.927380
 11
4.000000
 21
14.199997
  0
LINE
  8
0
 10
8.999996
 20
3.463318
 11
8.999996
 21
14.199997
  0
LINE
  8
0
 10
10.999996
 20
2.927418
 11
10.999996
 21
14.199997
  0
LINE
  8
0
 10
2.000000
 20
3.463280
 11
2.000000
 21
14.199997
  0
LINE
  8
0
 10
1.999996
 20
11.199989
 11
0.149998
 21
11.199989
  0
LINE
  8
0
 62
     2
 10
3.999990
 20
2.927391
 11
1.999993
 21
3.463289
  0
LINE
  8
0
 62
     2
 10
7.499984
 20
2.927388
 11
5.499986
 21
3.463286
  0
LINE
  8
0
 62
     2
 10
10.999987
 20
2.927416
 11
8.999982
 21
3.463316
  0
LINE
  8
0
 10
-30.000008
 20
10.000000
 11
-30.000008
 21
70.000000
  0
LINE
  8
0
 10
29.999994
 20
10.000000
 11
29.999994
 21
70.000000
  0
LINE
  8
0
 10
-30.000008
 20
9.999992
 11
2.000000
 21
9.999992
  0
LINE
  8
0
 10
-30.000008
 20
69.999992
 11
29.999992
 21
69.999992
  0
LINE
  8
0
 10
10.999996
 20
9.999992
 11
29.999994
 21
9.999992
  0
LINE
  8
0
 10
-17.832550
 20
16.499992
 11
17.832535
 21
16.499992
  0
LINE
  8
0
 10
0.150002
 20
11.199997
 11
0.150002
 21
16.500000
  0
LINE
  8
0
 10
12.849995
 20
11.199997
 11
12.849995
 21
16.500000
  0
LINE
  8
0
 10
4.000000
 20
11.199989
 11
5.499996
 21
11.199989
  0
LINE
  8
0
 10
17.133949
 20
23.499992
 11
18.865997
 21
23.499992
  0
LINE
  8
0
 10
18.865927
 20
23.499935
 11
19.731953
 21
21.999929
  0
LINE
  8
0
 10
19.732008
 20
21.999996
 11
18.865974
 21
20.499987
  0
LINE
  8
0
 10
18.865997
 20
20.499977
 11
17.133949
 21
20.499977
  0
LINE
  8
0
 10
17.133867
 20
20.499922
 11
16.267838
 21
21.999935
  0
LINE
  8
0
 10
16.267799
 20
22.000019
 11
17.133825
 21
23.500021
  0
LINE
  8
0
 10
-17.133965
 20
56.499992
 11
-18.866013
 21
56.499992
  0
LINE
  8
0
 10
-18.865950
 20
56.500027
 11
-19.731979
 21
58.000038
  0
LINE
  8
0
 10
-19.732126
 20
58.000027
 11
-18.866091
 21
59.500034
  0
LINE
  8
0
 10
-18.866013
 20
59.500008
 11
-17.133965
 21
59.500008
  0
LINE
  8
0
 10
-17.133894
 20
59.500027
 11
-16.267868
 21
58.000019
  0
LINE
  8
0
 10
-16.268009
 20
58.000080
 11
-17.134031
 21
56.500080
  0
LINE
  8
0
 10
-17.133965
 20
23.499992
 11
-18.866013
 21
23.499992
  0
LINE
  8
0
 10
-18.865948
 20
23.499960
 11
-19.731977
 21
21.999956
  0
LINE
  8
0
 10
-19.732080
 20
21.999969
 11
-18.866045
 21
20.499962
  0
LINE
  8
0
 10
-18.866013
 20
20.499977
 11
-17.133965
 21
20.499977
  0
LINE
  8
0
 10
-17.133924
 20
20.499943
 11
-16.267895
 21
21.999952
  0
LINE
  8
0
 10
-16.267937
 20
21.999943
 11
-17.133957
 21
23.499943
  0
LINE
  8
0
 10
-23.979349
 20
36.500019
 11
-21.958626
 21
40.000011
  0
LINE
  8
0
 10
-30.041521
 20
40.000027
 11
-28.020796
 21
43.500027
  0
LINE
  8
0
 10
-21.958649
 20
39.999947
 11
-23.979378
 21
43.499954
  0
LINE
  8
0
 10
-28.020844
 20
36.499958
 11
-30.041565
 21
39.999950
  0
LINE
  8
0
 10
-28.020744
 20
36.499985
 11
-23.979286
 21
36.499985
  0
LINE
  8
0
 10
-28.020744
 20
43.499985
 11
-23.979286
 21
43.499985
  0
LINE
  8
0
 10
-24.677139
 20
41.499985
 11
-27.322891
 21
41.499985
  0
LINE
  8
0
 10
-24.677139
 20
38.499985
 11
-27.322891
 21
38.499985
  0
LINE
  8
0
 10
17.133949
 20
56.499992
 11
18.865997
 21
56.499992
  0
LINE
  8
0
 10
18.865908
 20
56.500053
 11
19.731936
 21
58.000057
  0
LINE
  8
0
 10
19.732042
 20
58.000011
 11
18.866011
 21
59.500019
  0
LINE
  8
0
 10
18.865997
 20
59.500008
 11
17.133949
 21
59.500008
  0
LINE
  8
0
 10
17.133865
 20
59.500061
 11
16.267841
 21
58.000061
  0
LINE
  8
0
 10
16.267874
 20
58.000019
 11
17.133902
 21
56.500015
  0
LINE
  8
0
 10
-1.000008
 20
19.023815
 11
-1.000008
 21
30.050117
  0
LINE
  8
0
 10
-1.000008
 20
49.949867
 11
-1.000008
 21
60.976166
  0
LINE
  8
0
 10
-0.000008
 20
49.999992
 11
-0.000008
 21
63.499992
  0
LINE
  8
0
 10
8.999996
 20
11.199989
 11
7.499996
 21
11.199989
  0
LINE
  8
0
 10
26.999992
 20
28.115135
 11
26.999992
 21
51.884865
  0
LINE
  8
0
 10
17.999992
 20
52.999992
 11
26.481121
 21
52.999992
  0
LINE
  8
0
 10
17.999992
 20
26.999992
 11
26.481113
 21
26.999992
  0
LINE
  8
0
 10
12.999992
 20
21.999992
 11
12.999992
 21
16.499992
  0
LINE
  8
0
 10
12.999992
 20
57.999992
 11
12.999992
 21
63.499992
  0
LINE
  8
0
 10
-0.000008
 20
29.999992
 11
-0.000008
 21
16.499992
  0
LINE
  8
0
 10
-17.832550
 20
63.499992
 11
17.832535
 21
63.499992
  0
LINE
  8
0
 10
-14.500008
 20
19.999992
 11
-7.889874
 21
19.999992
  0
LINE
  8
0
 10
-14.500008
 20
19.999992
 11
-14.500008
 21
24.809536
  0
LINE
  8
0
 10
-8.000008
 20
20.583504
 11
-8.000008
 21
20.043793
  0
LINE
  8
0
 10
-14.500008
 20
59.999992
 11
-14.500008
 21
55.190445
  0
LINE
  8
0
 10
-14.500008
 20
59.999992
 11
-7.889874
 21
59.999992
  0
LINE
  8
0
 10
-8.000008
 20
59.416481
 11
-8.000008
 21
59.956192
  0
LINE
  8
0
  6
CENTER
 62
     2
 10
20.999996
 20
64.999992
 11
28.999996
 21
64.999992
  0
LINE
  8
0
  6
CENTER
 62
     2
 10
-30.000008
 20
65.000000
 11
-20.000008
 21
65.000000
  0
LINE
  8
0
  6
CENTER
 62
     2
 10
-30.000008
 20
14.999992
 11
-20.000008
 21
14.999992
  0
LINE
  8
0
  6
CENTER
 62
     2
 10
19.999992
 20
15.000000
 11
29.999990
 21
15.000000
  0
LINE
  8
0
  6
CENTER
 62
     2
 10
-25.000008
 20
19.999992
 11
-25.000008
 21
9.999992
  0
LINE
  8
0
  6
CENTER
 62
     2
 10
-25.000008
 20
70.000000
 11
-25.000008
 21
60.000000
  0
LINE
  8
0
  6
CENTER
 62
     2
 10
24.999996
 20
69.999992
 11
24.999996
 21
59.999992
  0
LINE
  8
0
  6
CENTER
 62
     2
 10
24.999990
 20
20.000000
 11
24.999990
 21
10.000000
  0
LINE
  8
0
 10
4.000000
 20
8.899998
 11
5.499996
 21
8.899998
  0
LINE
  8
0
 10
7.499996
 20
8.899998
 11
8.999996
 21
8.899998
  0
LINE
  8
0
 10
-131.000000
 20
70.000000
 11
-131.000000
 21
10.000000
  0
LINE
  8
0
 10
-124.000000
 20
70.000000
 11
-131.000000
 21
70.000000
  0
LINE
  8
0
 10
-123.999985
 20
10.000000
 11
-131.000000
 21
10.000000
  0
LINE
  8
0
 10
-124.000000
 20
70.000000
 11
-124.000000
 21
10.000000
  0
LINE
  8
0
 10
-114.000000
 20
25.499992
 11
-118.199997
 21
25.499992
  0
LINE
  8
0
 10
-114.000000
 20
18.499992
 11
-118.199997
 21
18.499992
  0
LINE
  8
0
 10
-114.000000
 20
25.499996
 11
-114.000000
 21
18.499996
  0
LINE
  8
0
 10
-100.000000
 20
63.500015
 11
-100.000000
 21
16.500000
  0
LINE
  8
0
 10
-114.000000
 20
54.499992
 11
-118.000000
 21
54.499992
  0
LINE
  8
0
 10
-114.000000
 20
61.500011
 11
-114.000000
 21
54.499996
  0
LINE
  8
0
 10
-119.000000
 20
16.499996
 11
-119.000000
 21
63.500011
  0
LINE
  8
0
 10
-118.199997
 20
17.999996
 11
-118.199997
 21
25.999996
  0
LINE
  8
0
 10
-118.199997
 20
17.999992
 11
-119.000000
 21
17.999992
  0
LINE
  8
0
 10
-118.199997
 20
25.999992
 11
-119.000000
 21
25.999992
  0
LINE
  8
0
 10
-118.199997
 20
62.000008
 11
-119.000000
 21
62.000008
  0
LINE
  8
0
 10
-118.199997
 20
54.000008
 11
-119.000000
 21
54.000008
  0
LINE
  8
0
 10
-118.199997
 20
62.000011
 11
-118.199997
 21
54.000011
  0
LINE
  8
0
 10
-115.799988
 20
36.500004
 11
-115.799988
 21
43.500004
  0
LINE
  8
0
 10
-112.500000
 20
38.500004
 11
-112.500000
 21
41.500004
  0
LINE
  8
0
 10
-115.500000
 20
41.500004
 11
-115.500000
 21
42.000004
  0
LINE
  8
0
 10
-115.500000
 20
42.000000
 11
-115.799988
 21
42.000000
  0
LINE
  8
0
 10
-118.199997
 20
62.000008
 11
-119.000000
 21
62.000008
  0
LINE
  8
0
 10
-108.500023
 20
57.309391
 11
-106.500008
 21
56.154682
  0
LINE
  8
0
 10
-110.500031
 20
56.154835
 11
-108.500046
 21
57.309525
  0
LINE
  8
0
 10
-110.500038
 20
53.845257
 11
-108.500031
 21
52.690548
  0
LINE
  8
0
 10
-108.500038
 20
52.690742
 11
-106.500038
 21
53.845444
  0
LINE
  8
0
 10
-106.500000
 20
53.845314
 11
-106.500000
 21
56.154709
  0
LINE
  8
0
 10
-110.500000
 20
53.845310
 11
-110.500000
 21
56.154713
  0
LINE
  8
0
 10
-114.000000
 20
61.500008
 11
-118.000000
 21
61.500008
  0
LINE
  8
0
 10
-115.799988
 20
36.500000
 11
-119.000000
 21
36.500000
  0
LINE
  8
0
 10
-115.799988
 20
43.500000
 11
-119.000000
 21
43.500000
  0
LINE
  8
0
 10
-112.500000
 20
41.500000
 11
-115.500000
 21
41.500000
  0
LINE
  8
0
 10
-112.500000
 20
38.500000
 11
-115.500000
 21
38.500000
  0
LINE
  8
0
 10
-115.500000
 20
38.500004
 11
-115.500000
 21
38.000004
  0
LINE
  8
0
 10
-115.500000
 20
38.000000
 11
-115.799988
 21
38.000000
  0
LINE
  8
0
 10
-124.000000
 20
16.499992
 11
-100.000000
 21
16.499992
  0
LINE
  8
0
 10
-114.000000
 20
19.023815
 11
-101.000000
 21
19.023815
  0
LINE
  8
0
 10
-114.000000
 20
60.976181
 11
-101.000000
 21
60.976181
  0
LINE
  8
0
 10
-124.000000
 20
63.500008
 11
-100.000000
 21
63.500008
  0
LINE
  8
0
 10
-119.000000
 20
40.000000
 11
-116.202805
 21
40.000000
  0
LINE
  8
0
 10
-123.000000
 20
11.199997
 11
-123.000000
 21
16.499996
  0
LINE
  8
0
 10
-108.000000
 20
12.849991
 11
-102.500000
 21
12.849991
  0
LINE
  8
0
 62
     2
 10
-99.499992
 20
2.927423
 11
-101.499992
 21
3.463322
  0
LINE
  8
0
 10
-108.000000
 20
14.849991
 11
-102.500000
 21
14.849991
  0
LINE
  8
0
 10
-101.500000
 20
11.849998
 11
-101.500000
 21
3.463318
  0
LINE
  8
0
 10
-108.000000
 20
16.499996
 11
-108.000000
 21
11.199997
  0
LINE
  8
0
 10
-99.500000
 20
11.849998
 11
-99.500000
 21
2.927418
  0
LINE
  8
0
 10
-123.000000
 20
11.199993
 11
-108.000000
 21
11.199993
  0
LINE
  8
0
 10
-101.000000
 20
19.023823
 11
-101.000000
 21
60.976189
  0
LINE
  8
0
 10
-116.000000
 20
25.499996
 11
-116.000000
 21
36.500004
  0
LINE
  8
0
 10
-116.000000
 20
54.500011
 11
-116.000000
 21
43.500004
  0
LINE
  8
0
 10
-108.500046
 20
22.690691
 11
-106.500046
 21
23.845392
  0
LINE
  8
0
 10
-110.500023
 20
23.845213
 11
-108.500023
 21
22.690512
  0
LINE
  8
0
 10
-110.500000
 20
23.845310
 11
-110.500000
 21
26.154713
  0
LINE
  8
0
 10
-110.500053
 20
26.154772
 11
-108.500069
 21
27.309465
  0
LINE
  8
0
 10
-108.499985
 20
27.309328
 11
-106.499985
 21
26.154629
  0
LINE
  8
0
 10
-106.500000
 20
23.845314
 11
-106.500000
 21
26.154709
  0
LINE
  8
0
 10
-118.399979
 20
8.899994
 11
-114.399979
 21
8.899994
  0
LINE
  8
0
 10
-118.399994
 20
11.199997
 11
-118.399994
 21
8.899998
  0
LINE
  8
0
 10
-114.399994
 20
11.199997
 11
-114.399994
 21
8.899998
  0
LINE
  8
0
  6
CENTER
 62
     2
 10
-95.110001
 20
40.000000
 11
-137.001465
 21
40.000000
  0
LINE
  8
0
  6
CENTER
 62
     2
 10
-121.668304
 20
15.000000
 11
-132.750854
 21
15.000000
  0
LINE
  8
0
  6
CENTER
 62
     2
 10
-122.660767
 20
65.000000
 11
-132.420044
 21
65.000000
  0
LINE
  8
0
 10
117.999985
 20
11.199993
 11
117.999985
 21
16.499992
  0
LINE
  8
0
 10
102.999992
 20
12.849991
 11
97.499992
 21
12.849991
  0
LINE
  8
0
 62
     2
 10
96.500008
 20
2.927417
 11
94.500000
 21
3.463316
  0
LINE
  8
0
 10
118.999992
 20
70.000000
 11
125.999992
 21
70.000000
  0
LINE
  8
0
 10
118.999977
 20
10.000000
 11
125.999992
 21
10.000000
  0
LINE
  8
0
 10
118.999992
 20
70.000000
 11
118.999992
 21
10.000000
  0
LINE
  8
0
 10
102.999992
 20
14.849991
 11
97.499992
 21
14.849991
  0
LINE
  8
0
 10
96.499992
 20
11.849991
 11
96.499992
 21
2.927441
  0
LINE
  8
0
 10
102.999992
 20
16.499992
 11
102.999992
 21
11.199993
  0
LINE
  8
0
 10
94.499992
 20
11.849991
 11
94.499992
 21
3.463337
  0
LINE
  8
0
 10
109.199997
 20
18.499992
 11
113.199997
 21
18.499992
  0
LINE
  8
0
 10
109.199997
 20
25.499992
 11
109.199997
 21
18.499992
  0
LINE
  8
0
 10
113.199997
 20
17.999992
 11
113.199997
 21
25.999992
  0
LINE
  8
0
 10
109.199997
 20
25.499992
 11
113.199997
 21
25.499992
  0
LINE
  8
0
 10
109.199997
 20
61.499992
 11
113.199997
 21
61.499992
  0
LINE
  8
0
 10
117.999985
 20
11.199993
 11
102.999992
 21
11.199993
  0
LINE
  8
0
 10
109.199997
 20
54.499992
 11
113.199997
 21
54.499992
  0
LINE
  8
0
 10
109.199997
 20
61.499992
 11
109.199997
 21
54.499992
  0
LINE
  8
0
 10
113.199997
 20
17.999992
 11
113.999992
 21
17.999992
  0
LINE
  8
0
 10
113.199997
 20
25.999992
 11
113.999992
 21
25.999992
  0
LINE
  8
0
 10
113.199997
 20
62.000008
 11
113.999992
 21
62.000008
  0
LINE
  8
0
 10
113.199997
 20
62.000008
 11
113.199997
 21
54.000008
  0
LINE
  8
0
 10
113.199997
 20
54.000008
 11
113.999992
 21
54.000008
  0
LINE
  8
0
 10
113.999992
 20
53.000008
 11
113.999992
 21
63.500008
  0
LINE
  8
0
 10
94.999992
 20
16.499992
 11
118.999992
 21
16.499992
  0
LINE
  8
0
 10
94.999992
 20
28.115135
 11
118.999992
 21
28.115135
  0
LINE
  8
0
 10
94.999992
 20
63.500008
 11
118.999992
 21
63.500008
  0
LINE
  8
0
 10
94.999992
 20
53.000008
 11
113.999992
 21
53.000008
  0
LINE
  8
0
 10
94.999992
 20
51.884865
 11
118.999992
 21
51.884865
  0
LINE
  8
0
 10
94.999992
 20
26.999992
 11
113.999992
 21
26.999992
  0
LINE
  8
0
 10
113.999992
 20
26.999992
 11
113.999992
 21
16.499992
  0
LINE
  8
0
 10
94.999992
 20
63.500008
 11
94.999992
 21
16.499992
  0
LINE
  8
0
 10
113.399994
 20
8.899994
 11
109.399994
 21
8.899994
  0
LINE
  8
0
 10
113.399994
 20
11.199993
 11
113.399994
 21
8.899994
  0
LINE
  8
0
 10
109.399994
 20
11.199993
 11
109.399994
 21
8.899994
  0
LINE
  8
0
 10
125.999992
 20
70.000000
 11
125.999992
 21
10.000000
  0
LINE
  8
0
  6
CENTER
 62
     2
 10
91.029404
 20
40.000000
 11
130.116089
 21
40.000000
  0
LINE
  8
0
  6
CENTER
 62
     2
 10
118.066360
 20
15.000000
 11
127.689560
 21
15.000000
  0
LINE
  8
0
  6
CENTER
 62
     2
 10
116.792702
 20
65.000000
 11
127.123489
 21
65.000000
  0
LINE
  8
0
  6
CENTER
 62
     2
 10
102.999992
 20
51.000000
 11
102.999992
 21
45.000000
  0
LINE
  8
0
  6
CENTER
 62
     2
 10
102.999992
 20
35.000000
 11
102.999992
 21
29.000000
  0
LINE
  8
0
  6
CENTER
 62
     2
 10
102.999992
 20
43.936047
 11
102.999992
 21
36.011059
  0
LINE
  8
0
  6
CENTER
 62
     2
 10
99.999992
 20
32.000000
 11
105.999992
 21
32.000000
  0
LINE
  8
0
  6
CENTER
 62
     2
 10
99.999992
 20
48.000000
 11
105.999992
 21
48.000000
  0
LINE
  8
0
  6
CENTER
 62
     2
 10
-0.000008
 20
-54.010651
 11
-0.000008
 21
-94.251961
  0
LINE
  8
0
 10
-30.000008
 20
-91.000015
 11
29.999992
 21
-91.000015
  0
LINE
  8
0
 10
-30.000008
 20
-83.999992
 11
-30.000008
 21
-90.999992
  0
LINE
  8
0
 10
29.999994
 20
-84.000008
 11
29.999994
 21
-91.000023
  0
LINE
  8
0
 10
0.150005
 20
-66.400002
 11
13.000004
 21
-66.400002
  0
LINE
  8
0
 10
7.499985
 20
-57.000011
 11
7.499985
 21
-66.400002
  0
LINE
  8
0
 10
5.499985
 20
-57.000011
 11
5.499985
 21
-66.400002
  0
LINE
  8
0
 10
8.999985
 20
-57.000019
 11
8.999985
 21
-66.400009
  0
LINE
  8
0
 10
3.749989
 20
-57.000011
 11
3.749989
 21
-66.400002
  0
LINE
  8
0
 10
10.999985
 20
-57.000019
 11
10.999985
 21
-66.400009
  0
LINE
  8
0
 10
1.749989
 20
-57.000011
 11
1.749989
 21
-66.400002
  0
LINE
  8
0
 10
9.600006
 20
-75.995850
 11
9.600006
 21
-76.804138
  0
LINE
  8
0
 10
8.899957
 20
-75.591858
 11
9.599958
 21
-75.996002
  0
LINE
  8
0
 10
8.200001
 20
-75.995834
 11
8.900000
 21
-75.591690
  0
LINE
  8
0
 10
8.200012
 20
-76.804153
 11
8.200012
 21
-75.995865
  0
LINE
  8
0
 10
8.899977
 20
-77.208359
 11
8.199978
 21
-76.804214
  0
LINE
  8
0
 10
9.599984
 20
-76.804131
 11
8.899985
 21
-77.208275
  0
LINE
  8
0
 10
4.099977
 20
-77.208351
 11
3.399978
 21
-76.804207
  0
LINE
  8
0
 10
4.799980
 20
-76.804123
 11
4.099981
 21
-77.208267
  0
LINE
  8
0
 10
4.800003
 20
-75.995857
 11
4.800003
 21
-76.804146
  0
LINE
  8
0
 10
4.099948
 20
-75.591850
 11
4.799946
 21
-75.995995
  0
LINE
  8
0
 10
3.400017
 20
-75.995850
 11
4.100016
 21
-75.591705
  0
LINE
  8
0
 10
3.400013
 20
-76.804146
 11
3.400013
 21
-75.995857
  0
LINE
  8
0
 10
12.849991
 20
-66.400009
 11
12.849991
 21
-83.000015
  0
LINE
  8
0
 10
-30.000008
 20
-84.000008
 11
29.999998
 21
-84.000008
  0
LINE
  8
0
 10
-14.500008
 20
-74.199997
 11
-14.500008
 21
-78.200005
  0
LINE
  8
0
 10
-21.500008
 20
-74.199997
 11
-21.500008
 21
-78.200005
  0
LINE
  8
0
 10
-14.500000
 20
-74.200005
 11
-21.500000
 21
-74.200005
  0
LINE
  8
0
 10
3.750004
 20
-60.000008
 11
5.500000
 21
-60.000008
  0
LINE
  8
0
 10
7.500000
 20
-60.000008
 11
9.000000
 21
-60.000008
  0
LINE
  8
0
 10
11.000000
 20
-60.000008
 11
27.000008
 21
-60.000008
  0
LINE
  8
0
 10
21.499992
 20
-74.200012
 11
21.499992
 21
-78.200020
  0
LINE
  8
0
 10
14.499992
 20
-74.200012
 11
14.499992
 21
-78.200020
  0
LINE
  8
0
 10
21.500000
 20
-74.200005
 11
14.500000
 21
-74.200005
  0
LINE
  8
0
 10
-22.000000
 20
-78.200005
 11
-14.000000
 21
-78.200005
  0
LINE
  8
0
 10
-29.500008
 20
-78.999992
 11
-29.500008
 21
-83.999992
  0
LINE
  8
0
 10
-30.041550
 20
-79.000008
 11
0.000000
 21
-79.000008
  0
LINE
  8
0
 10
27.000000
 20
-79.000008
 11
12.849998
 21
-79.000008
  0
LINE
  8
0
 10
-22.000008
 20
-78.199997
 11
-22.000008
 21
-79.000000
  0
LINE
  8
0
 10
-14.000008
 20
-78.199997
 11
-14.000008
 21
-79.000000
  0
LINE
  8
0
 10
21.999992
 20
-78.200012
 11
21.999992
 21
-79.000015
  0
LINE
  8
0
 10
22.000000
 20
-78.200005
 11
14.000000
 21
-78.200005
  0
LINE
  8
0
 10
13.999992
 20
-78.200012
 11
13.999992
 21
-79.000015
  0
LINE
  8
0
 10
-14.500008
 20
-72.499985
 11
-14.500008
 21
-64.500031
  0
LINE
  8
0
 10
-13.500008
 20
-63.500034
 11
-13.500008
 21
-73.500000
  0
LINE
  8
0
 10
-13.500000
 20
-73.500008
 11
-12.208710
 21
-73.500008
  0
LINE
  8
0
 10
-14.499950
 20
-72.499954
 11
-13.499948
 21
-73.499954
  0
LINE
  8
0
 10
-14.500000
 20
-76.500008
 11
-1.000000
 21
-76.500008
  0
LINE
  8
0
 10
-1.000008
 20
-60.500008
 11
-1.000008
 21
-76.500008
  0
LINE
  8
0
 10
17.832535
 20
-79.000015
 11
17.832535
 21
-84.000015
  0
LINE
  8
0
 10
12.999992
 20
-60.000015
 11
12.999992
 21
-66.400009
  0
LINE
  8
0
 10
26.999992
 20
-60.000023
 11
26.999992
 21
-84.000023
  0
LINE
  8
0
 10
-21.000008
 20
-60.500000
 11
-21.000008
 21
-74.199997
  0
LINE
  8
0
 10
1.750004
 20
-60.000008
 11
0.000008
 21
-60.000008
  0
LINE
  8
0
 10
-0.000008
 20
-83.000008
 11
-0.000008
 21
-60.000008
  0
LINE
  8
0
 10
17.832535
 20
-79.000015
 11
17.832535
 21
-84.000015
  0
LINE
  8
0
 10
-17.832550
 20
-79.000000
 11
-17.832550
 21
-84.000000
  0
LINE
  8
0
 10
-0.000004
 20
-83.000008
 11
12.849995
 21
-83.000008
  0
LINE
  8
0
 10
-13.499992
 20
-63.500015
 11
-12.208694
 21
-63.500015
  0
LINE
  8
0
 10
-14.499970
 20
-64.500023
 11
-13.499968
 21
-63.500023
  0
LINE
  8
0
 10
-20.999992
 20
-60.500008
 11
-0.000008
 21
-60.500008
  0
LINE
  8
0
  6
CENTER
 62
     2
 10
-25.000008
 20
-82.790230
 11
-25.000008
 21
-93.077278
  0
LINE
  8
0
  6
CENTER
 62
     2
 10
24.999994
 20
-82.673355
 11
24.999994
 21
-92.259026
  0
LINE
  8
0
 10
-30.041550
 20
-75.800011
 11
-30.041550
 21
-79.000008
  0
LINE
  8
0
 10
-21.958618
 20
-75.800011
 11
-21.958618
 21
-78.200005
  0
LINE
  8
0
 10
-30.041550
 20
-75.800011
 11
-21.958618
 21
-75.800011
  0
LINE
  8
0
 10
-28.000015
 20
-72.500008
 11
-24.000015
 21
-72.500008
  0
LINE
  8
0
 10
-27.322891
 20
-75.500008
 11
-24.677139
 21
-75.500008
  0
LINE
  8
0
 10
-28.020744
 20
-75.800011
 11
-28.020744
 21
-79.000008
  0
LINE
  8
0
 10
-23.979286
 20
-75.800011
 11
-23.979286
 21
-79.000008
  0
LINE
  8
0
 10
-24.000015
 20
-72.500008
 11
-24.000015
 21
-75.800011
  0
LINE
  8
0
 10
-28.000015
 20
-72.500008
 11
-28.000015
 21
-75.800011
  0
LINE
  8
0
 10
-24.677139
 20
-72.500008
 11
-24.677139
 21
-75.500008
  0
LINE
  8
0
 10
-27.322891
 20
-72.500008
 11
-27.322891
 21
-75.500008
  0
ARC
  8
0
 10
-0.000015
 20
39.999992
 40
29.500002
 50
127.192406
 51
178.124939
  0
ARC
  8
0
 10
-18.000008
 20
21.999992
 40
4.000000
 50
28.955040
 51
331.044952
  0
ARC
  8
0
 10
-0.000008
 20
39.999992
 40
21.000000
 50
92.665901
 51
267.270538
  0
ARC
  8
0
 10
-18.000008
 20
57.999992
 40
4.000000
 50
28.955040
 51
331.044952
  0
ARC
  8
0
 10
2.999996
 20
14.199997
 40
1.000000
 50
0.000000
 51
180.000000
  0
ARC
  8
0
 10
6.499996
 20
14.199997
 40
1.000000
 50
0.000000
 51
180.000000
  0
ARC
  8
0
 10
9.999996
 20
14.199997
 40
1.000000
 50
0.000000
 51
180.000000
  0
CIRCLE
  8
0
 10
-25.000008
 20
15.000000
 40
2.250000
  0
CIRCLE
  8
0
 10
-25.000008
 20
65.000000
 40
2.250000
  0
CIRCLE
  8
0
 10
24.999994
 20
65.000000
 40
2.250000
  0
CIRCLE
  8
0
 10
24.999990
 20
15.000000
 40
2.250000
  0
CIRCLE
  8
0
 10
-25.000008
 20
64.999992
 40
4.000000
  0
CIRCLE
  8
0
 10
-25.000008
 20
14.999992
 40
4.000000
  0
CIRCLE
  8
0
 10
24.999996
 20
64.999992
 40
4.000000
  0
CIRCLE
  8
0
 10
24.999996
 20
14.999992
 40
4.000000
  0
CIRCLE
  8
0
 10
-26.000015
 20
39.999992
 40
2.000000
  0
CIRCLE
  8
0
 62
     2
 10
-26.000015
 20
39.999992
 40
1.120000
  0
CIRCLE
  8
0
 10
-26.000015
 20
39.999992
 40
3.500000
  0
CIRCLE
  8
0
 10
-0.000008
 20
39.999992
 40
10.000000
  0
ARC
  8
0
 10
-0.000015
 20
39.999992
 40
29.500000
 50
181.875046
 51
232.807587
  0
ARC
  8
0
 10
-0.000015
 20
39.999992
 40
29.500002
 50
23.758110
 51
52.807606
  0
ARC
  8
0
 10
-0.000008
 20
40.000000
 40
29.500000
 50
307.192383
 51
336.241852
  0
ARC
  8
0
 10
17.999992
 20
21.999992
 40
5.000000
 50
89.999977
 51
179.999954
  0
CIRCLE
  8
0
 10
17.999992
 20
21.999992
 40
4.000000
  0
ARC
  8
0
 10
17.999992
 20
57.999992
 40
5.000000
 50
180.000000
 51
270.000031
  0
CIRCLE
  8
0
 10
17.999992
 20
57.999992
 40
4.000000
  0
ARC
  8
0
 10
-119.802750
 20
38.250004
 40
4.002762
 50
334.074768
 51
25.925245
  0
ARC
  8
0
 10
-119.802750
 20
41.750004
 40
4.002762
 50
334.074768
 51
25.925245
  0
ARC
  8
0
 10
-102.499992
 20
11.849998
 40
3.000000
 50
359.999939
 51
90.000000
  0
ARC
  8
0
 10
-102.499992
 20
11.849998
 40
1.000000
 50
359.999939
 51
90.000000
  0
CIRCLE
  8
0
 10
-108.500000
 20
25.000013
 40
5.500000
  0
CIRCLE
  8
0
 10
-108.500000
 20
55.000015
 40
5.500000
  0
ARC
  8
0
 10
97.499992
 20
11.849991
 40
3.000000
 50
90.000000
 51
180.000015
  0
ARC
  8
0
 10
97.499992
 20
11.849991
 40
1.000000
 50
90.000000
 51
180.000000
  0
CIRCLE
  8
0
 62
     2
 10
102.999992
 20
32.000000
 40
2.000000
  0
CIRCLE
  8
0
 10
102.999992
 20
32.000000
 40
1.400000
  0
CIRCLE
  8
0
 10
102.999992
 20
48.000000
 40
1.400000
  0
CIRCLE
  8
0
 62
     2
 10
102.999992
 20
48.000000
 40
2.000000
  0
CIRCLE
  8
0
 10
102.999992
 20
40.000000
 40
3.000000
  0
CIRCLE
  8
0
 10
4.099998
 20
-76.400002
 40
2.000000
  0
CIRCLE
  8
0
 10
8.900002
 20
-76.400009
 40
2.000000
  0
CIRCLE
  8
0
 10
2.750008
 20
-57.000015
 40
1.000000
  0
CIRCLE
  8
0
 10
6.500000
 20
-57.000015
 40
1.000000
  0
CIRCLE
  8
0
 10
9.999992
 20
-57.000015
 40
1.000000
  0
CIRCLE
  8
0
 10
2.750008
 20
-57.000015
 40
0.500000
  0
CIRCLE
  8
0
 10
6.500000
 20
-57.000015
 40
0.500000
  0
CIRCLE
  8
0
 10
9.999992
 20
-57.000015
 40
0.500000
  0
CIRCLE
  8
0
 10
-14.499992
 20
-68.500000
 40
5.500000
  0
ARC
  8
0
 10
-29.031151
 20
-77.268661
 40
1.468655
 50
46.529728
 51
133.470276
  0
ARC
  8
0
 10
-26.000015
 20
-81.070045
 40
5.270039
 50
67.453239
 51
112.546776
  0
ARC
  8
0
 10
-22.968956
 20
-77.268486
 40
1.468479
 50
46.527016
 51
133.473038
  0
TEXT
  8
0
 10
115.907150
 20
122.050003
 40
4.500000
  1
DATE : MAY ,1993
 50
0.000000
 41
1.052631
 51
0.000000
  7
STANDARD
  0
TEXT
  8
0
 10
113.700279
 20
-130.669998
 40
6.300000
  1
KOGANEI CORP.
 50
0.000000
 41
1.052632
 51
0.000000
  7
STANDARD
  0
TEXT
  8
0
 10
-185.892654
 20
122.050003
 40
4.500000
  1
HANDLING MODULE
 50
0.000000
 41
1.052632
 51
0.000000
  7
STANDARD
  0
TEXT
  8
0
 10
-186.892654
 20
104.550003
 40
4.500000
  1
MODEL:SHM11S-20
 50
0.000000
 41
1.052632
 51
0.000000
  7
STANDARD
  0
ENDSEC
  0
EOF
