  0
SECTION
  2
HEADER
  0
ENDSEC
  0
SECTION
  2
TABLES
  0
TABLE
  2
LTYPE
 70
     4
  0
LTYPE
  2
CONTINUOUS
 70
    64
  3
Solid line
 72
    65
 73
     0
 40
0.000000
  0
LTYPE
  2
DASHED
 70
    64
  3
__ __ __ __ __ __ __ __ __ __ __ __ __ __ __
 72
    65
 73
     2
 40
3.500000
 49
2.000000
 49
-1.500000
  0
LTYPE
  2
CENTER
 70
    64
  3
____ _ ____ _ ____ _ ____ _ ____ _ ____ _ ____
 72
    65
 73
     4
 40
17.500000
 49
13.000000
 49
-1.500000
 49
1.500000
 49
-1.500000
  0
LTYPE
  2
PHANTOM
 70
    64
  3
_____ _ _ _____ _ _ _____ _ _ _____ _ _ ____  
 72
    65
 73
     6
 40
15.500000
 49
8.000000
 49
-1.500000
 49
1.500000
 49
-1.500000
 49
1.500000
 49
-1.500000
  0
LTYPE
  2
DASHED1
 70
    64
  3
__ __ __ __ __ __ __ __ __ __ __ __ __ __ __
 72
    65
 73
     2
 40
1.500000
 49
1.000000
 49
-0.500000
  0
LTYPE
  2
DASHED2
 70
    64
  3
__ __ __ __ __ __ __ __ __ __ __ __ __ __ __
 72
    65
 73
     2
 40
3.500000
 49
2.500000
 49
-1.000000
  0
LTYPE
  2
DASHED3
 70
    64
  3
__ __ __ __ __ __ __ __ __ __ __ __ __ __ __
 72
    65
 73
     2
 40
6.000000
 49
4.000000
 49
-2.000000
  0
LTYPE
  2
DASHED4
 70
    64
  3
__ __ __ __ __ __ __ __ __ __ __ __ __ __ __
 72
    65
 73
     2
 40
12.000000
 49
10.000000
 49
-2.000000
  0
LTYPE
  2
DASHED5
 70
    64
  3
__ __ __ __ __ __ __ __ __ __ __ __ __ __ __
 72
    65
 73
     2
 40
17.000000
 49
15.000000
 49
-2.000000
  0
LTYPE
  2
DASHED6
 70
    64
  3
__ __ __ __ __ __ __ __ __ __ __ __ __ __ __
 72
    65
 73
     2
 40
29.000000
 49
27.000000
 49
-2.000000
  0
LTYPE
  2
PHANTOM1
 70
    64
  3
_____ _ _ _____ _ _ _____ _ _ _____ _ _ ____  
 72
    65
 73
     6
 40
31.000000
 49
25.000000
 49
-1.500000
 49
1.000000
 49
-1.000000
 49
1.000000
 49
-1.500000
  0
LTYPE
  2
PHANTOM2
 70
    64
  3
_____ _ _ _____ _ _ _____ _ _ _____ _ _ ____  
 72
    65
 73
     6
 40
36.000000
 49
27.000000
 49
-1.500000
 49
2.500000
 49
-1.000000
 49
2.500000
 49
-1.500000
  0
LTYPE
  2
PHANTOM3
 70
    64
  3
_____ _ _ _____ _ _ _____ _ _ _____ _ _ ____  
 72
    65
 73
     6
 40
78.000000
 49
64.000000
 49
-2.000000
 49
4.000000
 49
-2.000000
 49
4.000000
 49
-2.000000
  0
LTYPE
  2
CENTER1
 70
    64
  3
____ _ ____ _ ____ _ ____ _ ____ _ ____ _ ____
 72
    65
 73
     4
 40
19.000000
 49
14.000000
 49
-1.000000
 49
3.000000
 49
-1.000000
  0
LTYPE
  2
CENTER2
 70
    64
  3
____ _ ____ _ ____ _ ____ _ ____ _ ____ _ ____
 72
    65
 73
     4
 40
28.500000
 49
25.000000
 49
-1.000000
 49
1.500000
 49
-1.000000
  0
LTYPE
  2
CENTER3
 70
    64
  3
____ _ ____ _ ____ _ ____ _ ____ _ ____ _ ____
 72
    65
 73
     4
 40
31.500000
 49
27.000000
 49
-1.000000
 49
2.500000
 49
-1.000000
  0
LTYPE
  2
CENTER4
 70
    64
  3
____ _ ____ _ ____ _ ____ _ ____ _ ____ _ ____
 72
    65
 73
     4
 40
50.000000
 49
45.000000
 49
-1.000000
 49
3.000000
 49
-1.000000
  0
LTYPE
  2
CENTER5
 70
    64
  3
____ _ ____ _ ____ _ ____ _ ____ _ ____ _ ____
 72
    65
 73
     4
 40
100.000000
 49
92.000000
 49
-2.000000
 49
4.000000
 49
-2.000000
  0
LTYPE
  2
SBK1
 70
    64
  3
______ _ _ _ ______ _ _ _ ______ _ _ _ _____  
 72
    65
 73
     8
 40
60.500000
 49
45.000000
 49
-2.000000
 49
2.500000
 49
-2.000000
 49
2.500000
 49
-2.000000
 49
2.500000
 49
-2.000000
  0
LTYPE
  2
SBK2
 70
    64
  3
______ _ _ _ ______ _ _ _ ______ _ _ _ _____  
 72
    65
 73
     8
 40
84.000000
 49
64.000000
 49
-2.000000
 49
4.000000
 49
-2.000000
 49
4.000000
 49
-2.000000
 49
4.000000
 49
-2.000000
  0
LTYPE
  2
STCH
 70
    64
  3
__ __ __ __ __ __ __ __ __ __ __ __ __ __ __
 72
    65
 73
     2
 40
3.000000
 49
1.000000
 49
-2.000000
  0
LTYPE
  2
MTCH
 70
    64
  3
_____ _ _ _____ _ _ _____ _ _ _____ _ _ ____  
 72
    65
 73
     6
 40
80.000000
 49
66.000000
 49
-2.000000
 49
4.000000
 49
-2.000000
 49
4.000000
 49
-2.000000
  0
ENDTAB
  0
TABLE
  2
LAYER
 70
     1
  0
LAYER
  2
0
 70
     0
 62
     7
  6
CONTINUOUS
  0
ENDTAB
  0
TABLE
  2
STYLE
 70
     1
  0
STYLE
  2
STANDARD
 70
     0
 40
0.000000
 41
1.000000
 50
0.000000
 71
     0
 42
0.200000
  3
txt
  4
BIGFONT
  0
ENDTAB
  0
TABLE
  2
VIEW
 70
     0
  0
ENDTAB
  0
ENDSEC
  0
SECTION
  2
BLOCKS
  0
ENDSEC
  0
SECTION
  2
ENTITIES
  0
LINE
  8
0
 10
-194.250000
 20
132.600006
 11
194.800003
 21
132.600006
  0
LINE
  8
0
 10
194.800003
 20
132.600006
 11
194.800003
 21
-133.500000
  0
LINE
  8
0
 10
-194.250000
 20
132.600006
 11
-194.250000
 21
-133.500000
  0
LINE
  8
0
 10
-194.250000
 20
-133.500000
 11
194.800003
 21
-133.500000
  0
LINE
  8
0
 10
109.800003
 20
-118.500000
 11
109.800003
 21
-133.500000
  0
LINE
  8
0
 10
109.800003
 20
-118.500000
 11
194.800003
 21
-118.500000
  0
LINE
  8
0
 10
109.800003
 20
132.600006
 11
109.800003
 21
117.600006
  0
LINE
  8
0
 10
109.800003
 20
117.600006
 11
194.800003
 21
117.600006
  0
LINE
  8
0
 10
-194.250000
 20
117.600006
 11
-109.250000
 21
117.600006
  0
LINE
  8
0
 10
-109.250000
 20
132.600006
 11
-109.250000
 21
117.600006
  0
LINE
  8
0
  6
CENTER
 62
     2
 10
-34.781418
 20
42.999992
 11
35.689381
 21
42.999992
  0
LINE
  8
0
  6
CENTER
 62
     2
 10
0.000000
 20
7.707611
 11
0.000000
 21
78.356812
  0
LINE
  8
0
 10
12.850002
 20
14.199989
 11
11.000004
 21
14.199989
  0
LINE
  8
0
 10
7.500004
 20
5.927395
 11
7.500004
 21
17.199997
  0
LINE
  8
0
 10
5.500004
 20
6.463291
 11
5.500004
 21
17.199997
  0
LINE
  8
0
 10
4.000008
 20
5.927383
 11
4.000008
 21
17.199997
  0
LINE
  8
0
 10
9.000004
 20
6.463322
 11
9.000004
 21
17.199997
  0
LINE
  8
0
 10
11.000004
 20
5.927422
 11
11.000004
 21
17.199997
  0
LINE
  8
0
 10
5.500004
 20
14.199989
 11
4.000004
 21
14.199989
  0
LINE
  8
0
 10
2.000004
 20
14.199989
 11
0.150005
 21
14.199989
  0
LINE
  8
0
 62
     2
 10
4.000004
 20
5.927385
 11
2.000007
 21
6.463283
  0
LINE
  8
0
 62
     2
 10
7.499991
 20
5.927392
 11
5.499994
 21
6.463290
  0
LINE
  8
0
 62
     2
 10
11.000006
 20
5.927413
 11
9.000002
 21
6.463312
  0
LINE
  8
0
 10
-30.000000
 20
13.000000
 11
-30.000000
 21
73.000000
  0
LINE
  8
0
 10
30.000002
 20
13.000000
 11
30.000002
 21
73.000000
  0
LINE
  8
0
 10
-30.000000
 20
12.999992
 11
2.000008
 21
12.999992
  0
LINE
  8
0
 10
-30.000000
 20
72.999992
 11
30.000000
 21
72.999992
  0
LINE
  8
0
 10
11.000004
 20
12.999992
 11
30.000002
 21
12.999992
  0
LINE
  8
0
 10
-17.832542
 20
19.499992
 11
17.832542
 21
19.499992
  0
LINE
  8
0
 10
0.150009
 20
14.199997
 11
0.150009
 21
19.500000
  0
LINE
  8
0
 10
12.850002
 20
14.199997
 11
12.850002
 21
19.500000
  0
LINE
  8
0
 10
4.000008
 20
11.899990
 11
5.500004
 21
11.899990
  0
LINE
  8
0
 10
17.133957
 20
26.499992
 11
18.866005
 21
26.499992
  0
LINE
  8
0
 10
18.865929
 20
26.499943
 11
19.731956
 21
24.999935
  0
LINE
  8
0
 10
19.732046
 20
24.999977
 11
18.866014
 21
23.499966
  0
LINE
  8
0
 10
18.866005
 20
23.499977
 11
17.133957
 21
23.499977
  0
LINE
  8
0
 10
17.133886
 20
23.499935
 11
16.267859
 21
24.999945
  0
LINE
  8
0
 10
16.267813
 20
25.000013
 11
17.133837
 21
26.500013
  0
LINE
  8
0
 10
-17.133957
 20
59.499992
 11
-18.866005
 21
59.499992
  0
LINE
  8
0
 10
-18.865902
 20
59.500042
 11
-19.731936
 21
61.000061
  0
LINE
  8
0
 10
-19.731936
 20
60.999939
 11
-18.865900
 21
62.499947
  0
LINE
  8
0
 10
-18.866005
 20
62.500008
 11
-17.133957
 21
62.500008
  0
LINE
  8
0
 10
-17.133867
 20
62.500038
 11
-16.267841
 21
61.000034
  0
LINE
  8
0
 10
-16.267992
 20
61.000057
 11
-17.134016
 21
59.500061
  0
LINE
  8
0
 10
-17.133957
 20
26.499992
 11
-18.866005
 21
26.499992
  0
LINE
  8
0
 10
-18.865858
 20
26.499907
 11
-19.731892
 21
24.999897
  0
LINE
  8
0
 10
-19.731981
 20
25.000031
 11
-18.865946
 21
23.500023
  0
LINE
  8
0
 10
-18.866005
 20
23.499977
 11
-17.133957
 21
23.499977
  0
LINE
  8
0
 10
-17.133833
 20
23.499891
 11
-16.267805
 21
24.999899
  0
LINE
  8
0
 10
-16.267927
 20
24.999962
 11
-17.133947
 21
26.499962
  0
LINE
  8
0
 10
-23.979342
 20
39.500015
 11
-21.958620
 21
43.000008
  0
LINE
  8
0
 10
-30.041521
 20
43.000011
 11
-28.020796
 21
46.500011
  0
LINE
  8
0
 10
-21.958643
 20
42.999958
 11
-23.979368
 21
46.499958
  0
LINE
  8
0
 10
-28.020821
 20
39.499950
 11
-30.041548
 21
42.999958
  0
LINE
  8
0
 10
-28.020737
 20
39.499985
 11
-23.979279
 21
39.499985
  0
LINE
  8
0
 10
-28.020737
 20
46.499985
 11
-23.979279
 21
46.499985
  0
LINE
  8
0
 10
-24.677132
 20
44.499985
 11
-27.322884
 21
44.499985
  0
LINE
  8
0
 10
-24.677132
 20
41.499985
 11
-27.322884
 21
41.499985
  0
LINE
  8
0
 10
17.133957
 20
59.499992
 11
18.866005
 21
59.499992
  0
LINE
  8
0
 10
18.865919
 20
59.500057
 11
19.731947
 21
61.000061
  0
LINE
  8
0
 10
19.732046
 20
61.000008
 11
18.866011
 21
62.500027
  0
LINE
  8
0
 10
18.866005
 20
62.500008
 11
17.133957
 21
62.500008
  0
LINE
  8
0
 10
17.133865
 20
62.500053
 11
16.267838
 21
61.000050
  0
LINE
  8
0
 10
16.267887
 20
61.000019
 11
17.133915
 21
59.500015
  0
LINE
  8
0
 10
0.000000
 20
49.499992
 11
0.000000
 21
66.499992
  0
LINE
  8
0
 10
9.000004
 20
11.899990
 11
7.500004
 21
11.899990
  0
LINE
  8
0
 10
27.000000
 20
31.115135
 11
27.000000
 21
54.884865
  0
LINE
  8
0
 10
18.000000
 20
55.999992
 11
26.481129
 21
55.999992
  0
LINE
  8
0
 10
18.000000
 20
29.999992
 11
26.481121
 21
29.999992
  0
LINE
  8
0
 10
13.000000
 20
24.999992
 11
13.000000
 21
19.499992
  0
LINE
  8
0
 10
13.000000
 20
60.999992
 11
13.000000
 21
66.499992
  0
LINE
  8
0
 10
0.000000
 20
36.499992
 11
0.000000
 21
19.499992
  0
LINE
  8
0
 10
-17.832542
 20
66.499992
 11
17.832542
 21
66.499992
  0
LINE
  8
0
 10
-13.500000
 20
27.999992
 11
-8.000000
 21
27.999992
  0
LINE
  8
0
 10
-13.500000
 20
27.999992
 11
-13.500000
 21
32.668003
  0
LINE
  8
0
 10
-1.000000
 20
26.029430
 11
-1.000000
 21
36.577377
  0
LINE
  8
0
 10
-13.500000
 20
57.999992
 11
-13.500000
 21
53.331985
  0
LINE
  8
0
 10
-13.500000
 20
57.999992
 11
-8.000000
 21
57.999992
  0
LINE
  8
0
 10
-1.000000
 20
59.970551
 11
-1.000000
 21
49.422607
  0
LINE
  8
0
  6
CENTER
 62
     2
 10
-25.000000
 20
73.000000
 11
-25.000000
 21
63.000000
  0
LINE
  8
0
  6
CENTER
 62
     2
 10
25.000004
 20
72.999992
 11
25.000004
 21
62.999992
  0
LINE
  8
0
  6
CENTER
 62
     2
 10
25.000004
 20
22.999992
 11
25.000004
 21
12.999992
  0
LINE
  8
0
  6
CENTER
 62
     2
 10
-25.000000
 20
22.999992
 11
-25.000000
 21
12.999992
  0
LINE
  8
0
  6
CENTER
 62
     2
 10
-30.000000
 20
17.999992
 11
-20.000000
 21
17.999992
  0
LINE
  8
0
  6
CENTER
 62
     2
 10
20.000004
 20
17.999992
 11
30.000004
 21
17.999992
  0
LINE
  8
0
  6
CENTER
 62
     2
 10
20.000004
 20
67.999992
 11
30.000004
 21
67.999992
  0
LINE
  8
0
  6
CENTER
 62
     2
 10
-30.000000
 20
68.000000
 11
-20.000000
 21
68.000000
  0
LINE
  8
0
 10
2.000004
 20
6.463291
 11
2.000004
 21
17.199997
  0
LINE
  8
0
 10
7.500004
 20
14.199989
 11
9.000004
 21
14.199989
  0
LINE
  8
0
 10
-126.000000
 20
73.000000
 11
-133.000000
 21
73.000000
  0
LINE
  8
0
 10
-125.999985
 20
13.000000
 11
-133.000000
 21
13.000000
  0
LINE
  8
0
 10
-126.000000
 20
73.000000
 11
-126.000000
 21
13.000000
  0
LINE
  8
0
 10
-116.662262
 20
28.499992
 11
-120.199997
 21
28.499992
  0
LINE
  8
0
 10
-116.000000
 20
21.499992
 11
-120.199997
 21
21.499992
  0
LINE
  8
0
 10
-116.000000
 20
28.101032
 11
-116.000000
 21
21.499996
  0
LINE
  8
0
 10
-105.000000
 20
66.500015
 11
-105.000000
 21
19.499996
  0
LINE
  8
0
 10
-115.500000
 20
54.154697
 11
-115.500000
 21
51.845295
  0
LINE
  8
0
 10
-111.500000
 20
54.154697
 11
-111.500000
 21
51.845303
  0
LINE
  8
0
 10
-115.500008
 20
54.154808
 11
-113.500008
 21
55.309509
  0
LINE
  8
0
 10
-113.500015
 20
50.690720
 11
-111.500008
 21
51.845425
  0
LINE
  8
0
 10
-113.500015
 20
55.309406
 11
-111.500015
 21
54.154705
  0
LINE
  8
0
 10
-115.500015
 20
51.845299
 11
-113.500023
 21
50.690605
  0
LINE
  8
0
 10
-116.662277
 20
57.499992
 11
-120.000000
 21
57.499992
  0
LINE
  8
0
 10
-116.000000
 20
64.500015
 11
-116.000000
 21
57.898975
  0
LINE
  8
0
 10
-121.000000
 20
19.499992
 11
-121.000000
 21
66.500008
  0
LINE
  8
0
 10
-120.199997
 20
20.999992
 11
-120.199997
 21
28.999992
  0
LINE
  8
0
 10
-120.199997
 20
20.999992
 11
-121.000000
 21
20.999992
  0
LINE
  8
0
 10
-120.199997
 20
28.999992
 11
-121.000000
 21
28.999992
  0
LINE
  8
0
 10
-120.199997
 20
65.000008
 11
-121.000000
 21
65.000008
  0
LINE
  8
0
 10
-120.199997
 20
57.000008
 11
-121.000000
 21
57.000008
  0
LINE
  8
0
 10
-120.199997
 20
65.000008
 11
-120.199997
 21
57.000008
  0
LINE
  8
0
 10
-117.799988
 20
39.500004
 11
-117.799988
 21
46.500004
  0
LINE
  8
0
 10
-114.500000
 20
41.500004
 11
-114.500000
 21
44.500004
  0
LINE
  8
0
 10
-117.500000
 20
44.500004
 11
-117.500000
 21
45.000004
  0
LINE
  8
0
 10
-117.500000
 20
45.000000
 11
-117.799988
 21
45.000000
  0
LINE
  8
0
 10
-120.199997
 20
65.000008
 11
-121.000000
 21
65.000008
  0
LINE
  8
0
 10
-113.500061
 20
35.309380
 11
-111.500061
 21
34.154678
  0
LINE
  8
0
 10
-115.500053
 20
34.154812
 11
-113.500069
 21
35.309505
  0
LINE
  8
0
 10
-115.500046
 20
31.845240
 11
-113.500046
 21
30.690538
  0
LINE
  8
0
 10
-113.500053
 20
30.690683
 11
-111.500053
 21
31.845385
  0
LINE
  8
0
 10
-111.500000
 20
31.845310
 11
-111.500000
 21
34.154705
  0
LINE
  8
0
 10
-115.500000
 20
31.845310
 11
-115.500000
 21
34.154713
  0
LINE
  8
0
 10
-116.000000
 20
64.500008
 11
-120.000000
 21
64.500008
  0
LINE
  8
0
 10
-117.799988
 20
39.500000
 11
-121.000000
 21
39.500000
  0
LINE
  8
0
 10
-117.799988
 20
46.500000
 11
-121.000000
 21
46.500000
  0
LINE
  8
0
 10
-114.500000
 20
44.500000
 11
-117.500000
 21
44.500000
  0
LINE
  8
0
 10
-114.500000
 20
41.500000
 11
-117.500000
 21
41.500000
  0
LINE
  8
0
 10
-117.500000
 20
41.500004
 11
-117.500000
 21
41.000004
  0
LINE
  8
0
 10
-117.500000
 20
41.000000
 11
-117.799988
 21
41.000000
  0
LINE
  8
0
 10
-126.000000
 20
19.499992
 11
-105.000000
 21
19.499992
  0
LINE
  8
0
 10
-126.000000
 20
66.500008
 11
-105.000000
 21
66.500008
  0
LINE
  8
0
 10
-121.000000
 20
43.000000
 11
-118.202805
 21
43.000000
  0
LINE
  8
0
 10
-125.000000
 20
14.199993
 11
-125.000000
 21
19.499992
  0
LINE
  8
0
 10
-110.000000
 20
15.849991
 11
-104.500000
 21
15.849991
  0
LINE
  8
0
 62
     2
 10
-101.500015
 20
5.927393
 11
-103.500000
 21
6.463290
  0
LINE
  8
0
 10
-110.000000
 20
17.849991
 11
-104.500000
 21
17.849991
  0
LINE
  8
0
 10
-103.500000
 20
14.849995
 11
-103.500000
 21
5.927444
  0
LINE
  8
0
 10
-110.000000
 20
19.499996
 11
-110.000000
 21
14.199997
  0
LINE
  8
0
 10
-101.500000
 20
14.849995
 11
-101.500000
 21
6.463341
  0
LINE
  8
0
 10
-125.000000
 20
14.199993
 11
-110.000000
 21
14.199993
  0
LINE
  8
0
 10
-106.000000
 20
26.029434
 11
-106.000000
 21
59.970570
  0
LINE
  8
0
 10
-121.000000
 20
28.499992
 11
-121.000000
 21
39.500000
  0
LINE
  8
0
 10
-116.000000
 20
26.029430
 11
-106.000000
 21
26.029430
  0
LINE
  8
0
 10
-121.000000
 20
57.500008
 11
-121.000000
 21
46.500000
  0
LINE
  8
0
 10
-116.000000
 20
59.970566
 11
-106.000000
 21
59.970566
  0
LINE
  8
0
 10
-120.399994
 20
11.899994
 11
-116.399994
 21
11.899994
  0
LINE
  8
0
 10
-120.399994
 20
14.199993
 11
-120.399994
 21
11.899994
  0
LINE
  8
0
 10
-116.399994
 20
14.199997
 11
-116.399994
 21
11.899998
  0
LINE
  8
0
  6
CENTER
 62
     2
 10
-100.402344
 20
43.000000
 11
-139.001450
 21
43.000000
  0
LINE
  8
0
 10
-133.000000
 20
73.000000
 11
-133.000000
 21
13.000000
  0
LINE
  8
0
  6
CENTER
 62
     2
 10
-124.855118
 20
68.000000
 11
-135.329208
 21
68.000000
  0
LINE
  8
0
  6
CENTER
 62
     2
 10
-123.545853
 20
18.000000
 11
-135.516235
 21
18.000000
  0
LINE
  8
0
 10
120.000000
 20
14.199993
 11
120.000000
 21
19.499992
  0
LINE
  8
0
 10
105.000000
 20
15.849991
 11
99.500000
 21
15.849991
  0
LINE
  8
0
 62
     2
 10
98.500000
 20
5.927415
 11
96.499992
 21
6.463315
  0
LINE
  8
0
 10
128.000000
 20
73.000000
 11
128.000000
 21
13.000000
  0
LINE
  8
0
 10
121.000000
 20
73.000000
 11
128.000000
 21
73.000000
  0
LINE
  8
0
 10
120.999985
 20
13.000000
 11
128.000000
 21
13.000000
  0
LINE
  8
0
  6
CENTER
 62
     2
 10
96.517258
 20
43.000000
 11
132.116104
 21
43.000000
  0
LINE
  8
0
 10
121.000000
 20
73.000000
 11
121.000000
 21
13.000000
  0
LINE
  8
0
 10
105.000000
 20
17.849991
 11
99.500000
 21
17.849991
  0
LINE
  8
0
 10
98.500000
 20
14.849991
 11
98.500000
 21
5.927441
  0
LINE
  8
0
 10
105.000000
 20
19.499992
 11
105.000000
 21
14.199993
  0
LINE
  8
0
 10
96.500000
 20
14.849991
 11
96.500000
 21
6.463337
  0
LINE
  8
0
 10
111.199997
 20
21.499992
 11
115.199997
 21
21.499992
  0
LINE
  8
0
 10
111.199997
 20
28.499992
 11
111.199997
 21
21.499992
  0
LINE
  8
0
 10
115.199997
 20
20.999992
 11
115.199997
 21
28.999992
  0
LINE
  8
0
 10
111.199997
 20
28.499992
 11
115.199997
 21
28.499992
  0
LINE
  8
0
 10
111.199997
 20
64.499992
 11
115.199997
 21
64.499992
  0
LINE
  8
0
 10
120.000000
 20
14.199993
 11
105.000000
 21
14.199993
  0
LINE
  8
0
 10
111.199997
 20
57.499992
 11
115.199997
 21
57.499992
  0
LINE
  8
0
 10
111.199997
 20
64.499992
 11
111.199997
 21
57.499992
  0
LINE
  8
0
 10
115.199997
 20
20.999992
 11
116.000000
 21
20.999992
  0
LINE
  8
0
 10
115.199997
 20
28.999992
 11
116.000000
 21
28.999992
  0
LINE
  8
0
 10
115.199997
 20
65.000008
 11
116.000000
 21
65.000008
  0
LINE
  8
0
 10
115.199997
 20
65.000008
 11
115.199997
 21
57.000008
  0
LINE
  8
0
 10
115.199997
 20
57.000008
 11
116.000000
 21
57.000008
  0
LINE
  8
0
 10
116.000000
 20
56.000008
 11
116.000000
 21
66.500008
  0
LINE
  8
0
 10
100.000000
 20
19.499992
 11
121.000000
 21
19.499992
  0
LINE
  8
0
 10
100.000000
 20
31.115135
 11
121.000000
 21
31.115135
  0
LINE
  8
0
 10
100.000000
 20
66.500008
 11
121.000000
 21
66.500008
  0
LINE
  8
0
 10
100.000000
 20
56.000008
 11
116.000000
 21
56.000008
  0
LINE
  8
0
 10
100.000000
 20
54.884865
 11
121.000000
 21
54.884865
  0
LINE
  8
0
 10
100.000000
 20
29.999992
 11
116.000000
 21
29.999992
  0
LINE
  8
0
 10
116.000000
 20
29.999992
 11
116.000000
 21
19.499992
  0
LINE
  8
0
 10
100.000000
 20
66.500008
 11
100.000000
 21
19.499992
  0
LINE
  8
0
 10
115.400002
 20
11.899994
 11
111.400002
 21
11.899994
  0
LINE
  8
0
 10
115.400002
 20
14.199993
 11
115.400002
 21
11.899994
  0
LINE
  8
0
 10
111.400002
 20
14.199993
 11
111.400002
 21
11.899994
  0
LINE
  8
0
  6
CENTER
 62
     2
 10
119.508217
 20
68.000000
 11
129.644470
 21
68.000000
  0
LINE
  8
0
  6
CENTER
 62
     2
 10
118.459641
 20
18.000000
 11
129.120178
 21
18.000000
  0
LINE
  8
0
  6
CENTER
 62
     2
 10
105.000000
 20
51.000000
 11
111.000000
 21
51.000000
  0
LINE
  8
0
  6
CENTER
 62
     2
 10
105.000000
 20
35.000000
 11
111.000000
 21
35.000000
  0
LINE
  8
0
  6
CENTER
 62
     2
 10
108.000000
 20
38.000000
 11
108.000000
 21
32.000000
  0
LINE
  8
0
  6
CENTER
 62
     2
 10
108.000000
 20
54.000000
 11
108.000000
 21
48.000000
  0
LINE
  8
0
  6
CENTER
 62
     2
 10
108.000000
 20
47.000000
 11
108.000000
 21
39.000000
  0
LINE
  8
0
 10
-30.000000
 20
-90.000000
 11
30.000000
 21
-90.000000
  0
LINE
  8
0
 10
-30.000000
 20
-82.999969
 11
-30.000000
 21
-89.999969
  0
LINE
  8
0
 10
30.000002
 20
-83.000015
 11
30.000002
 21
-90.000031
  0
LINE
  8
0
  6
CENTER
 62
     2
 10
0.000000
 20
-58.463387
 11
0.000000
 21
-93.251953
  0
LINE
  8
0
 10
0.000027
 20
-65.399994
 11
13.000027
 21
-65.399994
  0
LINE
  8
0
 10
7.499992
 20
-56.000011
 11
7.499992
 21
-65.400002
  0
LINE
  8
0
 10
5.499992
 20
-56.000011
 11
5.499992
 21
-65.400002
  0
LINE
  8
0
 10
8.999992
 20
-56.000011
 11
8.999992
 21
-65.400002
  0
LINE
  8
0
 10
3.749996
 20
-56.000011
 11
3.749996
 21
-65.400002
  0
LINE
  8
0
 10
10.999992
 20
-56.000011
 11
10.999992
 21
-65.400002
  0
LINE
  8
0
 10
1.749996
 20
-56.000004
 11
1.749996
 21
-65.399994
  0
LINE
  8
0
 10
9.600014
 20
-74.995842
 11
9.600014
 21
-75.804131
  0
LINE
  8
0
 10
8.899971
 20
-74.591896
 11
9.599969
 21
-74.996040
  0
LINE
  8
0
 10
8.200010
 20
-74.995811
 11
8.900009
 21
-74.591667
  0
LINE
  8
0
 10
8.200020
 20
-75.804146
 11
8.200020
 21
-74.995857
  0
LINE
  8
0
 10
8.899994
 20
-76.208366
 11
8.199996
 21
-75.804222
  0
LINE
  8
0
 10
9.599989
 20
-75.804123
 11
8.899990
 21
-76.208260
  0
LINE
  8
0
 10
4.099984
 20
-76.208336
 11
3.399985
 21
-75.804192
  0
LINE
  8
0
 10
4.799984
 20
-75.804100
 11
4.099986
 21
-76.208244
  0
LINE
  8
0
 10
4.800011
 20
-74.995857
 11
4.800011
 21
-75.804146
  0
LINE
  8
0
 10
4.099967
 20
-74.591843
 11
4.799965
 21
-74.995987
  0
LINE
  8
0
 10
3.400015
 20
-74.995842
 11
4.100014
 21
-74.591698
  0
LINE
  8
0
 10
3.400021
 20
-75.804138
 11
3.400021
 21
-74.995850
  0
LINE
  8
0
 10
12.849998
 20
-65.400009
 11
12.849998
 21
-82.000015
  0
LINE
  8
0
 10
-29.999992
 20
-83.000000
 11
30.000010
 21
-83.000000
  0
LINE
  8
0
 10
-14.500000
 20
-73.199982
 11
-14.500000
 21
-77.199989
  0
LINE
  8
0
 10
-21.500000
 20
-73.199974
 11
-21.500000
 21
-77.199982
  0
LINE
  8
0
 10
-14.499985
 20
-73.199997
 11
-21.499985
 21
-73.199997
  0
LINE
  8
0
 10
3.750023
 20
-62.000000
 11
5.500019
 21
-62.000000
  0
LINE
  8
0
 10
7.500019
 20
-62.000000
 11
9.000019
 21
-62.000000
  0
LINE
  8
0
 10
11.000019
 20
-62.000000
 11
27.000027
 21
-62.000000
  0
LINE
  8
0
 10
21.500000
 20
-73.200020
 11
21.500000
 21
-77.200027
  0
LINE
  8
0
 10
14.500000
 20
-73.200012
 11
14.500000
 21
-77.200020
  0
LINE
  8
0
 10
21.500015
 20
-73.199997
 11
14.500015
 21
-73.199997
  0
LINE
  8
0
 10
-21.999985
 20
-77.199997
 11
-13.999989
 21
-77.199997
  0
LINE
  8
0
 10
-29.500000
 20
-77.999969
 11
-29.500000
 21
-82.999969
  0
LINE
  8
0
 10
-30.041542
 20
-78.000000
 11
0.000011
 21
-78.000000
  0
LINE
  8
0
 10
27.000011
 20
-78.000000
 11
12.850010
 21
-78.000000
  0
LINE
  8
0
 10
-22.000000
 20
-77.199974
 11
-22.000000
 21
-77.999977
  0
LINE
  8
0
 10
-14.000000
 20
-77.199982
 11
-14.000000
 21
-77.999985
  0
LINE
  8
0
 10
22.000000
 20
-77.200020
 11
22.000000
 21
-78.000023
  0
LINE
  8
0
 10
22.000011
 20
-77.199997
 11
14.000011
 21
-77.199997
  0
LINE
  8
0
 10
14.000000
 20
-77.200012
 11
14.000000
 21
-78.000015
  0
LINE
  8
0
 10
-12.500000
 20
-74.499969
 11
-12.500000
 21
-66.500015
  0
LINE
  8
0
 10
-11.500000
 20
-65.500015
 11
-11.500000
 21
-75.499985
  0
LINE
  8
0
 10
-11.499985
 20
-75.500000
 11
-9.708694
 21
-75.500000
  0
LINE
  8
0
 10
-12.499955
 20
-74.499977
 11
-11.499952
 21
-75.499969
  0
LINE
  8
0
 10
-1.000000
 20
-63.000000
 11
-1.000000
 21
-78.000000
  0
LINE
  8
0
 10
17.832542
 20
-78.000015
 11
17.832542
 21
-83.000015
  0
LINE
  8
0
 10
13.000000
 20
-62.000015
 11
13.000000
 21
-65.400009
  0
LINE
  8
0
 10
27.000000
 20
-62.000031
 11
27.000000
 21
-83.000031
  0
LINE
  8
0
 10
1.750023
 20
-62.000000
 11
0.000027
 21
-62.000000
  0
LINE
  8
0
 10
0.000000
 20
-82.000000
 11
0.000000
 21
-62.000000
  0
LINE
  8
0
 10
17.832542
 20
-78.000015
 11
17.832542
 21
-83.000015
  0
LINE
  8
0
 10
-17.832542
 20
-77.999985
 11
-17.832542
 21
-82.999985
  0
LINE
  8
0
 10
0.000008
 20
-82.000000
 11
12.850006
 21
-82.000000
  0
LINE
  8
0
 10
-11.499973
 20
-65.500008
 11
-9.708679
 21
-65.500008
  0
LINE
  8
0
 10
-12.499950
 20
-66.500000
 11
-11.499948
 21
-65.500000
  0
LINE
  8
0
 10
-16.999969
 20
-63.000000
 11
0.000027
 21
-63.000000
  0
LINE
  8
0
 10
-17.000000
 20
-62.999985
 11
-17.000000
 21
-73.199982
  0
LINE
  8
0
  6
CENTER
 62
     2
 10
-25.000000
 20
-81.402107
 11
-25.000000
 21
-91.449516
  0
LINE
  8
0
  6
CENTER
 62
     2
 10
25.000002
 20
-81.067238
 11
25.000002
 21
-91.672844
  0
LINE
  8
0
 10
-30.041542
 20
-74.800003
 11
-30.041542
 21
-78.000000
  0
LINE
  8
0
 10
-21.958612
 20
-74.800003
 11
-21.958612
 21
-77.199997
  0
LINE
  8
0
 10
-30.041542
 20
-74.800003
 11
-21.958612
 21
-74.800003
  0
LINE
  8
0
 10
-28.000008
 20
-71.500000
 11
-24.000008
 21
-71.500000
  0
LINE
  8
0
 10
-27.322884
 20
-74.500000
 11
-24.677132
 21
-74.500000
  0
LINE
  8
0
 10
-28.020737
 20
-74.800003
 11
-28.020737
 21
-78.000000
  0
LINE
  8
0
 10
-23.979279
 20
-74.800003
 11
-23.979279
 21
-78.000000
  0
LINE
  8
0
 10
-24.000008
 20
-71.500000
 11
-24.000008
 21
-74.800003
  0
LINE
  8
0
 10
-28.000008
 20
-71.500000
 11
-28.000008
 21
-74.800003
  0
LINE
  8
0
 10
-24.677132
 20
-71.500000
 11
-24.677132
 21
-74.500000
  0
LINE
  8
0
 10
-27.322884
 20
-71.500000
 11
-27.322884
 21
-74.500000
  0
CIRCLE
  8
0
 10
-18.000000
 20
60.999992
 40
4.000000
  0
CIRCLE
  8
0
 10
-18.000000
 20
24.999992
 40
4.000000
  0
ARC
  8
0
 10
0.000000
 20
42.999992
 40
17.000000
 50
93.372307
 51
266.627686
  0
CIRCLE
  8
0
 10
0.000000
 20
42.999992
 40
6.500000
  0
ARC
  8
0
 10
3.000004
 20
17.199997
 40
1.000000
 50
0.000000
 51
180.000000
  0
ARC
  8
0
 10
6.500004
 20
17.199997
 40
1.000000
 50
0.000000
 51
180.000000
  0
ARC
  8
0
 10
10.000004
 20
17.199997
 40
1.000000
 50
0.000000
 51
180.000000
  0
CIRCLE
  8
0
 10
-25.000000
 20
18.000000
 40
2.250000
  0
CIRCLE
  8
0
 10
-25.000000
 20
68.000000
 40
2.250000
  0
CIRCLE
  8
0
 10
25.000002
 20
68.000000
 40
2.250000
  0
CIRCLE
  8
0
 10
24.999998
 20
18.000000
 40
2.250000
  0
CIRCLE
  8
0
 10
-25.000000
 20
67.999992
 40
4.000000
  0
CIRCLE
  8
0
 10
-25.000000
 20
17.999992
 40
4.000000
  0
CIRCLE
  8
0
 10
25.000004
 20
67.999992
 40
4.000000
  0
CIRCLE
  8
0
 10
25.000004
 20
17.999992
 40
4.000000
  0
CIRCLE
  8
0
 10
-26.000008
 20
42.999992
 40
2.000000
  0
CIRCLE
  8
0
 62
     2
 10
-26.000008
 20
42.999992
 40
1.120000
  0
CIRCLE
  8
0
 10
-26.000008
 20
42.999992
 40
3.500000
  0
ARC
  8
0
 10
-0.000008
 20
42.999992
 40
29.500000
 50
181.875046
 51
232.807587
  0
ARC
  8
0
 10
-0.000008
 20
42.999992
 40
29.500002
 50
23.758110
 51
52.807606
  0
ARC
  8
0
 10
0.000000
 20
43.000000
 40
29.500000
 50
307.192383
 51
336.241852
  0
ARC
  8
0
 10
18.000000
 20
24.999992
 40
5.000000
 50
89.999977
 51
179.999954
  0
CIRCLE
  8
0
 10
18.000000
 20
24.999992
 40
4.000000
  0
ARC
  8
0
 10
18.000000
 20
60.999992
 40
5.000000
 50
180.000000
 51
270.000031
  0
CIRCLE
  8
0
 10
18.000000
 20
60.999992
 40
4.000000
  0
ARC
  8
0
 10
-0.000008
 20
42.999992
 40
29.499998
 50
127.192413
 51
178.124939
  0
CIRCLE
  8
0
 10
-113.500000
 20
33.000011
 40
5.500000
  0
CIRCLE
  8
0
 10
-113.500000
 20
52.999996
 40
5.500000
  0
ARC
  8
0
 10
-121.802750
 20
41.250000
 40
4.002762
 50
334.074768
 51
25.925245
  0
ARC
  8
0
 10
-104.500000
 20
14.849995
 40
3.000000
 50
359.999939
 51
90.000000
  0
ARC
  8
0
 10
-104.500000
 20
14.849995
 40
1.000000
 50
359.999939
 51
90.000000
  0
ARC
  8
0
 10
-121.802750
 20
44.750000
 40
4.002762
 50
334.074768
 51
25.925245
  0
CIRCLE
  8
0
 62
     2
 10
108.000000
 20
51.000000
 40
2.000000
  0
CIRCLE
  8
0
 10
108.000000
 20
51.000000
 40
1.400000
  0
CIRCLE
  8
0
 10
108.000000
 20
43.000000
 40
3.000000
  0
CIRCLE
  8
0
 10
108.000000
 20
43.000000
 40
2.000000
  0
ARC
  8
0
 10
99.500000
 20
14.849991
 40
1.000000
 50
90.000000
 51
180.000000
  0
ARC
  8
0
 10
99.500000
 20
14.849991
 40
3.000000
 50
90.000000
 51
180.000015
  0
CIRCLE
  8
0
 62
     2
 10
108.000000
 20
35.000000
 40
2.000000
  0
CIRCLE
  8
0
 10
108.000000
 20
35.000000
 40
1.400000
  0
CIRCLE
  8
0
 10
4.100014
 20
-75.399994
 40
2.000000
  0
CIRCLE
  8
0
 10
8.900017
 20
-75.400002
 40
2.000000
  0
CIRCLE
  8
0
 10
2.750031
 20
-56.000008
 40
1.000000
  0
CIRCLE
  8
0
 10
6.500027
 20
-56.000008
 40
1.000000
  0
CIRCLE
  8
0
 10
10.000019
 20
-56.000015
 40
1.000000
  0
CIRCLE
  8
0
 10
2.750031
 20
-56.000008
 40
0.500000
  0
CIRCLE
  8
0
 10
6.500027
 20
-56.000008
 40
0.500000
  0
CIRCLE
  8
0
 10
10.000019
 20
-56.000015
 40
0.500000
  0
ARC
  8
0
 10
-11.999981
 20
-70.499992
 40
5.500000
 50
242.964294
 51
155.380066
  0
ARC
  8
0
 10
-29.031139
 20
-76.268654
 40
1.468655
 50
46.529728
 51
133.470276
  0
ARC
  8
0
 10
-26.000008
 20
-80.070038
 40
5.270039
 50
67.453239
 51
112.546776
  0
ARC
  8
0
 10
-22.968945
 20
-76.268478
 40
1.468479
 50
46.527016
 51
133.473038
  0
TEXT
  8
0
 10
115.907150
 20
122.050003
 40
4.500000
  1
DATE : MAY ,1993
 50
0.000000
 41
1.052631
 51
0.000000
  7
STANDARD
  0
TEXT
  8
0
 10
113.700279
 20
-130.669998
 40
6.300000
  1
KOGANEI CORP.
 50
0.000000
 41
1.052632
 51
0.000000
  7
STANDARD
  0
TEXT
  8
0
 10
-185.892654
 20
122.050003
 40
4.500000
  1
HANDLING MODULE
 50
0.000000
 41
1.052632
 51
0.000000
  7
STANDARD
  0
TEXT
  8
0
 10
-186.892654
 20
104.550003
 40
4.500000
  1
MODEL:SHM11S-13
 50
0.000000
 41
1.052632
 51
0.000000
  7
STANDARD
  0
ENDSEC
  0
EOF
