  0
SECTION
  2
HEADER
  0
ENDSEC
  0
SECTION
  2
TABLES
  0
TABLE
  2
LTYPE
 70
     4
  0
LTYPE
  2
CONTINUOUS
 70
    64
  3
Solid line
 72
    65
 73
     0
 40
0.000000
  0
LTYPE
  2
DASHED
 70
    64
  3
__ __ __ __ __ __ __ __ __ __ __ __ __ __ __
 72
    65
 73
     2
 40
3.500000
 49
2.000000
 49
-1.500000
  0
LTYPE
  2
CENTER
 70
    64
  3
____ _ ____ _ ____ _ ____ _ ____ _ ____ _ ____
 72
    65
 73
     4
 40
17.500000
 49
13.000000
 49
-1.500000
 49
1.500000
 49
-1.500000
  0
LTYPE
  2
PHANTOM
 70
    64
  3
_____ _ _ _____ _ _ _____ _ _ _____ _ _ ____  
 72
    65
 73
     6
 40
15.500000
 49
8.000000
 49
-1.500000
 49
1.500000
 49
-1.500000
 49
1.500000
 49
-1.500000
  0
LTYPE
  2
DASHED1
 70
    64
  3
__ __ __ __ __ __ __ __ __ __ __ __ __ __ __
 72
    65
 73
     2
 40
1.500000
 49
1.000000
 49
-0.500000
  0
LTYPE
  2
DASHED2
 70
    64
  3
__ __ __ __ __ __ __ __ __ __ __ __ __ __ __
 72
    65
 73
     2
 40
3.500000
 49
2.500000
 49
-1.000000
  0
LTYPE
  2
DASHED3
 70
    64
  3
__ __ __ __ __ __ __ __ __ __ __ __ __ __ __
 72
    65
 73
     2
 40
6.000000
 49
4.000000
 49
-2.000000
  0
LTYPE
  2
DASHED4
 70
    64
  3
__ __ __ __ __ __ __ __ __ __ __ __ __ __ __
 72
    65
 73
     2
 40
12.000000
 49
10.000000
 49
-2.000000
  0
LTYPE
  2
DASHED5
 70
    64
  3
__ __ __ __ __ __ __ __ __ __ __ __ __ __ __
 72
    65
 73
     2
 40
17.000000
 49
15.000000
 49
-2.000000
  0
LTYPE
  2
DASHED6
 70
    64
  3
__ __ __ __ __ __ __ __ __ __ __ __ __ __ __
 72
    65
 73
     2
 40
29.000000
 49
27.000000
 49
-2.000000
  0
LTYPE
  2
PHANTOM1
 70
    64
  3
_____ _ _ _____ _ _ _____ _ _ _____ _ _ ____  
 72
    65
 73
     6
 40
31.000000
 49
25.000000
 49
-1.500000
 49
1.000000
 49
-1.000000
 49
1.000000
 49
-1.500000
  0
LTYPE
  2
PHANTOM2
 70
    64
  3
_____ _ _ _____ _ _ _____ _ _ _____ _ _ ____  
 72
    65
 73
     6
 40
36.000000
 49
27.000000
 49
-1.500000
 49
2.500000
 49
-1.000000
 49
2.500000
 49
-1.500000
  0
LTYPE
  2
PHANTOM3
 70
    64
  3
_____ _ _ _____ _ _ _____ _ _ _____ _ _ ____  
 72
    65
 73
     6
 40
78.000000
 49
64.000000
 49
-2.000000
 49
4.000000
 49
-2.000000
 49
4.000000
 49
-2.000000
  0
LTYPE
  2
CENTER1
 70
    64
  3
____ _ ____ _ ____ _ ____ _ ____ _ ____ _ ____
 72
    65
 73
     4
 40
19.000000
 49
14.000000
 49
-1.000000
 49
3.000000
 49
-1.000000
  0
LTYPE
  2
CENTER2
 70
    64
  3
____ _ ____ _ ____ _ ____ _ ____ _ ____ _ ____
 72
    65
 73
     4
 40
28.500000
 49
25.000000
 49
-1.000000
 49
1.500000
 49
-1.000000
  0
LTYPE
  2
CENTER3
 70
    64
  3
____ _ ____ _ ____ _ ____ _ ____ _ ____ _ ____
 72
    65
 73
     4
 40
31.500000
 49
27.000000
 49
-1.000000
 49
2.500000
 49
-1.000000
  0
LTYPE
  2
CENTER4
 70
    64
  3
____ _ ____ _ ____ _ ____ _ ____ _ ____ _ ____
 72
    65
 73
     4
 40
50.000000
 49
45.000000
 49
-1.000000
 49
3.000000
 49
-1.000000
  0
LTYPE
  2
CENTER5
 70
    64
  3
____ _ ____ _ ____ _ ____ _ ____ _ ____ _ ____
 72
    65
 73
     4
 40
100.000000
 49
92.000000
 49
-2.000000
 49
4.000000
 49
-2.000000
  0
LTYPE
  2
SBK1
 70
    64
  3
______ _ _ _ ______ _ _ _ ______ _ _ _ _____  
 72
    65
 73
     8
 40
60.500000
 49
45.000000
 49
-2.000000
 49
2.500000
 49
-2.000000
 49
2.500000
 49
-2.000000
 49
2.500000
 49
-2.000000
  0
LTYPE
  2
SBK2
 70
    64
  3
______ _ _ _ ______ _ _ _ ______ _ _ _ _____  
 72
    65
 73
     8
 40
84.000000
 49
64.000000
 49
-2.000000
 49
4.000000
 49
-2.000000
 49
4.000000
 49
-2.000000
 49
4.000000
 49
-2.000000
  0
LTYPE
  2
STCH
 70
    64
  3
__ __ __ __ __ __ __ __ __ __ __ __ __ __ __
 72
    65
 73
     2
 40
3.000000
 49
1.000000
 49
-2.000000
  0
LTYPE
  2
MTCH
 70
    64
  3
_____ _ _ _____ _ _ _____ _ _ _____ _ _ ____  
 72
    65
 73
     6
 40
80.000000
 49
66.000000
 49
-2.000000
 49
4.000000
 49
-2.000000
 49
4.000000
 49
-2.000000
  0
ENDTAB
  0
TABLE
  2
LAYER
 70
     1
  0
LAYER
  2
0
 70
     0
 62
     7
  6
CONTINUOUS
  0
ENDTAB
  0
TABLE
  2
STYLE
 70
     1
  0
STYLE
  2
STANDARD
 70
     0
 40
0.000000
 41
1.000000
 50
0.000000
 71
     0
 42
0.200000
  3
txt
  4
BIGFONT
  0
ENDTAB
  0
TABLE
  2
VIEW
 70
     0
  0
ENDTAB
  0
ENDSEC
  0
SECTION
  2
BLOCKS
  0
ENDSEC
  0
SECTION
  2
ENTITIES
  0
LINE
  8
0
 10
-194.250000
 20
132.600006
 11
194.800003
 21
132.600006
  0
LINE
  8
0
 10
194.800003
 20
132.600006
 11
194.800003
 21
-133.500000
  0
LINE
  8
0
 10
-194.250000
 20
132.600006
 11
-194.250000
 21
-133.500000
  0
LINE
  8
0
 10
-194.250000
 20
-133.500000
 11
194.800003
 21
-133.500000
  0
LINE
  8
0
 10
109.800003
 20
-118.500000
 11
109.800003
 21
-133.500000
  0
LINE
  8
0
 10
109.800003
 20
-118.500000
 11
194.800003
 21
-118.500000
  0
LINE
  8
0
 10
109.800003
 20
132.600006
 11
109.800003
 21
117.600006
  0
LINE
  8
0
 10
109.800003
 20
117.600006
 11
194.800003
 21
117.600006
  0
LINE
  8
0
 10
-194.250000
 20
117.600006
 11
-109.250000
 21
117.600006
  0
LINE
  8
0
 10
-109.250000
 20
132.600006
 11
-109.250000
 21
117.600006
  0
LINE
  8
0
  6
CENTER
 62
     2
 10
-34.781418
 20
37.999992
 11
35.689381
 21
37.999992
  0
LINE
  8
0
 10
12.850002
 20
9.199989
 11
11.000004
 21
9.199989
  0
LINE
  8
0
 10
7.500004
 20
0.927402
 11
7.500004
 21
12.199997
  0
LINE
  8
0
 10
5.500004
 20
1.463299
 11
5.500004
 21
12.199997
  0
LINE
  8
0
 10
4.000008
 20
0.927391
 11
4.000008
 21
12.199997
  0
LINE
  8
0
 10
9.000004
 20
1.463329
 11
9.000004
 21
12.199997
  0
LINE
  8
0
 10
11.000004
 20
0.927429
 11
11.000004
 21
12.199997
  0
LINE
  8
0
 10
2.000008
 20
1.463291
 11
2.000008
 21
12.199997
  0
LINE
  8
0
 10
9.000004
 20
9.199989
 11
7.500004
 21
9.199989
  0
LINE
  8
0
 62
     2
 10
4.000002
 20
0.927394
 11
2.000006
 21
1.463292
  0
LINE
  8
0
 62
     2
 10
7.499995
 20
0.927387
 11
5.499997
 21
1.463285
  0
LINE
  8
0
 62
     2
 10
11.000005
 20
0.927417
 11
9.000000
 21
1.463317
  0
LINE
  8
0
 10
-30.000000
 20
8.000000
 11
-30.000000
 21
68.000000
  0
LINE
  8
0
 10
-30.000000
 20
7.999992
 11
2.000008
 21
7.999992
  0
LINE
  8
0
 10
-30.000000
 20
67.999992
 11
30.000000
 21
67.999992
  0
LINE
  8
0
 10
11.000004
 20
7.999992
 11
30.000002
 21
7.999992
  0
LINE
  8
0
 10
-17.832542
 20
14.499992
 11
17.832542
 21
14.499992
  0
LINE
  8
0
 10
0.150009
 20
9.199997
 11
0.150009
 21
14.500000
  0
LINE
  8
0
 10
12.850002
 20
9.199997
 11
12.850002
 21
14.500000
  0
LINE
  8
0
 10
4.000008
 20
7.999992
 11
5.500004
 21
7.999992
  0
LINE
  8
0
 10
17.133957
 20
21.499992
 11
18.866005
 21
21.499992
  0
LINE
  8
0
 10
18.865932
 20
21.499950
 11
19.731962
 21
19.999937
  0
LINE
  8
0
 10
19.732037
 20
19.999973
 11
18.866003
 21
18.499962
  0
LINE
  8
0
 10
18.866005
 20
18.499977
 11
17.133957
 21
18.499977
  0
LINE
  8
0
 10
17.133888
 20
18.499943
 11
16.267860
 21
19.999952
  0
LINE
  8
0
 10
16.267815
 20
20.000010
 11
17.133839
 21
21.500011
  0
LINE
  8
0
 10
-17.133957
 20
54.499992
 11
-18.866005
 21
54.499992
  0
LINE
  8
0
 10
-18.865915
 20
54.500050
 11
-19.731941
 21
56.000053
  0
LINE
  8
0
 10
-19.731918
 20
55.999950
 11
-18.865881
 21
57.499958
  0
LINE
  8
0
 10
-18.866005
 20
57.500008
 11
-17.133957
 21
57.500008
  0
LINE
  8
0
 10
-17.133867
 20
57.500050
 11
-16.267839
 21
56.000046
  0
LINE
  8
0
 10
-16.267994
 20
56.000065
 11
-17.134016
 21
54.500065
  0
LINE
  8
0
 10
-17.133957
 20
21.499992
 11
-18.866005
 21
21.499992
  0
LINE
  8
0
 10
-18.865870
 20
21.499908
 11
-19.731901
 21
19.999901
  0
LINE
  8
0
 10
-19.731995
 20
20.000021
 11
-18.865959
 21
18.500013
  0
LINE
  8
0
 10
-18.866005
 20
18.499977
 11
-17.133957
 21
18.499977
  0
LINE
  8
0
 10
-17.133844
 20
18.499893
 11
-16.267815
 21
19.999901
  0
LINE
  8
0
 10
-16.267921
 20
19.999958
 11
-17.133942
 21
21.499958
  0
LINE
  8
0
 10
-23.979364
 20
34.500023
 11
-21.958643
 21
38.000015
  0
LINE
  8
0
 10
-30.041510
 20
38.000015
 11
-28.020784
 21
41.500015
  0
LINE
  8
0
 10
-21.958641
 20
37.999954
 11
-23.979362
 21
41.499947
  0
LINE
  8
0
 10
-28.020828
 20
34.499954
 11
-30.041550
 21
37.999947
  0
LINE
  8
0
 10
-28.020737
 20
34.499985
 11
-23.979279
 21
34.499985
  0
LINE
  8
0
 10
-28.020737
 20
41.499985
 11
-23.979279
 21
41.499985
  0
LINE
  8
0
 10
-24.677132
 20
39.499985
 11
-27.322884
 21
39.499985
  0
LINE
  8
0
 10
-24.677132
 20
36.499985
 11
-27.322884
 21
36.499985
  0
LINE
  8
0
 10
17.133957
 20
54.499992
 11
18.866005
 21
54.499992
  0
LINE
  8
0
 10
18.865894
 20
54.500057
 11
19.731918
 21
56.000057
  0
LINE
  8
0
 10
19.732056
 20
55.999992
 11
18.866024
 21
57.500004
  0
LINE
  8
0
 10
18.866005
 20
57.500008
 11
17.133957
 21
57.500008
  0
LINE
  8
0
 10
17.133854
 20
57.500061
 11
16.267826
 21
56.000057
  0
LINE
  8
0
 10
16.267885
 20
56.000023
 11
17.133913
 21
54.500019
  0
LINE
  8
0
  6
CENTER
 62
     2
 10
0.000000
 20
4.516796
 11
0.000000
 21
71.896988
  0
LINE
  8
0
 10
9.000004
 20
7.999992
 11
7.500004
 21
7.999992
  0
LINE
  8
0
 10
27.000000
 20
26.115135
 11
27.000000
 21
49.884865
  0
LINE
  8
0
 10
18.000000
 20
50.999992
 11
26.481129
 21
50.999992
  0
LINE
  8
0
 10
18.000000
 20
24.999992
 11
26.481121
 21
24.999992
  0
LINE
  8
0
 10
13.000000
 20
19.999992
 11
13.000000
 21
14.499992
  0
LINE
  8
0
 10
13.000000
 20
55.999992
 11
13.000000
 21
61.499992
  0
LINE
  8
0
 10
-17.832542
 20
61.499992
 11
17.832542
 21
61.499992
  0
LINE
  8
0
 10
-13.500000
 20
22.999992
 11
-8.000000
 21
22.999992
  0
LINE
  8
0
 10
-13.500000
 20
22.999992
 11
-13.500000
 21
27.668003
  0
LINE
  8
0
 10
-1.000000
 20
21.029430
 11
-1.000000
 21
33.101013
  0
LINE
  8
0
 10
-13.500000
 20
52.999992
 11
-13.500000
 21
48.331985
  0
LINE
  8
0
 10
-13.500000
 20
52.999992
 11
-8.000000
 21
52.999992
  0
LINE
  8
0
 10
-1.000000
 20
54.970551
 11
-1.000000
 21
42.898972
  0
LINE
  8
0
 10
30.000002
 20
8.000000
 11
30.000002
 21
68.000000
  0
LINE
  8
0
  6
CENTER
 62
     2
 10
25.000004
 20
17.999992
 11
25.000004
 21
7.999992
  0
LINE
  8
0
  6
CENTER
 62
     2
 10
25.000004
 20
67.999992
 11
25.000004
 21
57.999992
  0
LINE
  8
0
  6
CENTER
 62
     2
 10
-25.000000
 20
67.999992
 11
-25.000000
 21
57.999992
  0
LINE
  8
0
  6
CENTER
 62
     2
 10
-25.000000
 20
17.999992
 11
-25.000000
 21
7.999992
  0
LINE
  8
0
  6
CENTER
 62
     2
 10
-30.000000
 20
12.999992
 11
-20.000000
 21
12.999992
  0
LINE
  8
0
  6
CENTER
 62
     2
 10
20.000004
 20
12.999992
 11
30.000004
 21
12.999992
  0
LINE
  8
0
  6
CENTER
 62
     2
 10
20.000004
 20
62.999992
 11
30.000004
 21
62.999992
  0
LINE
  8
0
  6
CENTER
 62
     2
 10
-30.000000
 20
62.999992
 11
-20.000000
 21
62.999992
  0
LINE
  8
0
 10
5.500004
 20
9.199989
 11
4.000008
 21
9.199989
  0
LINE
  8
0
 10
2.000008
 20
9.199989
 11
0.150009
 21
9.199989
  0
LINE
  8
0
 10
4.000008
 20
6.899990
 11
5.500004
 21
6.899990
  0
LINE
  8
0
 10
7.500004
 20
6.899990
 11
9.000004
 21
6.899990
  0
LINE
  8
0
 10
-134.000000
 20
68.000000
 11
-134.000000
 21
8.000000
  0
LINE
  8
0
 10
-126.999985
 20
68.000000
 11
-133.999985
 21
68.000000
  0
LINE
  8
0
 10
-127.000000
 20
8.000000
 11
-134.000015
 21
8.000000
  0
LINE
  8
0
 10
-127.000000
 20
68.000000
 11
-127.000000
 21
8.000000
  0
LINE
  8
0
 10
-117.662262
 20
23.499992
 11
-121.199997
 21
23.499992
  0
LINE
  8
0
 10
-117.500000
 20
16.499992
 11
-121.199997
 21
16.499992
  0
LINE
  8
0
 10
-117.000000
 20
23.101025
 11
-117.000000
 21
16.999989
  0
LINE
  8
0
 10
-117.499962
 20
16.499905
 11
-116.999962
 21
16.999907
  0
LINE
  8
0
 10
-106.000000
 20
61.500000
 11
-106.000000
 21
14.499985
  0
LINE
  8
0
 10
-116.500000
 20
49.154690
 11
-116.500000
 21
46.845287
  0
LINE
  8
0
 10
-112.500000
 20
49.154686
 11
-112.500000
 21
46.845291
  0
LINE
  8
0
 10
-116.500015
 20
49.154816
 11
-114.500015
 21
50.309517
  0
LINE
  8
0
 10
-114.499992
 20
45.690708
 11
-112.499992
 21
46.845409
  0
LINE
  8
0
 10
-114.500008
 20
50.309399
 11
-112.500008
 21
49.154697
  0
LINE
  8
0
 10
-116.500008
 20
46.845287
 11
-114.500015
 21
45.690594
  0
LINE
  8
0
 10
-117.662277
 20
52.499992
 11
-121.000000
 21
52.499992
  0
LINE
  8
0
 10
-117.000000
 20
59.500004
 11
-117.000000
 21
52.898968
  0
LINE
  8
0
 10
-122.000000
 20
14.499989
 11
-122.000000
 21
61.500004
  0
LINE
  8
0
 10
-121.199997
 20
15.999989
 11
-121.199997
 21
23.999989
  0
LINE
  8
0
 10
-121.199997
 20
15.999992
 11
-122.000000
 21
15.999992
  0
LINE
  8
0
 10
-121.199997
 20
23.999992
 11
-122.000000
 21
23.999992
  0
LINE
  8
0
 10
-121.199997
 20
60.000008
 11
-122.000000
 21
60.000008
  0
LINE
  8
0
 10
-121.199997
 20
52.000008
 11
-122.000000
 21
52.000008
  0
LINE
  8
0
 10
-121.199997
 20
60.000004
 11
-121.199997
 21
52.000004
  0
LINE
  8
0
 10
-118.799988
 20
34.499996
 11
-118.799988
 21
41.499996
  0
LINE
  8
0
 10
-115.500000
 20
36.499996
 11
-115.500000
 21
39.499996
  0
LINE
  8
0
 10
-118.500000
 20
39.499996
 11
-118.500000
 21
39.999996
  0
LINE
  8
0
 10
-118.500000
 20
40.000000
 11
-118.799988
 21
40.000000
  0
LINE
  8
0
 10
-121.199997
 20
60.000008
 11
-122.000000
 21
60.000008
  0
LINE
  8
0
 10
-114.500015
 20
30.309351
 11
-112.500015
 21
29.154650
  0
LINE
  8
0
 10
-116.500076
 20
29.154785
 11
-114.500092
 21
30.309479
  0
LINE
  8
0
 10
-116.500008
 20
26.845221
 11
-114.500008
 21
25.690519
  0
LINE
  8
0
 10
-114.500076
 20
25.690678
 11
-112.500076
 21
26.845379
  0
LINE
  8
0
 10
-112.500000
 20
26.845299
 11
-112.500000
 21
29.154694
  0
LINE
  8
0
 10
-116.500000
 20
26.845303
 11
-116.500000
 21
29.154705
  0
LINE
  8
0
 10
-117.000000
 20
59.500008
 11
-121.000000
 21
59.500008
  0
LINE
  8
0
 10
-118.799988
 20
34.500000
 11
-122.000000
 21
34.500000
  0
LINE
  8
0
 10
-118.799988
 20
41.500000
 11
-122.000000
 21
41.500000
  0
LINE
  8
0
 10
-115.500000
 20
39.500000
 11
-118.500000
 21
39.500000
  0
LINE
  8
0
 10
-115.500000
 20
36.500000
 11
-118.500000
 21
36.500000
  0
LINE
  8
0
 10
-118.500000
 20
36.499996
 11
-118.500000
 21
35.999996
  0
LINE
  8
0
 10
-118.500000
 20
36.000000
 11
-118.799988
 21
36.000000
  0
LINE
  8
0
 10
-127.000000
 20
14.499992
 11
-106.000000
 21
14.499992
  0
LINE
  8
0
 10
-127.000000
 20
61.500008
 11
-106.000000
 21
61.500008
  0
LINE
  8
0
 10
-122.000000
 20
38.000000
 11
-119.202805
 21
38.000000
  0
LINE
  8
0
 10
-126.000000
 20
9.199989
 11
-126.000000
 21
14.499989
  0
LINE
  8
0
 10
-111.000000
 20
10.849991
 11
-105.500000
 21
10.849991
  0
LINE
  8
0
 62
     2
 10
-102.499962
 20
0.927406
 11
-104.499985
 21
1.463309
  0
LINE
  8
0
 10
-111.000000
 20
12.849991
 11
-105.500000
 21
12.849991
  0
LINE
  8
0
 10
-104.500000
 20
9.849983
 11
-104.500000
 21
1.463314
  0
LINE
  8
0
 10
-111.000000
 20
14.499985
 11
-111.000000
 21
9.199986
  0
LINE
  8
0
 10
-102.500000
 20
9.849983
 11
-102.500000
 21
0.927418
  0
LINE
  8
0
 10
-126.000015
 20
9.199993
 11
-111.000015
 21
9.199993
  0
LINE
  8
0
 10
-107.000000
 20
21.029423
 11
-107.000000
 21
54.970558
  0
LINE
  8
0
 10
-122.000000
 20
23.499989
 11
-122.000000
 21
34.499996
  0
LINE
  8
0
 10
-117.000000
 20
21.029430
 11
-107.000000
 21
21.029430
  0
LINE
  8
0
 10
-122.000000
 20
52.500004
 11
-122.000000
 21
41.499996
  0
LINE
  8
0
 10
-117.000000
 20
54.970566
 11
-107.000000
 21
54.970566
  0
LINE
  8
0
 10
-121.400009
 20
6.899994
 11
-117.400009
 21
6.899994
  0
LINE
  8
0
 10
-121.399994
 20
9.199989
 11
-121.399994
 21
6.899990
  0
LINE
  8
0
 10
-117.399994
 20
9.199989
 11
-117.399994
 21
6.899990
  0
LINE
  8
0
  6
CENTER
 62
     2
 10
-101.402344
 20
38.000000
 11
-140.001450
 21
38.000000
  0
LINE
  8
0
  6
CENTER
 62
     2
 10
-125.393280
 20
63.000000
 11
-135.372086
 21
63.000000
  0
LINE
  8
0
  6
CENTER
 62
     2
 10
-126.141693
 20
13.000000
 11
-136.120499
 21
13.000000
  0
LINE
  8
0
 10
120.000000
 20
9.199993
 11
120.000000
 21
14.499992
  0
LINE
  8
0
 10
105.000000
 20
10.849991
 11
99.500000
 21
10.849991
  0
LINE
  8
0
 62
     2
 10
98.499985
 20
0.927418
 11
96.499992
 21
1.463316
  0
LINE
  8
0
 10
128.000000
 20
68.000000
 11
128.000000
 21
8.000000
  0
LINE
  8
0
 10
121.000000
 20
68.000000
 11
128.000000
 21
68.000000
  0
LINE
  8
0
 10
120.999985
 20
8.000000
 11
128.000000
 21
8.000000
  0
LINE
  8
0
  6
CENTER
 62
     2
 10
96.517258
 20
38.000000
 11
132.116104
 21
38.000000
  0
LINE
  8
0
 10
121.000000
 20
68.000000
 11
121.000000
 21
8.000000
  0
LINE
  8
0
 10
105.000000
 20
12.849991
 11
99.500000
 21
12.849991
  0
LINE
  8
0
 10
98.500000
 20
9.849991
 11
98.500000
 21
0.927441
  0
LINE
  8
0
 10
105.000000
 20
14.499992
 11
105.000000
 21
9.199993
  0
LINE
  8
0
 10
96.500000
 20
9.849991
 11
96.500000
 21
1.463337
  0
LINE
  8
0
 10
111.199997
 20
16.499992
 11
115.199997
 21
16.499992
  0
LINE
  8
0
 10
111.199997
 20
23.499992
 11
111.199997
 21
16.499992
  0
LINE
  8
0
 10
115.199997
 20
15.999992
 11
115.199997
 21
23.999992
  0
LINE
  8
0
 10
111.199997
 20
23.499992
 11
115.199997
 21
23.499992
  0
LINE
  8
0
 10
111.199997
 20
59.499992
 11
115.199997
 21
59.499992
  0
LINE
  8
0
 10
120.000000
 20
9.199993
 11
105.000000
 21
9.199993
  0
LINE
  8
0
 10
111.199997
 20
52.499992
 11
115.199997
 21
52.499992
  0
LINE
  8
0
 10
111.199997
 20
59.499992
 11
111.199997
 21
52.499992
  0
LINE
  8
0
 10
115.199997
 20
15.999992
 11
116.000000
 21
15.999992
  0
LINE
  8
0
 10
115.199997
 20
23.999992
 11
116.000000
 21
23.999992
  0
LINE
  8
0
 10
115.199997
 20
60.000008
 11
116.000000
 21
60.000008
  0
LINE
  8
0
 10
115.199997
 20
60.000008
 11
115.199997
 21
52.000008
  0
LINE
  8
0
 10
115.199997
 20
52.000008
 11
116.000000
 21
52.000008
  0
LINE
  8
0
 10
116.000000
 20
51.000008
 11
116.000000
 21
61.500008
  0
LINE
  8
0
 10
100.000000
 20
14.499992
 11
121.000000
 21
14.499992
  0
LINE
  8
0
 10
100.000000
 20
26.115135
 11
121.000000
 21
26.115135
  0
LINE
  8
0
 10
100.000000
 20
61.500008
 11
121.000000
 21
61.500008
  0
LINE
  8
0
 10
100.000000
 20
51.000008
 11
116.000000
 21
51.000008
  0
LINE
  8
0
 10
100.000000
 20
49.884865
 11
121.000000
 21
49.884865
  0
LINE
  8
0
 10
100.000000
 20
24.999992
 11
116.000000
 21
24.999992
  0
LINE
  8
0
 10
116.000000
 20
24.999992
 11
116.000000
 21
14.499992
  0
LINE
  8
0
 10
100.000000
 20
61.500008
 11
100.000000
 21
14.499992
  0
LINE
  8
0
 10
115.400002
 20
6.899994
 11
111.400002
 21
6.899994
  0
LINE
  8
0
 10
115.400002
 20
9.199993
 11
115.400002
 21
6.899994
  0
LINE
  8
0
 10
111.400002
 20
9.199993
 11
111.400002
 21
6.899994
  0
LINE
  8
0
  6
CENTER
 62
     2
 10
108.000000
 20
33.000000
 11
108.000000
 21
27.000000
  0
LINE
  8
0
  6
CENTER
 62
     2
 10
108.000000
 20
49.000000
 11
108.000000
 21
43.000000
  0
LINE
  8
0
  6
CENTER
 62
     2
 10
105.000000
 20
46.000000
 11
111.000000
 21
46.000000
  0
LINE
  8
0
  6
CENTER
 62
     2
 10
105.000000
 20
30.000000
 11
111.000000
 21
30.000000
  0
LINE
  8
0
  6
CENTER
 62
     2
 10
108.000000
 20
42.000000
 11
108.000000
 21
34.000000
  0
LINE
  8
0
  6
CENTER
 62
     2
 10
119.393288
 20
63.000000
 11
129.871033
 21
63.000000
  0
LINE
  8
0
  6
CENTER
 62
     2
 10
118.395409
 20
13.000000
 11
130.369965
 21
13.000000
  0
LINE
  8
0
 10
-30.000000
 20
-95.000000
 11
30.000000
 21
-95.000000
  0
LINE
  8
0
 10
-30.000000
 20
-87.999954
 11
-30.000000
 21
-94.999954
  0
LINE
  8
0
 10
30.000002
 20
-88.000046
 11
30.000002
 21
-95.000061
  0
LINE
  8
0
  6
CENTER
 62
     2
 10
0.000000
 20
-63.463390
 11
0.000000
 21
-98.251953
  0
LINE
  8
0
 10
0.000042
 20
-70.399994
 11
13.000042
 21
-70.399994
  0
LINE
  8
0
 10
7.499992
 20
-61.000023
 11
7.499992
 21
-70.400009
  0
LINE
  8
0
 10
5.499992
 20
-61.000015
 11
5.499992
 21
-70.400009
  0
LINE
  8
0
 10
8.999992
 20
-61.000023
 11
8.999992
 21
-70.400009
  0
LINE
  8
0
 10
3.749996
 20
-61.000015
 11
3.749996
 21
-70.400009
  0
LINE
  8
0
 10
10.999992
 20
-61.000031
 11
10.999992
 21
-70.400024
  0
LINE
  8
0
 10
1.749996
 20
-61.000008
 11
1.749996
 21
-70.399994
  0
LINE
  8
0
 10
9.600014
 20
-79.995850
 11
9.600014
 21
-80.804138
  0
LINE
  8
0
 10
8.899987
 20
-79.591873
 11
9.599985
 21
-79.996017
  0
LINE
  8
0
 10
8.200027
 20
-79.995819
 11
8.900025
 21
-79.591675
  0
LINE
  8
0
 10
8.200020
 20
-80.804153
 11
8.200020
 21
-79.995865
  0
LINE
  8
0
 10
8.900009
 20
-81.208359
 11
8.200010
 21
-80.804214
  0
LINE
  8
0
 10
9.599994
 20
-80.804115
 11
8.899995
 21
-81.208260
  0
LINE
  8
0
 10
4.099988
 20
-81.208366
 11
3.399990
 21
-80.804222
  0
LINE
  8
0
 10
4.799990
 20
-80.804115
 11
4.099991
 21
-81.208260
  0
LINE
  8
0
 10
4.800011
 20
-79.995865
 11
4.800011
 21
-80.804153
  0
LINE
  8
0
 10
4.099964
 20
-79.591866
 11
4.799962
 21
-79.996010
  0
LINE
  8
0
 10
3.400020
 20
-79.995827
 11
4.100018
 21
-79.591682
  0
LINE
  8
0
 10
3.400021
 20
-80.804153
 11
3.400021
 21
-79.995865
  0
LINE
  8
0
 10
12.849998
 20
-70.400024
 11
12.849998
 21
-87.000031
  0
LINE
  8
0
 10
-29.999985
 20
-88.000000
 11
30.000013
 21
-88.000000
  0
LINE
  8
0
 10
-14.500000
 20
-78.199982
 11
-14.500000
 21
-82.199982
  0
LINE
  8
0
 10
-21.500000
 20
-78.199966
 11
-21.500000
 21
-82.199966
  0
LINE
  8
0
 10
-14.499969
 20
-78.199997
 11
-21.499969
 21
-78.199997
  0
LINE
  8
0
 10
3.750046
 20
-67.000000
 11
5.500042
 21
-67.000000
  0
LINE
  8
0
 10
7.500042
 20
-67.000000
 11
9.000042
 21
-67.000000
  0
LINE
  8
0
 10
11.000042
 20
-67.000000
 11
27.000050
 21
-67.000000
  0
LINE
  8
0
 10
21.500000
 20
-78.200043
 11
21.500000
 21
-82.200043
  0
LINE
  8
0
 10
14.500000
 20
-78.200027
 11
14.500000
 21
-82.200027
  0
LINE
  8
0
 10
21.500031
 20
-78.199997
 11
14.500031
 21
-78.199997
  0
LINE
  8
0
 10
-21.999977
 20
-82.199997
 11
-13.999977
 21
-82.199997
  0
LINE
  8
0
 10
-29.500000
 20
-82.999954
 11
-29.500000
 21
-87.999954
  0
LINE
  8
0
 10
-30.041542
 20
-83.000000
 11
0.000023
 21
-83.000000
  0
LINE
  8
0
 10
27.000023
 20
-83.000000
 11
12.850021
 21
-83.000000
  0
LINE
  8
0
 10
-22.000000
 20
-82.199966
 11
-22.000000
 21
-82.999969
  0
LINE
  8
0
 10
-14.000000
 20
-82.199982
 11
-14.000000
 21
-82.999985
  0
LINE
  8
0
 10
22.000000
 20
-82.200043
 11
22.000000
 21
-83.000046
  0
LINE
  8
0
 10
22.000023
 20
-82.199997
 11
14.000023
 21
-82.199997
  0
LINE
  8
0
 10
14.000000
 20
-82.200027
 11
14.000000
 21
-83.000031
  0
LINE
  8
0
 10
-12.500000
 20
-79.499969
 11
-12.500000
 21
-71.500015
  0
LINE
  8
0
 10
-11.500000
 20
-70.500015
 11
-11.500000
 21
-80.499985
  0
LINE
  8
0
 10
-11.499973
 20
-80.500000
 11
-9.708687
 21
-80.500000
  0
LINE
  8
0
 10
-12.499959
 20
-79.499969
 11
-11.499956
 21
-80.499962
  0
LINE
  8
0
 10
-1.000000
 20
-68.000000
 11
-1.000000
 21
-83.000000
  0
LINE
  8
0
 10
17.832542
 20
-83.000031
 11
17.832542
 21
-88.000031
  0
LINE
  8
0
 10
13.000000
 20
-67.000031
 11
13.000000
 21
-70.400024
  0
LINE
  8
0
 10
27.000000
 20
-67.000046
 11
27.000000
 21
-88.000046
  0
LINE
  8
0
 10
1.750046
 20
-67.000000
 11
0.000050
 21
-67.000000
  0
LINE
  8
0
 10
0.000000
 20
-87.000000
 11
0.000000
 21
-67.000000
  0
LINE
  8
0
 10
17.832542
 20
-83.000031
 11
17.832542
 21
-88.000031
  0
LINE
  8
0
 10
-17.832542
 20
-82.999969
 11
-17.832542
 21
-87.999969
  0
LINE
  8
0
 10
0.000015
 20
-87.000000
 11
12.850014
 21
-87.000000
  0
LINE
  8
0
 10
-11.499958
 20
-70.500000
 11
-9.708672
 21
-70.500000
  0
LINE
  8
0
 10
-12.499930
 20
-71.499985
 11
-11.499928
 21
-70.499985
  0
LINE
  8
0
 10
-16.999954
 20
-68.000000
 11
0.000050
 21
-68.000000
  0
LINE
  8
0
 10
-17.000000
 20
-67.999969
 11
-17.000000
 21
-78.199966
  0
LINE
  8
0
  6
CENTER
 62
     2
 10
-25.000000
 20
-86.767456
 11
-25.000000
 21
-96.995712
  0
LINE
  8
0
  6
CENTER
 62
     2
 10
25.000002
 20
-86.767548
 11
25.000002
 21
-96.746338
  0
LINE
  8
0
 10
-30.041542
 20
-79.800003
 11
-30.041542
 21
-83.000000
  0
LINE
  8
0
 10
-21.958612
 20
-79.800003
 11
-21.958612
 21
-82.199997
  0
LINE
  8
0
 10
-30.041542
 20
-79.800003
 11
-21.958612
 21
-79.800003
  0
LINE
  8
0
 10
-28.000008
 20
-76.500000
 11
-24.000008
 21
-76.500000
  0
LINE
  8
0
 10
-27.322884
 20
-79.500000
 11
-24.677132
 21
-79.500000
  0
LINE
  8
0
 10
-28.020737
 20
-79.800003
 11
-28.020737
 21
-83.000000
  0
LINE
  8
0
 10
-23.979279
 20
-79.800003
 11
-23.979279
 21
-83.000000
  0
LINE
  8
0
 10
-24.000008
 20
-76.500000
 11
-24.000008
 21
-79.800003
  0
LINE
  8
0
 10
-28.000008
 20
-76.500000
 11
-28.000008
 21
-79.800003
  0
LINE
  8
0
 10
-24.677132
 20
-76.500000
 11
-24.677132
 21
-79.500000
  0
LINE
  8
0
 10
-27.322884
 20
-76.500000
 11
-27.322884
 21
-79.500000
  0
ARC
  8
0
 10
-0.000008
 20
37.999992
 40
29.500002
 50
127.192406
 51
178.124939
  0
CIRCLE
  8
0
 10
-18.000000
 20
19.999992
 40
4.000000
  0
ARC
  8
0
 10
0.000000
 20
37.999992
 40
17.000000
 50
93.372307
 51
266.627686
  0
CIRCLE
  8
0
 10
-18.000000
 20
55.999992
 40
4.000000
  0
CIRCLE
  8
0
 10
0.000000
 20
37.999992
 40
5.000000
  0
ARC
  8
0
 10
3.000004
 20
12.199997
 40
1.000000
 50
0.000000
 51
180.000000
  0
ARC
  8
0
 10
6.500004
 20
12.199997
 40
1.000000
 50
0.000000
 51
180.000000
  0
ARC
  8
0
 10
10.000004
 20
12.199997
 40
1.000000
 50
0.000000
 51
180.000000
  0
CIRCLE
  8
0
 10
-25.000000
 20
13.000000
 40
2.250000
  0
CIRCLE
  8
0
 10
-25.000000
 20
63.000000
 40
2.250000
  0
CIRCLE
  8
0
 10
25.000002
 20
63.000000
 40
2.250000
  0
CIRCLE
  8
0
 10
24.999998
 20
13.000000
 40
2.250000
  0
CIRCLE
  8
0
 10
-25.000000
 20
62.999992
 40
4.000000
  0
CIRCLE
  8
0
 10
-25.000000
 20
12.999992
 40
4.000000
  0
CIRCLE
  8
0
 10
25.000004
 20
62.999992
 40
4.000000
  0
CIRCLE
  8
0
 10
25.000004
 20
12.999992
 40
4.000000
  0
CIRCLE
  8
0
 10
-26.000008
 20
37.999992
 40
2.000000
  0
CIRCLE
  8
0
 62
     2
 10
-26.000008
 20
37.999992
 40
1.120000
  0
CIRCLE
  8
0
 10
-26.000008
 20
37.999992
 40
3.500000
  0
ARC
  8
0
 10
-0.000008
 20
37.999992
 40
29.500000
 50
181.875046
 51
232.807587
  0
ARC
  8
0
 10
-0.000008
 20
37.999992
 40
29.500002
 50
23.758110
 51
52.807606
  0
ARC
  8
0
 10
0.000000
 20
38.000000
 40
29.500000
 50
307.192383
 51
336.241852
  0
ARC
  8
0
 10
18.000000
 20
19.999992
 40
5.000000
 50
89.999977
 51
179.999954
  0
CIRCLE
  8
0
 10
18.000000
 20
19.999992
 40
4.000000
  0
ARC
  8
0
 10
18.000000
 20
55.999992
 40
5.000000
 50
180.000000
 51
270.000031
  0
CIRCLE
  8
0
 10
18.000000
 20
55.999992
 40
4.000000
  0
CIRCLE
  8
0
 10
-114.500000
 20
47.999985
 40
5.500000
  0
ARC
  8
0
 10
-122.802750
 20
36.249996
 40
4.002762
 50
334.074768
 51
25.925245
  0
ARC
  8
0
 10
-122.802750
 20
39.749996
 40
4.002762
 50
334.074768
 51
25.925245
  0
ARC
  8
0
 10
-105.500008
 20
9.849983
 40
1.000000
 50
359.999939
 51
90.000000
  0
ARC
  8
0
 10
-105.500008
 20
9.849983
 40
3.000000
 50
359.999939
 51
90.000000
  0
CIRCLE
  8
0
 10
-114.500000
 20
28.000002
 40
5.500000
  0
CIRCLE
  8
0
 10
108.000000
 20
38.000000
 40
3.000000
  0
CIRCLE
  8
0
 62
     2
 10
108.000000
 20
46.000000
 40
2.000000
  0
CIRCLE
  8
0
 10
108.000000
 20
46.000000
 40
1.400000
  0
CIRCLE
  8
0
 10
108.000000
 20
38.000000
 40
2.000000
  0
ARC
  8
0
 10
99.500000
 20
9.849991
 40
1.000000
 50
90.000000
 51
180.000000
  0
ARC
  8
0
 10
99.500000
 20
9.849991
 40
3.000000
 50
90.000000
 51
180.000015
  0
CIRCLE
  8
0
 62
     2
 10
108.000000
 20
30.000000
 40
2.000000
  0
CIRCLE
  8
0
 10
108.000000
 20
30.000000
 40
1.400000
  0
CIRCLE
  8
0
 10
4.100025
 20
-80.400009
 40
2.000000
  0
CIRCLE
  8
0
 10
8.900028
 20
-80.400009
 40
2.000000
  0
CIRCLE
  8
0
 10
2.750057
 20
-61.000015
 40
1.000000
  0
CIRCLE
  8
0
 10
6.500053
 20
-61.000015
 40
1.000000
  0
CIRCLE
  8
0
 10
10.000046
 20
-61.000031
 40
1.000000
  0
CIRCLE
  8
0
 10
2.750057
 20
-61.000015
 40
0.500000
  0
CIRCLE
  8
0
 10
6.500053
 20
-61.000015
 40
0.500000
  0
CIRCLE
  8
0
 10
10.000046
 20
-61.000031
 40
0.500000
  0
ARC
  8
0
 10
-11.999966
 20
-75.499985
 40
5.500000
 50
242.964294
 51
155.380066
  0
ARC
  8
0
 10
-29.031139
 20
-81.268661
 40
1.468655
 50
46.529728
 51
133.470276
  0
ARC
  8
0
 10
-26.000008
 20
-85.070038
 40
5.270039
 50
67.453239
 51
112.546776
  0
ARC
  8
0
 10
-22.968945
 20
-81.268478
 40
1.468479
 50
46.527016
 51
133.473038
  0
TEXT
  8
0
 10
115.907150
 20
122.050003
 40
4.500000
  1
DATE : MAY ,1993
 50
0.000000
 41
1.052631
 51
0.000000
  7
STANDARD
  0
TEXT
  8
0
 10
113.700279
 20
-130.669998
 40
6.300000
  1
KOGANEI CORP.
 50
0.000000
 41
1.052632
 51
0.000000
  7
STANDARD
  0
TEXT
  8
0
 10
-185.892654
 20
122.050003
 40
4.500000
  1
HANDLING MODULE
 50
0.000000
 41
1.052632
 51
0.000000
  7
STANDARD
  0
TEXT
  8
0
 10
-186.892654
 20
104.550003
 40
4.500000
  1
MODEL:SHM11S-10
 50
0.000000
 41
1.052632
 51
0.000000
  7
STANDARD
  0
ENDSEC
  0
EOF
