  0
SECTION
  2
HEADER
  0
ENDSEC
  0
SECTION
  2
TABLES
  0
TABLE
  2
LTYPE
 70
     4
  0
LTYPE
  2
CONTINUOUS
 70
    64
  3
Solid line
 72
    65
 73
     0
 40
0.000000
  0
LTYPE
  2
DASHED
 70
    64
  3
__ __ __ __ __ __ __ __ __ __ __ __ __ __ __
 72
    65
 73
     2
 40
3.500000
 49
2.000000
 49
-1.500000
  0
LTYPE
  2
CENTER
 70
    64
  3
____ _ ____ _ ____ _ ____ _ ____ _ ____ _ ____
 72
    65
 73
     4
 40
17.500000
 49
13.000000
 49
-1.500000
 49
1.500000
 49
-1.500000
  0
LTYPE
  2
PHANTOM
 70
    64
  3
_____ _ _ _____ _ _ _____ _ _ _____ _ _ ____  
 72
    65
 73
     6
 40
15.500000
 49
8.000000
 49
-1.500000
 49
1.500000
 49
-1.500000
 49
1.500000
 49
-1.500000
  0
LTYPE
  2
DASHED1
 70
    64
  3
__ __ __ __ __ __ __ __ __ __ __ __ __ __ __
 72
    65
 73
     2
 40
1.500000
 49
1.000000
 49
-0.500000
  0
LTYPE
  2
DASHED2
 70
    64
  3
__ __ __ __ __ __ __ __ __ __ __ __ __ __ __
 72
    65
 73
     2
 40
3.500000
 49
2.500000
 49
-1.000000
  0
LTYPE
  2
DASHED3
 70
    64
  3
__ __ __ __ __ __ __ __ __ __ __ __ __ __ __
 72
    65
 73
     2
 40
6.000000
 49
4.000000
 49
-2.000000
  0
LTYPE
  2
DASHED4
 70
    64
  3
__ __ __ __ __ __ __ __ __ __ __ __ __ __ __
 72
    65
 73
     2
 40
12.000000
 49
10.000000
 49
-2.000000
  0
LTYPE
  2
DASHED5
 70
    64
  3
__ __ __ __ __ __ __ __ __ __ __ __ __ __ __
 72
    65
 73
     2
 40
17.000000
 49
15.000000
 49
-2.000000
  0
LTYPE
  2
DASHED6
 70
    64
  3
__ __ __ __ __ __ __ __ __ __ __ __ __ __ __
 72
    65
 73
     2
 40
29.000000
 49
27.000000
 49
-2.000000
  0
LTYPE
  2
PHANTOM1
 70
    64
  3
_____ _ _ _____ _ _ _____ _ _ _____ _ _ ____  
 72
    65
 73
     6
 40
31.000000
 49
25.000000
 49
-1.500000
 49
1.000000
 49
-1.000000
 49
1.000000
 49
-1.500000
  0
LTYPE
  2
PHANTOM2
 70
    64
  3
_____ _ _ _____ _ _ _____ _ _ _____ _ _ ____  
 72
    65
 73
     6
 40
36.000000
 49
27.000000
 49
-1.500000
 49
2.500000
 49
-1.000000
 49
2.500000
 49
-1.500000
  0
LTYPE
  2
PHANTOM3
 70
    64
  3
_____ _ _ _____ _ _ _____ _ _ _____ _ _ ____  
 72
    65
 73
     6
 40
78.000000
 49
64.000000
 49
-2.000000
 49
4.000000
 49
-2.000000
 49
4.000000
 49
-2.000000
  0
LTYPE
  2
CENTER1
 70
    64
  3
____ _ ____ _ ____ _ ____ _ ____ _ ____ _ ____
 72
    65
 73
     4
 40
19.000000
 49
14.000000
 49
-1.000000
 49
3.000000
 49
-1.000000
  0
LTYPE
  2
CENTER2
 70
    64
  3
____ _ ____ _ ____ _ ____ _ ____ _ ____ _ ____
 72
    65
 73
     4
 40
28.500000
 49
25.000000
 49
-1.000000
 49
1.500000
 49
-1.000000
  0
LTYPE
  2
CENTER3
 70
    64
  3
____ _ ____ _ ____ _ ____ _ ____ _ ____ _ ____
 72
    65
 73
     4
 40
31.500000
 49
27.000000
 49
-1.000000
 49
2.500000
 49
-1.000000
  0
LTYPE
  2
CENTER4
 70
    64
  3
____ _ ____ _ ____ _ ____ _ ____ _ ____ _ ____
 72
    65
 73
     4
 40
50.000000
 49
45.000000
 49
-1.000000
 49
3.000000
 49
-1.000000
  0
LTYPE
  2
CENTER5
 70
    64
  3
____ _ ____ _ ____ _ ____ _ ____ _ ____ _ ____
 72
    65
 73
     4
 40
100.000000
 49
92.000000
 49
-2.000000
 49
4.000000
 49
-2.000000
  0
LTYPE
  2
SBK1
 70
    64
  3
______ _ _ _ ______ _ _ _ ______ _ _ _ _____  
 72
    65
 73
     8
 40
60.500000
 49
45.000000
 49
-2.000000
 49
2.500000
 49
-2.000000
 49
2.500000
 49
-2.000000
 49
2.500000
 49
-2.000000
  0
LTYPE
  2
SBK2
 70
    64
  3
______ _ _ _ ______ _ _ _ ______ _ _ _ _____  
 72
    65
 73
     8
 40
84.000000
 49
64.000000
 49
-2.000000
 49
4.000000
 49
-2.000000
 49
4.000000
 49
-2.000000
 49
4.000000
 49
-2.000000
  0
LTYPE
  2
STCH
 70
    64
  3
__ __ __ __ __ __ __ __ __ __ __ __ __ __ __
 72
    65
 73
     2
 40
3.000000
 49
1.000000
 49
-2.000000
  0
LTYPE
  2
MTCH
 70
    64
  3
_____ _ _ _____ _ _ _____ _ _ _____ _ _ ____  
 72
    65
 73
     6
 40
80.000000
 49
66.000000
 49
-2.000000
 49
4.000000
 49
-2.000000
 49
4.000000
 49
-2.000000
  0
ENDTAB
  0
TABLE
  2
LAYER
 70
     1
  0
LAYER
  2
0
 70
     0
 62
     7
  6
CONTINUOUS
  0
ENDTAB
  0
TABLE
  2
STYLE
 70
     1
  0
STYLE
  2
STANDARD
 70
     0
 40
0.000000
 41
1.000000
 50
0.000000
 71
     0
 42
0.200000
  3
txt
  4
BIGFONT
  0
ENDTAB
  0
TABLE
  2
VIEW
 70
     0
  0
ENDTAB
  0
ENDSEC
  0
SECTION
  2
BLOCKS
  0
ENDSEC
  0
SECTION
  2
ENTITIES
  0
LINE
  8
0
 10
-194.250000
 20
132.600006
 11
194.800003
 21
132.600006
  0
LINE
  8
0
 10
194.800003
 20
132.600006
 11
194.800003
 21
-133.500000
  0
LINE
  8
0
 10
-194.250000
 20
132.600006
 11
-194.250000
 21
-133.500000
  0
LINE
  8
0
 10
-194.250000
 20
-133.500000
 11
194.800003
 21
-133.500000
  0
LINE
  8
0
 10
109.800003
 20
-118.500000
 11
109.800003
 21
-133.500000
  0
LINE
  8
0
 10
109.800003
 20
-118.500000
 11
194.800003
 21
-118.500000
  0
LINE
  8
0
 10
109.800003
 20
132.600006
 11
109.800003
 21
117.600006
  0
LINE
  8
0
 10
109.800003
 20
117.600006
 11
194.800003
 21
117.600006
  0
LINE
  8
0
 10
-194.250000
 20
117.600006
 11
-109.250000
 21
117.600006
  0
LINE
  8
0
 10
-109.250000
 20
132.600006
 11
-109.250000
 21
117.600006
  0
LINE
  8
0
 10
12.849983
 20
0.647989
 11
10.999985
 21
0.647989
  0
LINE
  8
0
 10
7.500000
 20
-16.887899
 11
7.500000
 21
3.647993
  0
LINE
  8
0
 10
5.500000
 20
-16.352003
 11
5.500000
 21
3.647993
  0
LINE
  8
0
 10
4.000008
 20
-16.887915
 11
4.000008
 21
3.647995
  0
LINE
  8
0
 10
9.000000
 20
-16.351973
 11
9.000000
 21
3.647991
  0
LINE
  8
0
 10
11.000000
 20
-16.887877
 11
11.000000
 21
3.647991
  0
LINE
  8
0
 10
2.000008
 20
-16.352011
 11
2.000008
 21
3.647997
  0
LINE
  8
0
 10
8.999985
 20
0.647989
 11
7.499985
 21
0.647989
  0
LINE
  8
0
 10
5.499985
 20
0.647989
 11
3.999985
 21
0.647989
  0
LINE
  8
0
 10
1.999985
 20
0.647989
 11
0.149994
 21
0.647989
  0
LINE
  8
0
  6
CENTER
 62
     2
 10
-30.783066
 20
54.447990
 11
-19.238739
 21
54.447990
  0
LINE
  8
0
  6
CENTER
 62
     2
 10
-25.000000
 20
48.909145
 11
-25.000000
 21
60.345570
  0
LINE
  8
0
 10
-17.832550
 20
5.947992
 11
17.832531
 21
5.947992
  0
LINE
  8
0
 10
0.150009
 20
0.647997
 11
0.150009
 21
5.948000
  0
LINE
  8
0
 10
12.849998
 20
0.647991
 11
12.849998
 21
5.947994
  0
LINE
  8
0
  6
CENTER
 62
     2
 10
-25.000000
 20
9.986860
 11
-25.000000
 21
-1.449564
  0
LINE
  8
0
  6
CENTER
 62
     2
 10
-30.783081
 20
4.447992
 11
-19.238770
 21
4.447992
  0
LINE
  8
0
  6
CENTER
 62
     2
 10
25.000002
 20
48.909119
 11
25.000002
 21
60.345543
  0
LINE
  8
0
  6
CENTER
 62
     2
 10
30.783087
 20
54.447990
 11
19.238766
 21
54.447990
  0
LINE
  8
0
  6
CENTER
 62
     2
 10
25.000002
 20
9.986835
 11
25.000002
 21
-1.449589
  0
LINE
  8
0
  6
CENTER
 62
     2
 10
30.783064
 20
4.447992
 11
19.238743
 21
4.447992
  0
LINE
  8
0
 10
17.133949
 20
12.947992
 11
18.865997
 21
12.947992
  0
LINE
  8
0
 10
18.865927
 20
12.947936
 11
19.731958
 21
11.447925
  0
LINE
  8
0
 10
19.731998
 20
11.447993
 11
18.865967
 21
9.947983
  0
LINE
  8
0
 10
18.865993
 20
9.947977
 11
17.133945
 21
9.947977
  0
LINE
  8
0
 10
17.133867
 20
9.947925
 11
16.267841
 21
11.447929
  0
LINE
  8
0
 10
16.267796
 20
11.448004
 11
17.133821
 21
12.948006
  0
LINE
  8
0
 10
-17.133957
 20
45.947990
 11
-18.865997
 21
45.947990
  0
LINE
  8
0
 10
-18.865948
 20
45.948025
 11
-19.731977
 21
47.448036
  0
LINE
  8
0
 10
-19.732098
 20
47.448051
 11
-18.866060
 21
48.948059
  0
LINE
  8
0
 10
-18.865997
 20
48.948006
 11
-17.133942
 21
48.948006
  0
LINE
  8
0
 10
-17.133909
 20
48.948029
 11
-16.267883
 21
47.448025
  0
LINE
  8
0
 10
-16.267994
 20
47.448082
 11
-17.134016
 21
45.948086
  0
LINE
  8
0
 10
-17.133957
 20
12.947992
 11
-18.866013
 21
12.947992
  0
LINE
  8
0
 10
-18.865984
 20
12.947980
 11
-19.732016
 21
11.447973
  0
LINE
  8
0
 10
-19.732096
 20
11.447986
 11
-18.866058
 21
9.947977
  0
LINE
  8
0
 10
-18.866013
 20
9.947977
 11
-17.133972
 21
9.947977
  0
LINE
  8
0
 10
-17.133917
 20
9.947957
 11
-16.267889
 21
11.447966
  0
LINE
  8
0
 10
-16.267958
 20
11.447962
 11
-17.133978
 21
12.947962
  0
LINE
  8
0
 10
-23.979332
 20
25.948023
 11
-21.958611
 21
29.448017
  0
LINE
  8
0
 10
-30.041494
 20
29.448019
 11
-28.020767
 21
32.948021
  0
LINE
  8
0
 10
-21.958662
 20
29.447960
 11
-23.979383
 21
32.947952
  0
LINE
  8
0
 10
-28.020861
 20
25.947956
 11
-30.041590
 21
29.447962
  0
LINE
  8
0
 10
-28.020737
 20
25.947985
 11
-23.979279
 21
25.947985
  0
LINE
  8
0
 10
-28.020737
 20
32.947983
 11
-23.979279
 21
32.947983
  0
LINE
  8
0
 10
-24.677132
 20
30.947985
 11
-27.322884
 21
30.947985
  0
LINE
  8
0
 10
-24.677132
 20
27.947985
 11
-27.322884
 21
27.947985
  0
LINE
  8
0
 10
17.133965
 20
45.947990
 11
18.866013
 21
45.947990
  0
LINE
  8
0
 10
18.865900
 20
45.948048
 11
19.731928
 21
47.448051
  0
LINE
  8
0
 10
19.732046
 20
47.447990
 11
18.866018
 21
48.947998
  0
LINE
  8
0
 10
18.866016
 20
48.948006
 11
17.133968
 21
48.948006
  0
LINE
  8
0
 10
17.133848
 20
48.948059
 11
16.267820
 21
47.448051
  0
LINE
  8
0
 10
16.267885
 20
47.448002
 11
17.133909
 21
45.948006
  0
LINE
  8
0
 10
-1.000000
 20
8.471815
 11
-1.000000
 21
19.498117
  0
LINE
  8
0
 10
-1.000000
 20
39.397865
 11
-1.000000
 21
50.424164
  0
LINE
  8
0
 10
0.000000
 20
39.447990
 11
0.000000
 21
52.947990
  0
LINE
  8
0
 10
26.999998
 20
17.563120
 11
26.999998
 21
41.332848
  0
LINE
  8
0
 10
18.000008
 20
42.447990
 11
26.481134
 21
42.447990
  0
LINE
  8
0
 10
17.999992
 20
16.447992
 11
26.481112
 21
16.447992
  0
LINE
  8
0
 10
13.000000
 20
11.447987
 11
13.000000
 21
5.947987
  0
LINE
  8
0
 10
13.000000
 20
47.447990
 11
13.000000
 21
52.947990
  0
LINE
  8
0
 10
0.000000
 20
19.447992
 11
0.000000
 21
5.947992
  0
LINE
  8
0
 10
-17.832535
 20
52.947990
 11
17.832554
 21
52.947990
  0
LINE
  8
0
 10
-14.500000
 20
9.447992
 11
-6.403130
 21
9.447992
  0
LINE
  8
0
 10
-14.500000
 20
9.447994
 11
-14.500000
 21
14.257544
  0
LINE
  8
0
 10
-14.500000
 20
49.447990
 11
-14.500000
 21
44.638451
  0
LINE
  8
0
 10
-14.500000
 20
49.447990
 11
-6.403126
 21
49.447990
  0
LINE
  8
0
 10
-40.000000
 20
-10.551985
 11
-40.000000
 21
69.448013
  0
LINE
  8
0
 10
-39.999977
 20
69.447998
 11
40.000023
 21
69.447998
  0
LINE
  8
0
 10
40.000000
 20
-10.552019
 11
40.000000
 21
69.447975
  0
LINE
  8
0
 10
10.999977
 20
-10.552008
 11
39.999977
 21
-10.552008
  0
LINE
  8
0
 10
8.999977
 20
-10.552008
 11
7.499977
 21
-10.552008
  0
LINE
  8
0
 10
3.999985
 20
-10.552008
 11
5.499977
 21
-10.552008
  0
LINE
  8
0
 10
-40.000023
 20
-10.552008
 11
1.999985
 21
-10.552008
  0
LINE
  8
0
  6
CENTER
 62
     2
 10
-32.500000
 20
2.486866
 11
-32.500000
 21
-8.949553
  0
LINE
  8
0
  6
CENTER
 62
     2
 10
-38.283089
 20
-3.052008
 11
-26.738777
 21
-3.052008
  0
LINE
  8
0
  6
CENTER
 62
     2
 10
3.358761
 20
-3.052015
 11
-3.565662
 21
-3.052015
  0
LINE
  8
0
  6
CENTER
 62
     2
 10
38.283054
 20
-3.052008
 11
26.738733
 21
-3.052008
  0
LINE
  8
0
  6
CENTER
 62
     2
 10
32.500000
 20
2.486832
 11
32.500000
 21
-8.949591
  0
LINE
  8
0
  6
CENTER
 62
     2
 10
-32.500000
 20
32.806786
 11
-32.500000
 21
25.882359
  0
LINE
  8
0
  6
CENTER
 62
     2
 10
-32.500000
 20
56.409157
 11
-32.500000
 21
67.845581
  0
LINE
  8
0
  6
CENTER
 62
     2
 10
-38.283058
 20
61.947990
 11
-26.738731
 21
61.947990
  0
LINE
  8
0
  6
CENTER
 62
     2
 10
3.358791
 20
54.447998
 11
-3.565632
 21
54.447998
  0
LINE
  8
0
  6
CENTER
 62
     2
 10
3.358799
 20
61.947998
 11
-3.565624
 21
61.947998
  0
LINE
  8
0
  6
CENTER
 62
     2
 10
32.500000
 20
56.409119
 11
32.500000
 21
67.845551
  0
LINE
  8
0
  6
CENTER
 62
     2
 10
38.283092
 20
61.947990
 11
26.738771
 21
61.947990
  0
LINE
  8
0
  6
CENTER
 62
     2
 10
32.500008
 20
26.089195
 11
32.500008
 21
33.013618
  0
LINE
  8
0
  6
CENTER
 62
     2
 10
0.000000
 20
-13.305418
 11
0.000000
 21
72.335861
  0
LINE
  8
0
 62
     2
 10
7.499971
 20
-16.887915
 11
5.499974
 21
-16.352018
  0
LINE
  8
0
 62
     2
 10
10.999979
 20
-16.887869
 11
8.999975
 21
-16.351969
  0
LINE
  8
0
 62
     2
 10
3.999976
 20
-16.887917
 11
1.999980
 21
-16.352018
  0
LINE
  8
0
  6
CENTER
 62
     2
 10
-45.324997
 20
29.447992
 11
45.324997
 21
29.447992
  0
LINE
  8
0
 10
5.499985
 20
-1.652010
 11
3.999985
 21
-1.652010
  0
LINE
  8
0
 10
8.999985
 20
-1.652010
 11
7.499985
 21
-1.652010
  0
LINE
  8
0
  6
CENTER
 62
     2
 10
-103.402344
 20
29.448006
 11
-142.001450
 21
29.448006
  0
LINE
  8
0
 10
-122.000000
 20
14.947998
 11
-125.699997
 21
14.947998
  0
LINE
  8
0
 10
-122.000015
 20
7.947998
 11
-125.700012
 21
7.947998
  0
LINE
  8
0
 10
-122.000000
 20
14.947992
 11
-122.000000
 21
7.947992
  0
LINE
  8
0
 10
-107.500000
 20
52.948002
 11
-107.500000
 21
5.947987
  0
LINE
  8
0
 10
-122.000000
 20
43.947998
 11
-125.699997
 21
43.947998
  0
LINE
  8
0
 10
-122.000000
 20
50.947990
 11
-122.000000
 21
43.947990
  0
LINE
  8
0
 10
-126.500000
 20
5.947994
 11
-126.500000
 21
52.948006
  0
LINE
  8
0
 10
-125.699997
 20
7.447994
 11
-125.699997
 21
15.447994
  0
LINE
  8
0
 10
-125.700012
 20
7.447998
 11
-126.500015
 21
7.447998
  0
LINE
  8
0
 10
-125.699997
 20
15.447998
 11
-126.500000
 21
15.447998
  0
LINE
  8
0
 10
-125.699982
 20
51.448013
 11
-126.499985
 21
51.448013
  0
LINE
  8
0
 10
-125.699997
 20
43.448013
 11
-126.500000
 21
43.448013
  0
LINE
  8
0
 10
-125.699997
 20
51.448006
 11
-125.699997
 21
43.448006
  0
LINE
  8
0
 10
-123.299988
 20
25.948000
 11
-123.299988
 21
32.947998
  0
LINE
  8
0
 10
-120.000000
 20
27.947998
 11
-120.000000
 21
30.947998
  0
LINE
  8
0
 10
-123.000000
 20
30.948000
 11
-123.000000
 21
31.448000
  0
LINE
  8
0
 10
-123.000000
 20
31.448006
 11
-123.299988
 21
31.448006
  0
LINE
  8
0
 10
-125.699982
 20
51.448013
 11
-126.499985
 21
51.448013
  0
LINE
  8
0
 10
-115.999992
 20
46.757370
 11
-113.999992
 21
45.602669
  0
LINE
  8
0
 10
-118.000053
 20
45.602791
 11
-116.000061
 21
46.757484
  0
LINE
  8
0
 10
-118.000000
 20
43.293243
 11
-116.000000
 21
42.138542
  0
LINE
  8
0
 10
-116.000015
 20
42.138683
 11
-114.000008
 21
43.293385
  0
LINE
  8
0
 10
-114.000000
 20
43.293304
 11
-114.000000
 21
45.602699
  0
LINE
  8
0
 10
-118.000000
 20
43.293304
 11
-118.000000
 21
45.602707
  0
LINE
  8
0
 10
-121.999985
 20
50.948013
 11
-125.699982
 21
50.948013
  0
LINE
  8
0
 10
-123.299988
 20
25.948006
 11
-126.500000
 21
25.948006
  0
LINE
  8
0
 10
-123.299988
 20
32.948006
 11
-126.500000
 21
32.948006
  0
LINE
  8
0
 10
-120.000000
 20
30.948006
 11
-123.000000
 21
30.948006
  0
LINE
  8
0
 10
-120.000000
 20
27.948006
 11
-123.000000
 21
27.948006
  0
LINE
  8
0
 10
-123.000000
 20
27.948000
 11
-123.000000
 21
27.448000
  0
LINE
  8
0
 10
-123.000000
 20
27.448006
 11
-123.299988
 21
27.448006
  0
LINE
  8
0
 10
-131.500015
 20
5.947998
 11
-107.500015
 21
5.947998
  0
LINE
  8
0
 10
-122.000015
 20
8.471821
 11
-108.500015
 21
8.471821
  0
LINE
  8
0
 10
-121.999985
 20
50.424187
 11
-108.499985
 21
50.424187
  0
LINE
  8
0
 10
-131.499985
 20
52.948013
 11
-107.499985
 21
52.948013
  0
LINE
  8
0
 10
-126.500000
 20
29.448006
 11
-123.702805
 21
29.448006
  0
LINE
  8
0
 10
-130.500000
 20
0.647997
 11
-130.500000
 21
5.947996
  0
LINE
  8
0
 10
-115.500015
 20
2.297997
 11
-110.000015
 21
2.297997
  0
LINE
  8
0
 62
     2
 10
-106.999985
 20
-16.887857
 11
-108.999985
 21
-16.351957
  0
LINE
  8
0
 10
-115.500015
 20
4.297997
 11
-110.000015
 21
4.297997
  0
LINE
  8
0
 10
-109.000000
 20
1.297985
 11
-109.000000
 21
-16.351959
  0
LINE
  8
0
 10
-115.500000
 20
5.947989
 11
-115.500000
 21
0.647989
  0
LINE
  8
0
 10
-107.000000
 20
1.297985
 11
-107.000000
 21
-16.887856
  0
LINE
  8
0
 10
-130.500015
 20
0.647999
 11
-115.500015
 21
0.647999
  0
LINE
  8
0
 10
-108.500000
 20
8.471809
 11
-108.500000
 21
50.424175
  0
LINE
  8
0
 10
-116.000076
 20
12.138670
 11
-114.000076
 21
13.293371
  0
LINE
  8
0
 10
-118.000000
 20
13.293206
 11
-116.000015
 21
12.138513
  0
LINE
  8
0
 10
-118.000000
 20
13.293304
 11
-118.000000
 21
15.602707
  0
LINE
  8
0
 10
-118.000046
 20
15.602770
 11
-116.000061
 21
16.757463
  0
LINE
  8
0
 10
-116.000023
 20
16.757339
 11
-114.000038
 21
15.602647
  0
LINE
  8
0
 10
-114.000000
 20
13.293304
 11
-114.000000
 21
15.602699
  0
LINE
  8
0
 10
-131.500000
 20
69.447998
 11
-131.500000
 21
-10.552002
  0
LINE
  8
0
 10
-131.500015
 20
-10.551994
 11
-138.500015
 21
-10.551994
  0
LINE
  8
0
 10
-138.500000
 20
69.448006
 11
-138.500000
 21
-10.551994
  0
LINE
  8
0
 10
-131.499985
 20
69.448006
 11
-138.499985
 21
69.448006
  0
LINE
  8
0
 10
-125.900009
 20
-1.652000
 11
-121.900009
 21
-1.652000
  0
LINE
  8
0
 10
-125.899994
 20
0.647995
 11
-125.899994
 21
-1.652004
  0
LINE
  8
0
 10
-121.899994
 20
0.647993
 11
-121.899994
 21
-1.652006
  0
LINE
  8
0
  6
CENTER
 62
     2
 10
-128.876022
 20
61.948006
 11
-141.486649
 21
61.948006
  0
LINE
  8
0
  6
CENTER
 62
     2
 10
-128.876053
 20
-3.051994
 11
-141.486679
 21
-3.051994
  0
LINE
  8
0
  6
CENTER
 62
     2
 10
-128.876022
 20
54.448006
 11
-141.486649
 21
54.448006
  0
LINE
  8
0
  6
CENTER
 62
     2
 10
-128.876053
 20
4.448004
 11
-141.486679
 21
4.448004
  0
LINE
  8
0
  6
CENTER
 62
     2
 10
147.093658
 20
29.447994
 11
107.231323
 21
29.447994
  0
LINE
  8
0
 10
131.999969
 20
0.648048
 11
131.999969
 21
5.948048
  0
LINE
  8
0
 10
116.999771
 20
2.297985
 11
111.499771
 21
2.297985
  0
LINE
  8
0
 62
     2
 10
110.499641
 20
-16.887789
 11
108.499634
 21
-16.351889
  0
LINE
  8
0
 10
116.999786
 20
4.297985
 11
111.499786
 21
4.297985
  0
LINE
  8
0
 10
110.499977
 20
1.298210
 11
110.499977
 21
-16.887623
  0
LINE
  8
0
 10
116.999977
 20
5.948162
 11
116.999977
 21
0.648163
  0
LINE
  8
0
 10
108.499977
 20
1.298225
 11
108.499977
 21
-16.351711
  0
LINE
  8
0
 10
123.699814
 20
7.947987
 11
127.199814
 21
7.947987
  0
LINE
  8
0
 10
123.699974
 20
14.948112
 11
123.699974
 21
7.948112
  0
LINE
  8
0
 10
127.199974
 20
7.448086
 11
127.199974
 21
15.448086
  0
LINE
  8
0
 10
123.699867
 20
14.947987
 11
127.199867
 21
14.947987
  0
LINE
  8
0
 10
123.700134
 20
50.947987
 11
127.200134
 21
50.947987
  0
LINE
  8
0
 10
131.999756
 20
0.647987
 11
116.999756
 21
0.647987
  0
LINE
  8
0
 10
123.700081
 20
43.947987
 11
127.200081
 21
43.947987
  0
LINE
  8
0
 10
123.699974
 20
50.948112
 11
123.699974
 21
43.948112
  0
LINE
  8
0
 10
127.199806
 20
7.447987
 11
127.999809
 21
7.447987
  0
LINE
  8
0
 10
127.199867
 20
15.447987
 11
127.999870
 21
15.447987
  0
LINE
  8
0
 10
127.200142
 20
51.448002
 11
128.000153
 21
51.448002
  0
LINE
  8
0
 10
127.199974
 20
51.448101
 11
127.199974
 21
43.448101
  0
LINE
  8
0
 10
127.200081
 20
43.448002
 11
128.000092
 21
43.448002
  0
LINE
  8
0
  6
CENTER
 62
     2
 10
113.333405
 20
21.447994
 11
119.975899
 21
21.447994
  0
LINE
  8
0
  6
CENTER
 62
     2
 10
116.999977
 20
41.479954
 11
116.999977
 21
17.668346
  0
LINE
  8
0
  6
CENTER
 62
     2
 10
113.333527
 20
37.447994
 11
119.976021
 21
37.447994
  0
LINE
  8
0
 10
127.999977
 20
42.448093
 11
127.999977
 21
52.948093
  0
LINE
  8
0
 10
108.999802
 20
5.947987
 11
132.999802
 21
5.947987
  0
LINE
  8
0
 10
108.999886
 20
17.563129
 11
132.999878
 21
17.563129
  0
LINE
  8
0
 10
109.000153
 20
52.948002
 11
133.000153
 21
52.948002
  0
LINE
  8
0
 10
109.000076
 20
42.448002
 11
128.000076
 21
42.448002
  0
LINE
  8
0
 10
109.000069
 20
41.332859
 11
133.000061
 21
41.332859
  0
LINE
  8
0
 10
108.999878
 20
16.447987
 11
127.999878
 21
16.447987
  0
LINE
  8
0
 10
127.999977
 20
16.448078
 11
127.999977
 21
5.948078
  0
LINE
  8
0
 10
108.999977
 20
52.948238
 11
108.999977
 21
5.948223
  0
LINE
  8
0
 10
132.999969
 20
69.448059
 11
132.999969
 21
-10.551952
  0
LINE
  8
0
 10
132.999664
 20
-10.552006
 11
139.999664
 21
-10.552006
  0
LINE
  8
0
 10
133.000275
 20
69.447998
 11
140.000275
 21
69.447998
  0
LINE
  8
0
 10
139.999969
 20
69.447998
 11
139.999969
 21
-10.552006
  0
LINE
  8
0
 10
127.399742
 20
-1.652012
 11
123.399742
 21
-1.652012
  0
LINE
  8
0
 10
127.399979
 20
0.648083
 11
127.399979
 21
-1.651917
  0
LINE
  8
0
 10
123.399979
 20
0.648113
 11
123.399979
 21
-1.651886
  0
LINE
  8
0
  6
CENTER
 62
     2
 10
131.575806
 20
-3.052006
 11
141.944550
 21
-3.052006
  0
LINE
  8
0
  6
CENTER
 62
     2
 10
130.595230
 20
61.947998
 11
142.365143
 21
61.947998
  0
LINE
  8
0
  6
CENTER
 62
     2
 10
131.575836
 20
4.447994
 11
141.944565
 21
4.447994
  0
LINE
  8
0
  6
CENTER
 62
     2
 10
130.595200
 20
54.447998
 11
142.365112
 21
54.447998
  0
LINE
  8
0
  6
CENTER
 62
     2
 10
0.000000
 20
-58.301998
 11
0.000000
 21
-99.952003
  0
LINE
  8
0
 10
0.150017
 20
-70.951988
 11
12.850014
 21
-70.951988
  0
LINE
  8
0
 10
7.499992
 20
-61.551998
 11
7.499992
 21
-70.951988
  0
LINE
  8
0
 10
5.499992
 20
-61.551998
 11
5.499992
 21
-70.951988
  0
LINE
  8
0
 10
8.999992
 20
-61.551998
 11
8.999992
 21
-70.951988
  0
LINE
  8
0
 10
3.749992
 20
-61.551998
 11
3.749992
 21
-70.951988
  0
LINE
  8
0
 10
10.999992
 20
-61.552013
 11
10.999992
 21
-70.952003
  0
LINE
  8
0
 10
1.749992
 20
-61.551998
 11
1.749992
 21
-70.951988
  0
LINE
  8
0
 10
9.600014
 20
-80.547836
 11
9.600014
 21
-81.356125
  0
LINE
  8
0
 10
8.899962
 20
-80.143867
 11
9.599961
 21
-80.548012
  0
LINE
  8
0
 10
8.200018
 20
-80.547829
 11
8.900017
 21
-80.143684
  0
LINE
  8
0
 10
8.200020
 20
-81.356140
 11
8.200020
 21
-80.547852
  0
LINE
  8
0
 10
8.899994
 20
-81.760368
 11
8.199996
 21
-81.356224
  0
LINE
  8
0
 10
9.599972
 20
-81.356133
 11
8.899973
 21
-81.760277
  0
LINE
  8
0
 10
4.099972
 20
-81.760330
 11
3.399974
 21
-81.356186
  0
LINE
  8
0
 10
4.799980
 20
-81.356102
 11
4.099981
 21
-81.760246
  0
LINE
  8
0
 10
4.800011
 20
-80.547852
 11
4.800011
 21
-81.356140
  0
LINE
  8
0
 10
4.099974
 20
-80.143837
 11
4.799973
 21
-80.547981
  0
LINE
  8
0
 10
3.400014
 20
-80.547829
 11
4.100013
 21
-80.143684
  0
LINE
  8
0
 10
3.400017
 20
-81.356140
 11
3.400017
 21
-80.547852
  0
LINE
  8
0
 10
12.849998
 20
-64.552002
 11
12.849998
 21
-87.552002
  0
LINE
  8
0
 10
0.150009
 20
-70.951996
 11
0.150009
 21
-87.551987
  0
LINE
  8
0
 10
-14.500000
 20
-79.251984
 11
-14.500000
 21
-82.751984
  0
LINE
  8
0
 10
-21.500000
 20
-79.251984
 11
-21.500000
 21
-82.751984
  0
LINE
  8
0
 10
-14.499985
 20
-79.251999
 11
-21.499985
 21
-79.251999
  0
LINE
  8
0
 10
3.750015
 20
-64.551994
 11
5.500015
 21
-64.551994
  0
LINE
  8
0
 10
7.500015
 20
-64.551994
 11
9.000015
 21
-64.551994
  0
LINE
  8
0
 10
11.000015
 20
-64.551994
 11
27.000021
 21
-64.551994
  0
LINE
  8
0
 10
21.500000
 20
-79.252014
 11
21.500000
 21
-82.752014
  0
LINE
  8
0
 10
14.500000
 20
-79.252014
 11
14.500000
 21
-82.752014
  0
LINE
  8
0
 10
21.500015
 20
-79.251999
 11
14.500015
 21
-79.251999
  0
LINE
  8
0
 10
-22.000000
 20
-82.751999
 11
-14.000000
 21
-82.751999
  0
LINE
  8
0
 10
-29.500000
 20
-83.551979
 11
-29.500000
 21
-88.551979
  0
LINE
  8
0
 10
-30.041542
 20
-83.551994
 11
0.000008
 21
-83.551994
  0
LINE
  8
0
 10
27.000006
 20
-83.551994
 11
12.850006
 21
-83.551994
  0
LINE
  8
0
 10
-22.000000
 20
-82.751984
 11
-22.000000
 21
-83.551979
  0
LINE
  8
0
 10
-14.000000
 20
-82.751984
 11
-14.000000
 21
-83.551979
  0
LINE
  8
0
 10
22.000000
 20
-82.752014
 11
22.000000
 21
-83.552010
  0
LINE
  8
0
 10
22.000008
 20
-82.751999
 11
14.000008
 21
-82.751999
  0
LINE
  8
0
 10
14.000000
 20
-82.752014
 11
14.000000
 21
-83.552010
  0
LINE
  8
0
 10
-14.500000
 20
-77.051971
 11
-14.500000
 21
-69.052010
  0
LINE
  8
0
 10
-13.500000
 20
-68.052017
 11
-13.500000
 21
-78.051971
  0
LINE
  8
0
 10
-13.499985
 20
-78.051987
 11
-11.183357
 21
-78.051987
  0
LINE
  8
0
 10
-14.499936
 20
-77.051956
 11
-13.499933
 21
-78.051956
  0
LINE
  8
0
 10
-14.500000
 20
-81.051994
 11
0.150013
 21
-81.051994
  0
LINE
  8
0
 10
-1.000000
 20
-65.051994
 11
-1.000000
 21
-81.051994
  0
LINE
  8
0
 10
26.999998
 20
-64.552010
 11
26.999998
 21
-88.552010
  0
LINE
  8
0
 10
-21.000000
 20
-65.051979
 11
-21.000000
 21
-79.251991
  0
LINE
  8
0
 10
1.750015
 20
-64.551994
 11
0.000023
 21
-64.551994
  0
LINE
  8
0
 10
0.000000
 20
-83.551994
 11
0.000000
 21
-64.551994
  0
LINE
  8
0
 10
0.150009
 20
-87.551987
 11
12.850006
 21
-87.551987
  0
LINE
  8
0
 10
-13.499969
 20
-68.052002
 11
-11.183334
 21
-68.052002
  0
LINE
  8
0
 10
-14.499958
 20
-69.051994
 11
-13.499955
 21
-68.051994
  0
LINE
  8
0
 10
-20.999969
 20
-65.051994
 11
0.000011
 21
-65.051994
  0
LINE
  8
0
 10
-40.000000
 20
-88.551994
 11
40.000008
 21
-88.551994
  0
LINE
  8
0
 10
40.000000
 20
-88.552017
 11
40.000000
 21
-95.552025
  0
LINE
  8
0
 10
-40.000000
 20
-88.551964
 11
-40.000000
 21
-95.551964
  0
LINE
  8
0
 10
-40.000000
 20
-95.551994
 11
40.000000
 21
-95.551994
  0
LINE
  8
0
  6
CENTER
 62
     2
 10
-25.000000
 20
-85.761841
 11
-25.000000
 21
-98.614563
  0
LINE
  8
0
  6
CENTER
 62
     2
 10
25.000000
 20
-85.650093
 11
25.000000
 21
-97.944000
  0
LINE
  8
0
  6
CENTER
 62
     2
 10
-32.500000
 20
-85.761833
 11
-32.500000
 21
-98.614555
  0
LINE
  8
0
  6
CENTER
 62
     2
 10
32.500000
 20
-85.650101
 11
32.500000
 21
-97.944008
  0
LINE
  8
0
 10
-30.041542
 20
-80.351990
 11
-30.041542
 21
-83.551994
  0
LINE
  8
0
 10
-21.958612
 20
-80.351990
 11
-21.958612
 21
-82.751999
  0
LINE
  8
0
 10
-30.041542
 20
-80.351990
 11
-21.958612
 21
-80.351990
  0
LINE
  8
0
 10
-28.000008
 20
-77.051987
 11
-24.000008
 21
-77.051987
  0
LINE
  8
0
 10
-27.322884
 20
-80.051987
 11
-24.677132
 21
-80.051987
  0
LINE
  8
0
 10
-28.020737
 20
-80.351990
 11
-28.020737
 21
-83.551994
  0
LINE
  8
0
 10
-23.979279
 20
-80.351990
 11
-23.979279
 21
-83.551994
  0
LINE
  8
0
 10
-24.000008
 20
-77.051987
 11
-24.000008
 21
-80.351990
  0
LINE
  8
0
 10
-28.000008
 20
-77.051987
 11
-28.000008
 21
-80.351990
  0
LINE
  8
0
 10
-24.677132
 20
-77.051987
 11
-24.677132
 21
-80.051987
  0
LINE
  8
0
 10
-27.322884
 20
-77.051987
 11
-27.322884
 21
-80.051987
  0
CIRCLE
  8
0
 10
0.000034
 20
61.947990
 40
2.000000
  0
CIRCLE
  8
0
 10
32.500019
 20
61.947975
 40
4.000000
  0
CIRCLE
  8
0
 10
32.500019
 20
61.947968
 40
2.250000
  0
ARC
  8
0
 10
0.000027
 20
54.447990
 40
2.000000
 50
311.409637
 51
228.590363
  0
CIRCLE
  8
0
 10
32.500000
 20
29.447968
 40
2.000000
  0
ARC
  8
0
 10
2.999989
 20
3.647995
 40
1.000000
 50
0.000014
 51
179.999969
  0
ARC
  8
0
 10
6.499989
 20
3.647993
 40
1.000000
 50
0.000014
 51
179.999969
  0
ARC
  8
0
 10
9.999989
 20
3.647991
 40
1.000000
 50
0.000014
 51
179.999969
  0
CIRCLE
  8
0
 10
-25.000015
 20
4.448011
 40
2.250000
  0
CIRCLE
  8
0
 10
-24.999985
 20
54.448009
 40
2.250000
  0
CIRCLE
  8
0
 10
25.000010
 20
54.447983
 40
2.250000
  0
CIRCLE
  8
0
 10
24.999985
 20
4.447987
 40
2.250000
  0
CIRCLE
  8
0
 10
-24.999985
 20
54.448002
 40
4.000000
  0
CIRCLE
  8
0
 10
-25.000015
 20
4.448004
 40
4.000000
  0
CIRCLE
  8
0
 10
25.000013
 20
54.447975
 40
4.000000
  0
CIRCLE
  8
0
 10
24.999989
 20
4.447979
 40
4.000000
  0
CIRCLE
  8
0
 10
-26.000008
 20
29.448008
 40
2.000000
  0
CIRCLE
  8
0
 62
     2
 10
-26.000008
 20
29.448008
 40
1.120000
  0
CIRCLE
  8
0
 10
-26.000008
 20
29.448008
 40
3.500000
  0
CIRCLE
  8
0
 10
0.000000
 20
29.447992
 40
10.000000
  0
ARC
  8
0
 10
-0.000008
 20
29.447992
 40
29.500000
 50
181.875046
 51
232.807587
  0
ARC
  8
0
 10
-0.000008
 20
29.447992
 40
29.500000
 50
23.758106
 51
52.807610
  0
ARC
  8
0
 10
0.000000
 20
29.448000
 40
29.500000
 50
307.192383
 51
336.241852
  0
ARC
  8
0
 10
17.999989
 20
11.447983
 40
5.000000
 50
89.999977
 51
179.999969
  0
CIRCLE
  8
0
 10
17.999989
 20
11.447983
 40
4.000000
  0
ARC
  8
0
 10
18.000011
 20
47.447983
 40
5.000000
 50
180.000000
 51
270.000031
  0
CIRCLE
  8
0
 10
18.000011
 20
47.447983
 40
4.000000
  0
ARC
  8
0
 10
-0.000008
 20
29.447992
 40
29.500000
 50
127.192413
 51
178.124939
  0
ARC
  8
0
 10
-18.000015
 20
11.448002
 40
4.000000
 50
28.955040
 51
331.045166
  0
ARC
  8
0
 10
-17.999985
 20
47.448002
 40
4.000000
 50
28.955236
 51
331.044952
  0
ARC
  8
0
 10
0.000000
 20
29.447992
 40
21.000002
 50
92.665901
 51
267.270538
  0
CIRCLE
  8
0
 10
-32.500023
 20
-3.051985
 40
4.000000
  0
CIRCLE
  8
0
 10
-32.500023
 20
-3.051977
 40
2.250000
  0
CIRCLE
  8
0
 10
-0.000004
 20
-3.052008
 40
2.000000
  0
CIRCLE
  8
0
 10
32.499981
 20
-3.052023
 40
4.000000
  0
CIRCLE
  8
0
 10
32.499981
 20
-3.052015
 40
2.250000
  0
CIRCLE
  8
0
 10
-32.500000
 20
29.448009
 40
2.000000
  0
CIRCLE
  8
0
 10
-32.499977
 20
61.948013
 40
4.000000
  0
CIRCLE
  8
0
 10
-32.499977
 20
61.948006
 40
2.250000
  0
CIRCLE
  8
0
 10
-115.999985
 20
44.448006
 40
5.500000
  0
ARC
  8
0
 10
-127.302750
 20
27.698002
 40
4.002762
 50
334.074768
 51
25.925245
  0
ARC
  8
0
 10
-127.302750
 20
31.198002
 40
4.002762
 50
334.074768
 51
25.925245
  0
CIRCLE
  8
0
 10
-116.000015
 20
14.448005
 40
5.500000
  0
ARC
  8
0
 10
-110.000015
 20
1.297987
 40
3.000000
 50
359.999939
 51
90.000000
  0
ARC
  8
0
 10
-110.000015
 20
1.297987
 40
1.000000
 50
359.999939
 51
90.000000
  0
ARC
  8
0
 10
111.499763
 20
1.298203
 40
1.000000
 50
90.000000
 51
180.000015
  0
ARC
  8
0
 10
111.499763
 20
1.298203
 40
3.000000
 50
90.000000
 51
180.000015
  0
CIRCLE
  8
0
 62
     2
 10
117.000038
 20
37.448170
 40
2.000000
  0
CIRCLE
  8
0
 62
     2
 10
116.999916
 20
21.448170
 40
2.000000
  0
CIRCLE
  8
0
 10
116.999977
 20
29.448170
 40
3.000000
  0
CIRCLE
  8
0
 10
117.000038
 20
37.448170
 40
1.600000
  0
CIRCLE
  8
0
 10
116.999977
 20
21.447994
 40
1.600000
  0
CIRCLE
  8
0
 10
2.750015
 20
-61.552002
 40
0.500000
  0
CIRCLE
  8
0
 10
6.500015
 20
-61.552010
 40
0.500000
  0
CIRCLE
  8
0
 10
4.100014
 20
-80.951996
 40
2.000000
  0
CIRCLE
  8
0
 10
10.000015
 20
-61.552010
 40
0.500000
  0
CIRCLE
  8
0
 10
8.900017
 20
-80.951996
 40
2.000000
  0
CIRCLE
  8
0
 10
2.750015
 20
-61.552002
 40
1.000000
  0
CIRCLE
  8
0
 10
6.500015
 20
-61.552010
 40
1.000000
  0
CIRCLE
  8
0
 10
10.000015
 20
-61.552010
 40
1.000000
  0
CIRCLE
  8
0
 10
-14.499985
 20
-73.051987
 40
6.000000
  0
ARC
  8
0
 10
-29.031139
 20
-81.820648
 40
1.468655
 50
46.529728
 51
133.470276
  0
ARC
  8
0
 10
-26.000008
 20
-85.622032
 40
5.270039
 50
67.453239
 51
112.546776
  0
ARC
  8
0
 10
-22.968945
 20
-81.820473
 40
1.468479
 50
46.527016
 51
133.473038
  0
TEXT
  8
0
 10
115.907150
 20
122.050003
 40
4.500000
  1
DATE : MAY ,1993
 50
0.000000
 41
1.052631
 51
0.000000
  7
STANDARD
  0
TEXT
  8
0
 10
113.700279
 20
-130.669998
 40
6.300000
  1
KOGANEI CORP.
 50
0.000000
 41
1.052632
 51
0.000000
  7
STANDARD
  0
TEXT
  8
0
 10
-185.892654
 20
122.050003
 40
4.500000
  1
HANDLING MODULE
 50
0.000000
 41
1.052632
 51
0.000000
  7
STANDARD
  0
TEXT
  8
0
 10
-186.892654
 20
104.550003
 40
4.500000
  1
MODEL:SHM11M-20
 50
0.000000
 41
1.052632
 51
0.000000
  7
STANDARD
  0
ENDSEC
  0
EOF
