  0
SECTION
  2
HEADER
  0
ENDSEC
  0
SECTION
  2
TABLES
  0
TABLE
  2
LTYPE
 70
     4
  0
LTYPE
  2
CONTINUOUS
 70
    64
  3
Solid line
 72
    65
 73
     0
 40
0.000000
  0
LTYPE
  2
DASHED
 70
    64
  3
__ __ __ __ __ __ __ __ __ __ __ __ __ __ __
 72
    65
 73
     2
 40
3.500000
 49
2.000000
 49
-1.500000
  0
LTYPE
  2
CENTER
 70
    64
  3
____ _ ____ _ ____ _ ____ _ ____ _ ____ _ ____
 72
    65
 73
     4
 40
17.500000
 49
13.000000
 49
-1.500000
 49
1.500000
 49
-1.500000
  0
LTYPE
  2
PHANTOM
 70
    64
  3
_____ _ _ _____ _ _ _____ _ _ _____ _ _ ____  
 72
    65
 73
     6
 40
15.500000
 49
8.000000
 49
-1.500000
 49
1.500000
 49
-1.500000
 49
1.500000
 49
-1.500000
  0
LTYPE
  2
DASHED1
 70
    64
  3
__ __ __ __ __ __ __ __ __ __ __ __ __ __ __
 72
    65
 73
     2
 40
1.500000
 49
1.000000
 49
-0.500000
  0
LTYPE
  2
DASHED2
 70
    64
  3
__ __ __ __ __ __ __ __ __ __ __ __ __ __ __
 72
    65
 73
     2
 40
3.500000
 49
2.500000
 49
-1.000000
  0
LTYPE
  2
DASHED3
 70
    64
  3
__ __ __ __ __ __ __ __ __ __ __ __ __ __ __
 72
    65
 73
     2
 40
6.000000
 49
4.000000
 49
-2.000000
  0
LTYPE
  2
DASHED4
 70
    64
  3
__ __ __ __ __ __ __ __ __ __ __ __ __ __ __
 72
    65
 73
     2
 40
12.000000
 49
10.000000
 49
-2.000000
  0
LTYPE
  2
DASHED5
 70
    64
  3
__ __ __ __ __ __ __ __ __ __ __ __ __ __ __
 72
    65
 73
     2
 40
17.000000
 49
15.000000
 49
-2.000000
  0
LTYPE
  2
DASHED6
 70
    64
  3
__ __ __ __ __ __ __ __ __ __ __ __ __ __ __
 72
    65
 73
     2
 40
29.000000
 49
27.000000
 49
-2.000000
  0
LTYPE
  2
PHANTOM1
 70
    64
  3
_____ _ _ _____ _ _ _____ _ _ _____ _ _ ____  
 72
    65
 73
     6
 40
31.000000
 49
25.000000
 49
-1.500000
 49
1.000000
 49
-1.000000
 49
1.000000
 49
-1.500000
  0
LTYPE
  2
PHANTOM2
 70
    64
  3
_____ _ _ _____ _ _ _____ _ _ _____ _ _ ____  
 72
    65
 73
     6
 40
36.000000
 49
27.000000
 49
-1.500000
 49
2.500000
 49
-1.000000
 49
2.500000
 49
-1.500000
  0
LTYPE
  2
PHANTOM3
 70
    64
  3
_____ _ _ _____ _ _ _____ _ _ _____ _ _ ____  
 72
    65
 73
     6
 40
78.000000
 49
64.000000
 49
-2.000000
 49
4.000000
 49
-2.000000
 49
4.000000
 49
-2.000000
  0
LTYPE
  2
CENTER1
 70
    64
  3
____ _ ____ _ ____ _ ____ _ ____ _ ____ _ ____
 72
    65
 73
     4
 40
19.000000
 49
14.000000
 49
-1.000000
 49
3.000000
 49
-1.000000
  0
LTYPE
  2
CENTER2
 70
    64
  3
____ _ ____ _ ____ _ ____ _ ____ _ ____ _ ____
 72
    65
 73
     4
 40
28.500000
 49
25.000000
 49
-1.000000
 49
1.500000
 49
-1.000000
  0
LTYPE
  2
CENTER3
 70
    64
  3
____ _ ____ _ ____ _ ____ _ ____ _ ____ _ ____
 72
    65
 73
     4
 40
31.500000
 49
27.000000
 49
-1.000000
 49
2.500000
 49
-1.000000
  0
LTYPE
  2
CENTER4
 70
    64
  3
____ _ ____ _ ____ _ ____ _ ____ _ ____ _ ____
 72
    65
 73
     4
 40
50.000000
 49
45.000000
 49
-1.000000
 49
3.000000
 49
-1.000000
  0
LTYPE
  2
CENTER5
 70
    64
  3
____ _ ____ _ ____ _ ____ _ ____ _ ____ _ ____
 72
    65
 73
     4
 40
100.000000
 49
92.000000
 49
-2.000000
 49
4.000000
 49
-2.000000
  0
LTYPE
  2
SBK1
 70
    64
  3
______ _ _ _ ______ _ _ _ ______ _ _ _ _____  
 72
    65
 73
     8
 40
60.500000
 49
45.000000
 49
-2.000000
 49
2.500000
 49
-2.000000
 49
2.500000
 49
-2.000000
 49
2.500000
 49
-2.000000
  0
LTYPE
  2
SBK2
 70
    64
  3
______ _ _ _ ______ _ _ _ ______ _ _ _ _____  
 72
    65
 73
     8
 40
84.000000
 49
64.000000
 49
-2.000000
 49
4.000000
 49
-2.000000
 49
4.000000
 49
-2.000000
 49
4.000000
 49
-2.000000
  0
LTYPE
  2
STCH
 70
    64
  3
__ __ __ __ __ __ __ __ __ __ __ __ __ __ __
 72
    65
 73
     2
 40
3.000000
 49
1.000000
 49
-2.000000
  0
LTYPE
  2
MTCH
 70
    64
  3
_____ _ _ _____ _ _ _____ _ _ _____ _ _ ____  
 72
    65
 73
     6
 40
80.000000
 49
66.000000
 49
-2.000000
 49
4.000000
 49
-2.000000
 49
4.000000
 49
-2.000000
  0
ENDTAB
  0
TABLE
  2
LAYER
 70
     1
  0
LAYER
  2
0
 70
     0
 62
     7
  6
CONTINUOUS
  0
ENDTAB
  0
TABLE
  2
STYLE
 70
     1
  0
STYLE
  2
STANDARD
 70
     0
 40
0.000000
 41
1.000000
 50
0.000000
 71
     0
 42
0.200000
  3
txt
  4
BIGFONT
  0
ENDTAB
  0
TABLE
  2
VIEW
 70
     0
  0
ENDTAB
  0
ENDSEC
  0
SECTION
  2
BLOCKS
  0
ENDSEC
  0
SECTION
  2
ENTITIES
  0
LINE
  8
0
 10
-194.250000
 20
132.600006
 11
194.800003
 21
132.600006
  0
LINE
  8
0
 10
194.800003
 20
132.600006
 11
194.800003
 21
-133.500000
  0
LINE
  8
0
 10
-194.250000
 20
132.600006
 11
-194.250000
 21
-133.500000
  0
LINE
  8
0
 10
-194.250000
 20
-133.500000
 11
194.800003
 21
-133.500000
  0
LINE
  8
0
 10
109.800003
 20
-118.500000
 11
109.800003
 21
-133.500000
  0
LINE
  8
0
 10
109.800003
 20
-118.500000
 11
194.800003
 21
-118.500000
  0
LINE
  8
0
 10
109.800003
 20
132.600006
 11
109.800003
 21
117.600006
  0
LINE
  8
0
 10
109.800003
 20
117.600006
 11
194.800003
 21
117.600006
  0
LINE
  8
0
 10
-194.250000
 20
117.600006
 11
-109.250000
 21
117.600006
  0
LINE
  8
0
 10
-109.250000
 20
132.600006
 11
-109.250000
 21
117.600006
  0
LINE
  8
0
  6
CENTER
 62
     2
 10
-45.324997
 20
36.336563
 11
45.325005
 21
36.336563
  0
LINE
  8
0
  6
CENTER
 62
     2
 10
0.000000
 20
-8.330097
 11
0.000000
 21
82.186569
  0
LINE
  8
0
 10
12.850010
 20
7.536560
 11
11.000011
 21
7.536560
  0
LINE
  8
0
 10
7.500008
 20
-9.999329
 11
7.500008
 21
10.536568
  0
LINE
  8
0
 10
5.500008
 20
-9.463432
 11
5.500008
 21
10.536568
  0
LINE
  8
0
 10
4.000011
 20
-9.999340
 11
4.000011
 21
10.536568
  0
LINE
  8
0
 10
9.000008
 20
-9.463402
 11
9.000008
 21
10.536568
  0
LINE
  8
0
 10
11.000008
 20
-9.999302
 11
11.000008
 21
10.536568
  0
LINE
  8
0
 10
2.000008
 20
-9.463440
 11
2.000008
 21
10.536568
  0
LINE
  8
0
 10
9.000011
 20
7.536560
 11
7.500011
 21
7.536560
  0
LINE
  8
0
 10
5.500011
 20
7.536560
 11
4.000011
 21
7.536560
  0
LINE
  8
0
 10
2.000011
 20
7.536560
 11
0.150013
 21
7.536560
  0
LINE
  8
0
 62
     2
 10
4.000005
 20
-9.999345
 11
2.000012
 21
-9.463449
  0
LINE
  8
0
 62
     2
 10
7.499994
 20
-9.999330
 11
5.499998
 21
-9.463432
  0
LINE
  8
0
 62
     2
 10
11.000012
 20
-9.999307
 11
9.000008
 21
-9.463407
  0
LINE
  8
0
 10
-40.000000
 20
-3.663441
 11
-40.000000
 21
76.336563
  0
LINE
  8
0
 10
40.000004
 20
-3.663425
 11
40.000004
 21
76.336563
  0
LINE
  8
0
 10
-40.000000
 20
-3.663437
 11
2.000011
 21
-3.663437
  0
LINE
  8
0
 10
-40.000000
 20
76.336563
 11
40.000000
 21
76.336563
  0
LINE
  8
0
  6
CENTER
 62
     2
 10
-30.783081
 20
61.336559
 11
-19.238754
 21
61.336559
  0
LINE
  8
0
  6
CENTER
 62
     2
 10
-25.000000
 20
55.797699
 11
-25.000000
 21
67.234131
  0
LINE
  8
0
 10
11.000011
 20
-3.663437
 11
40.000008
 21
-3.663437
  0
LINE
  8
0
 10
-17.832535
 20
12.836563
 11
17.832550
 21
12.836563
  0
LINE
  8
0
 10
0.150009
 20
7.536568
 11
0.150009
 21
12.836571
  0
LINE
  8
0
 10
12.850006
 20
7.536568
 11
12.850006
 21
12.836571
  0
LINE
  8
0
 10
4.000015
 20
-3.663437
 11
5.500011
 21
-3.663437
  0
LINE
  8
0
  6
CENTER
 62
     2
 10
25.000008
 20
55.797707
 11
25.000008
 21
67.234131
  0
LINE
  8
0
  6
CENTER
 62
     2
 10
30.783077
 20
61.336559
 11
19.238758
 21
61.336559
  0
LINE
  8
0
  6
CENTER
 62
     2
 10
25.000008
 20
16.875423
 11
25.000008
 21
5.438999
  0
LINE
  8
0
  6
CENTER
 62
     2
 10
30.783085
 20
11.336563
 11
19.238766
 21
11.336563
  0
LINE
  8
0
 10
17.133961
 20
19.836563
 11
18.866009
 21
19.836563
  0
LINE
  8
0
 10
18.865921
 20
19.836510
 11
19.731949
 21
18.336502
  0
LINE
  8
0
 10
19.732014
 20
18.336578
 11
18.865980
 21
16.836569
  0
LINE
  8
0
 10
18.866009
 20
16.836548
 11
17.133961
 21
16.836548
  0
LINE
  8
0
 10
17.133869
 20
16.836500
 11
16.267839
 21
18.336510
  0
LINE
  8
0
 10
16.267809
 20
18.336597
 11
17.133833
 21
19.836599
  0
LINE
  8
0
 10
-17.133957
 20
52.836559
 11
-18.866005
 21
52.836559
  0
LINE
  8
0
 10
-18.865953
 20
52.836578
 11
-19.731987
 21
54.336597
  0
LINE
  8
0
 10
-19.732128
 20
54.336617
 11
-18.866091
 21
55.836624
  0
LINE
  8
0
 10
-18.866005
 20
55.836575
 11
-17.133957
 21
55.836575
  0
LINE
  8
0
 10
-17.133888
 20
55.836590
 11
-16.267862
 21
54.336582
  0
LINE
  8
0
 10
-16.268023
 20
54.336666
 11
-17.134045
 21
52.836670
  0
LINE
  8
0
 10
-17.133957
 20
19.836563
 11
-18.866005
 21
19.836563
  0
LINE
  8
0
 10
-18.865997
 20
19.836555
 11
-19.732029
 21
18.336550
  0
LINE
  8
0
 10
-19.732086
 20
18.336517
 11
-18.866049
 21
16.836510
  0
LINE
  8
0
 10
-18.866005
 20
16.836548
 11
-17.133957
 21
16.836548
  0
LINE
  8
0
 10
-17.133949
 20
16.836540
 11
-16.267921
 21
18.336548
  0
LINE
  8
0
 10
-16.267929
 20
18.336508
 11
-17.133949
 21
19.836508
  0
LINE
  8
0
 10
-23.979376
 20
32.836597
 11
-21.958654
 21
36.336590
  0
LINE
  8
0
 10
-30.041538
 20
36.336594
 11
-28.020815
 21
39.836586
  0
LINE
  8
0
 10
-21.958662
 20
36.336506
 11
-23.979383
 21
39.836498
  0
LINE
  8
0
 10
-28.020838
 20
32.836514
 11
-30.041559
 21
36.336506
  0
LINE
  8
0
 10
-28.020737
 20
32.836555
 11
-23.979279
 21
32.836555
  0
LINE
  8
0
 10
-28.020737
 20
39.836555
 11
-23.979279
 21
39.836555
  0
LINE
  8
0
 10
-24.677132
 20
37.836555
 11
-27.322884
 21
37.836555
  0
LINE
  8
0
 10
-24.677132
 20
34.836555
 11
-27.322884
 21
34.836555
  0
LINE
  8
0
 10
17.133961
 20
52.836559
 11
18.866009
 21
52.836559
  0
LINE
  8
0
 10
18.865891
 20
52.836617
 11
19.731918
 21
54.336620
  0
LINE
  8
0
 10
19.732050
 20
54.336563
 11
18.866014
 21
55.836582
  0
LINE
  8
0
 10
18.866009
 20
55.836575
 11
17.133961
 21
55.836575
  0
LINE
  8
0
 10
17.133850
 20
55.836636
 11
16.267822
 21
54.336632
  0
LINE
  8
0
 10
16.267876
 20
54.336586
 11
17.133904
 21
52.836578
  0
LINE
  8
0
 10
0.000000
 20
42.836563
 11
0.000000
 21
59.836559
  0
LINE
  8
0
 10
9.000011
 20
-3.663437
 11
7.500011
 21
-3.663437
  0
LINE
  8
0
 10
27.000004
 20
24.451710
 11
27.000004
 21
48.221439
  0
LINE
  8
0
 10
18.000004
 20
49.336559
 11
26.481133
 21
49.336559
  0
LINE
  8
0
 10
18.000004
 20
23.336563
 11
26.481125
 21
23.336563
  0
LINE
  8
0
 10
13.000004
 20
18.336563
 11
13.000004
 21
12.836563
  0
LINE
  8
0
 10
13.000004
 20
54.336559
 11
13.000004
 21
59.836559
  0
LINE
  8
0
 10
-17.832550
 20
59.836559
 11
17.832542
 21
59.836559
  0
LINE
  8
0
 10
-13.500000
 20
21.336563
 11
-8.000000
 21
21.336563
  0
LINE
  8
0
 10
-13.500000
 20
21.336563
 11
-13.500000
 21
26.004574
  0
LINE
  8
0
 10
-1.000000
 20
19.366001
 11
-1.000000
 21
29.913948
  0
LINE
  8
0
 10
-13.500000
 20
51.336559
 11
-13.500000
 21
46.668556
  0
LINE
  8
0
 10
-13.500000
 20
51.336559
 11
-8.000000
 21
51.336559
  0
LINE
  8
0
 10
-1.000000
 20
53.307117
 11
-1.000000
 21
42.759178
  0
LINE
  8
0
  6
CENTER
 62
     2
 10
-25.000000
 20
16.875416
 11
-25.000000
 21
5.438992
  0
LINE
  8
0
  6
CENTER
 62
     2
 10
-30.783066
 20
11.336563
 11
-19.238754
 21
11.336563
  0
LINE
  8
0
  6
CENTER
 62
     2
 10
-32.500000
 20
9.375416
 11
-32.500000
 21
-2.061008
  0
LINE
  8
0
  6
CENTER
 62
     2
 10
-38.283066
 20
3.836563
 11
-26.738754
 21
3.836563
  0
LINE
  8
0
  6
CENTER
 62
     2
 10
38.283081
 20
3.836563
 11
26.738762
 21
3.836563
  0
LINE
  8
0
  6
CENTER
 62
     2
 10
32.500004
 20
9.375423
 11
32.500004
 21
-2.061001
  0
LINE
  8
0
  6
CENTER
 62
     2
 10
-38.283081
 20
68.836563
 11
-26.738754
 21
68.836563
  0
LINE
  8
0
  6
CENTER
 62
     2
 10
-32.500000
 20
63.297699
 11
-32.500000
 21
74.734131
  0
LINE
  8
0
  6
CENTER
 62
     2
 10
38.283073
 20
68.836563
 11
26.738754
 21
68.836563
  0
LINE
  8
0
  6
CENTER
 62
     2
 10
32.500004
 20
63.297707
 11
32.500004
 21
74.734131
  0
LINE
  8
0
  6
CENTER
 62
     2
 10
3.358776
 20
61.336567
 11
-3.565647
 21
61.336567
  0
LINE
  8
0
  6
CENTER
 62
     2
 10
-32.500000
 20
39.695332
 11
-32.500000
 21
32.770908
  0
LINE
  8
0
  6
CENTER
 62
     2
 10
32.500011
 20
32.977787
 11
32.500011
 21
39.902210
  0
LINE
  8
0
  6
CENTER
 62
     2
 10
3.358776
 20
68.836563
 11
-3.565647
 21
68.836563
  0
LINE
  8
0
  6
CENTER
 62
     2
 10
3.358784
 20
3.836555
 11
-3.565639
 21
3.836555
  0
LINE
  8
0
 10
9.000011
 20
5.236561
 11
7.500011
 21
5.236561
  0
LINE
  8
0
 10
5.500011
 20
5.236561
 11
4.000011
 21
5.236561
  0
LINE
  8
0
 10
-136.000000
 20
76.336563
 11
-136.000000
 21
-3.663433
  0
LINE
  8
0
 10
-129.000000
 20
76.336563
 11
-136.000000
 21
76.336563
  0
LINE
  8
0
 10
-129.000000
 20
-3.663433
 11
-136.000000
 21
-3.663433
  0
LINE
  8
0
  6
CENTER
 62
     2
 10
-102.402344
 20
36.336567
 11
-141.001450
 21
36.336567
  0
LINE
  8
0
 10
-129.000000
 20
76.336563
 11
-129.000000
 21
-3.663433
  0
LINE
  8
0
 10
-119.500000
 20
21.836559
 11
-123.199997
 21
21.836559
  0
LINE
  8
0
 10
-119.500000
 20
14.836559
 11
-123.199997
 21
14.836559
  0
LINE
  8
0
 10
-119.500000
 20
21.836552
 11
-119.500000
 21
14.836552
  0
LINE
  8
0
 10
-108.000000
 20
59.836563
 11
-108.000000
 21
12.836552
  0
LINE
  8
0
 10
-118.500000
 20
47.491253
 11
-118.500000
 21
45.181850
  0
LINE
  8
0
 10
-114.500000
 20
47.491253
 11
-114.500000
 21
45.181858
  0
LINE
  8
0
 10
-118.500061
 20
47.491413
 11
-116.500053
 21
48.646114
  0
LINE
  8
0
 10
-116.500031
 20
44.027264
 11
-114.500031
 21
45.181965
  0
LINE
  8
0
 10
-116.500023
 20
48.645958
 11
-114.500023
 21
47.491257
  0
LINE
  8
0
 10
-118.500023
 20
45.181858
 11
-116.500038
 21
44.027164
  0
LINE
  8
0
 10
-119.500000
 20
50.836555
 11
-123.199997
 21
50.836555
  0
LINE
  8
0
 10
-119.500000
 20
57.836548
 11
-119.500000
 21
50.836548
  0
LINE
  8
0
 10
-124.000000
 20
12.836559
 11
-124.000000
 21
59.836571
  0
LINE
  8
0
 10
-123.199997
 20
14.336559
 11
-123.199997
 21
22.336559
  0
LINE
  8
0
 10
-123.199997
 20
14.336559
 11
-124.000000
 21
14.336559
  0
LINE
  8
0
 10
-123.199997
 20
22.336559
 11
-124.000000
 21
22.336559
  0
LINE
  8
0
 10
-123.199997
 20
58.336571
 11
-124.000000
 21
58.336571
  0
LINE
  8
0
 10
-123.199997
 20
50.336571
 11
-124.000000
 21
50.336571
  0
LINE
  8
0
 10
-123.199997
 20
58.336571
 11
-123.199997
 21
50.336571
  0
LINE
  8
0
 10
-120.799988
 20
32.836559
 11
-120.799988
 21
39.836559
  0
LINE
  8
0
 10
-117.500000
 20
34.836559
 11
-117.500000
 21
37.836559
  0
LINE
  8
0
 10
-120.500000
 20
37.836559
 11
-120.500000
 21
38.336559
  0
LINE
  8
0
 10
-120.500000
 20
38.336567
 11
-120.799988
 21
38.336567
  0
LINE
  8
0
 10
-123.199997
 20
58.336571
 11
-124.000000
 21
58.336571
  0
LINE
  8
0
 10
-116.500023
 20
28.645924
 11
-114.500023
 21
27.491222
  0
LINE
  8
0
 10
-118.500061
 20
27.491365
 11
-116.500069
 21
28.646059
  0
LINE
  8
0
 10
-118.500099
 20
25.181812
 11
-116.500099
 21
24.027111
  0
LINE
  8
0
 10
-116.500092
 20
24.027271
 11
-114.500084
 21
25.181973
  0
LINE
  8
0
 10
-114.500000
 20
25.181866
 11
-114.500000
 21
27.491261
  0
LINE
  8
0
 10
-118.500000
 20
25.181866
 11
-118.500000
 21
27.491268
  0
LINE
  8
0
 10
-119.500000
 20
57.836571
 11
-123.199997
 21
57.836571
  0
LINE
  8
0
 10
-120.799988
 20
32.836567
 11
-124.000000
 21
32.836567
  0
LINE
  8
0
 10
-120.799988
 20
39.836567
 11
-124.000000
 21
39.836567
  0
LINE
  8
0
 10
-117.500000
 20
37.836567
 11
-120.500000
 21
37.836567
  0
LINE
  8
0
 10
-117.500000
 20
34.836567
 11
-120.500000
 21
34.836567
  0
LINE
  8
0
 10
-120.500000
 20
34.836559
 11
-120.500000
 21
34.336559
  0
LINE
  8
0
 10
-120.500000
 20
34.336567
 11
-120.799988
 21
34.336567
  0
LINE
  8
0
 10
-129.000000
 20
12.836559
 11
-108.000000
 21
12.836559
  0
LINE
  8
0
 10
-129.000000
 20
59.836571
 11
-108.000000
 21
59.836571
  0
LINE
  8
0
 10
-124.000000
 20
36.336567
 11
-121.202805
 21
36.336567
  0
LINE
  8
0
 10
-128.000000
 20
7.536560
 11
-128.000000
 21
12.836559
  0
LINE
  8
0
 10
-113.000000
 20
9.186558
 11
-107.500000
 21
9.186558
  0
LINE
  8
0
 62
     2
 10
-104.500000
 20
-9.999294
 11
-106.499992
 21
-9.463397
  0
LINE
  8
0
 10
-113.000000
 20
11.186558
 11
-107.500000
 21
11.186558
  0
LINE
  8
0
 10
-106.500000
 20
8.186550
 11
-106.500000
 21
-9.463390
  0
LINE
  8
0
 10
-113.000000
 20
12.836552
 11
-113.000000
 21
7.536552
  0
LINE
  8
0
 10
-104.500000
 20
8.186550
 11
-104.500000
 21
-9.999290
  0
LINE
  8
0
 10
-128.000000
 20
7.536560
 11
-113.000000
 21
7.536560
  0
LINE
  8
0
 10
-109.000000
 20
19.365990
 11
-109.000000
 21
53.307121
  0
LINE
  8
0
 10
-124.000000
 20
21.836559
 11
-124.000000
 21
32.836567
  0
LINE
  8
0
 10
-119.500000
 20
19.365997
 11
-109.000000
 21
19.365997
  0
LINE
  8
0
 10
-124.000000
 20
50.836571
 11
-124.000000
 21
39.836567
  0
LINE
  8
0
 10
-119.500000
 20
53.307129
 11
-109.000000
 21
53.307129
  0
LINE
  8
0
 10
-123.399994
 20
5.236561
 11
-119.399994
 21
5.236561
  0
LINE
  8
0
 10
-123.399994
 20
7.536560
 11
-123.399994
 21
5.236561
  0
LINE
  8
0
 10
-119.399994
 20
7.536552
 11
-119.399994
 21
5.236553
  0
LINE
  8
0
  6
CENTER
 62
     2
 10
-125.231522
 20
61.336563
 11
-138.576645
 21
61.336563
  0
LINE
  8
0
  6
CENTER
 62
     2
 10
-126.765442
 20
11.336567
 11
-137.963089
 21
11.336567
  0
LINE
  8
0
  6
CENTER
 62
     2
 10
-126.765442
 20
3.836567
 11
-137.963089
 21
3.836567
  0
LINE
  8
0
  6
CENTER
 62
     2
 10
-125.231522
 20
68.836563
 11
-138.576645
 21
68.836563
  0
LINE
  8
0
  6
CENTER
 62
     2
 10
139.648651
 20
36.336567
 11
100.942444
 21
36.336567
  0
LINE
  8
0
 10
123.999992
 20
7.536514
 11
123.999992
 21
12.836514
  0
LINE
  8
0
 10
109.000168
 20
9.186558
 11
103.500168
 21
9.186558
  0
LINE
  8
0
 62
     2
 10
102.500252
 20
-9.999368
 11
100.500244
 21
-9.463469
  0
LINE
  8
0
 10
124.999756
 20
76.336563
 11
131.999756
 21
76.336563
  0
LINE
  8
0
 10
125.000244
 20
-3.663433
 11
132.000244
 21
-3.663433
  0
LINE
  8
0
 10
125.000000
 20
76.336517
 11
125.000000
 21
-3.663479
  0
LINE
  8
0
 10
109.000153
 20
11.186558
 11
103.500153
 21
11.186558
  0
LINE
  8
0
 10
102.500000
 20
8.186375
 11
102.500000
 21
-9.999462
  0
LINE
  8
0
 10
109.000000
 20
12.836422
 11
109.000000
 21
7.536423
  0
LINE
  8
0
 10
100.500000
 20
8.186367
 11
100.500000
 21
-9.463573
  0
LINE
  8
0
 10
115.700127
 20
14.836559
 11
119.200127
 21
14.836559
  0
LINE
  8
0
 10
115.699997
 20
21.836460
 11
115.699997
 21
14.836460
  0
LINE
  8
0
 10
119.199997
 20
14.336483
 11
119.199997
 21
22.336483
  0
LINE
  8
0
 10
115.700089
 20
21.836559
 11
119.200089
 21
21.836559
  0
LINE
  8
0
 10
115.699867
 20
57.836555
 11
119.199867
 21
57.836555
  0
LINE
  8
0
 10
124.000168
 20
7.536560
 11
109.000168
 21
7.536560
  0
LINE
  8
0
 10
115.699905
 20
50.836555
 11
119.199905
 21
50.836555
  0
LINE
  8
0
 10
115.699997
 20
57.836456
 11
115.699997
 21
50.836456
  0
LINE
  8
0
 10
119.200134
 20
14.336559
 11
120.000137
 21
14.336559
  0
LINE
  8
0
 10
119.200081
 20
22.336559
 11
120.000076
 21
22.336559
  0
LINE
  8
0
 10
119.199860
 20
58.336571
 11
119.999863
 21
58.336571
  0
LINE
  8
0
 10
119.199997
 20
58.336494
 11
119.199997
 21
50.336494
  0
LINE
  8
0
 10
119.199913
 20
50.336571
 11
119.999908
 21
50.336571
  0
LINE
  8
0
  6
CENTER
 62
     2
 10
108.333527
 20
28.336567
 11
114.976028
 21
28.336567
  0
LINE
  8
0
  6
CENTER
 62
     2
 10
112.000000
 20
48.368229
 11
112.000000
 21
24.556622
  0
LINE
  8
0
  6
CENTER
 62
     2
 10
108.333435
 20
44.336567
 11
114.975937
 21
44.336567
  0
LINE
  8
0
 10
120.000000
 20
49.336494
 11
120.000000
 21
59.836494
  0
LINE
  8
0
 10
104.000137
 20
12.836559
 11
125.000137
 21
12.836559
  0
LINE
  8
0
 10
104.000076
 20
24.451702
 11
125.000076
 21
24.451702
  0
LINE
  8
0
 10
103.999847
 20
59.836571
 11
124.999847
 21
59.836571
  0
LINE
  8
0
 10
103.999924
 20
49.336571
 11
119.999924
 21
49.336571
  0
LINE
  8
0
 10
103.999924
 20
48.221432
 11
124.999924
 21
48.221432
  0
LINE
  8
0
 10
104.000076
 20
23.336559
 11
120.000076
 21
23.336559
  0
LINE
  8
0
 10
120.000000
 20
23.336483
 11
120.000000
 21
12.836483
  0
LINE
  8
0
 10
104.000000
 20
59.836403
 11
104.000000
 21
12.836391
  0
LINE
  8
0
 10
132.000000
 20
76.336563
 11
132.000000
 21
-3.663433
  0
LINE
  8
0
 10
119.400192
 20
5.236561
 11
115.400192
 21
5.236561
  0
LINE
  8
0
 10
119.399994
 20
7.536484
 11
119.399994
 21
5.236485
  0
LINE
  8
0
 10
115.399994
 20
7.536461
 11
115.399994
 21
5.236462
  0
LINE
  8
0
  6
CENTER
 62
     2
 10
122.499893
 20
68.836563
 11
134.833221
 21
68.836563
  0
LINE
  8
0
  6
CENTER
 62
     2
 10
122.833420
 20
3.836567
 11
134.833420
 21
3.836567
  0
LINE
  8
0
  6
CENTER
 62
     2
 10
122.499908
 20
61.336563
 11
134.833252
 21
61.336563
  0
LINE
  8
0
  6
CENTER
 62
     2
 10
122.833397
 20
11.336567
 11
134.833405
 21
11.336567
  0
LINE
  8
0
 10
-40.000000
 20
-90.663452
 11
-40.000000
 21
-97.663452
  0
LINE
  8
0
 10
40.000004
 20
-90.663406
 11
40.000004
 21
-97.663422
  0
LINE
  8
0
  6
CENTER
 62
     2
 10
0.000000
 20
-64.273087
 11
0.000000
 21
-100.209625
  0
LINE
  8
0
 10
0.149994
 20
-73.063431
 11
12.849995
 21
-73.063431
  0
LINE
  8
0
 10
7.499996
 20
-63.663441
 11
7.499996
 21
-73.063431
  0
LINE
  8
0
 10
5.499996
 20
-63.663441
 11
5.499996
 21
-73.063431
  0
LINE
  8
0
 10
8.999996
 20
-63.663441
 11
8.999996
 21
-73.063431
  0
LINE
  8
0
 10
3.750000
 20
-63.663441
 11
3.750000
 21
-73.063431
  0
LINE
  8
0
 10
10.999996
 20
-63.663441
 11
10.999996
 21
-73.063431
  0
LINE
  8
0
 10
1.750000
 20
-63.663441
 11
1.750000
 21
-73.063431
  0
LINE
  8
0
 10
9.600018
 20
-82.659271
 11
9.600018
 21
-83.467560
  0
LINE
  8
0
 10
8.899958
 20
-82.255310
 11
9.599956
 21
-82.659454
  0
LINE
  8
0
 10
8.200003
 20
-82.659264
 11
8.900001
 21
-82.255119
  0
LINE
  8
0
 10
8.200024
 20
-83.467575
 11
8.200024
 21
-82.659286
  0
LINE
  8
0
 10
8.899964
 20
-83.871811
 11
8.199965
 21
-83.467667
  0
LINE
  8
0
 10
9.599969
 20
-83.467552
 11
8.899970
 21
-83.871696
  0
LINE
  8
0
 10
4.099953
 20
-83.871773
 11
3.399954
 21
-83.467628
  0
LINE
  8
0
 10
4.799992
 20
-83.467545
 11
4.099993
 21
-83.871689
  0
LINE
  8
0
 10
4.800014
 20
-82.659286
 11
4.800014
 21
-83.467575
  0
LINE
  8
0
 10
4.099946
 20
-82.255318
 11
4.799945
 21
-82.659462
  0
LINE
  8
0
 10
3.400003
 20
-82.659279
 11
4.100001
 21
-82.255135
  0
LINE
  8
0
 10
3.400024
 20
-83.467575
 11
3.400024
 21
-82.659286
  0
LINE
  8
0
 10
12.850002
 20
-69.663437
 11
12.850002
 21
-89.663437
  0
LINE
  8
0
 10
0.150009
 20
-73.063431
 11
0.150009
 21
-89.663437
  0
LINE
  8
0
 10
-40.000000
 20
-90.663437
 11
40.000004
 21
-90.663437
  0
LINE
  8
0
 10
-14.500000
 20
-81.363434
 11
-14.500000
 21
-84.863449
  0
LINE
  8
0
 10
-21.500000
 20
-81.363449
 11
-21.500000
 21
-84.863464
  0
LINE
  8
0
 10
-14.500015
 20
-81.363434
 11
-21.500015
 21
-81.363434
  0
LINE
  8
0
 10
3.749992
 20
-69.663437
 11
5.499989
 21
-69.663437
  0
LINE
  8
0
 10
7.499989
 20
-69.663437
 11
8.999989
 21
-69.663437
  0
LINE
  8
0
 10
10.999989
 20
-69.663437
 11
26.999996
 21
-69.663437
  0
LINE
  8
0
 10
21.500004
 20
-81.363419
 11
21.500004
 21
-84.863434
  0
LINE
  8
0
 10
14.500004
 20
-81.363434
 11
14.500004
 21
-84.863449
  0
LINE
  8
0
 10
21.499996
 20
-81.363434
 11
14.499996
 21
-81.363434
  0
LINE
  8
0
 10
-22.000015
 20
-84.863434
 11
-14.000015
 21
-84.863434
  0
LINE
  8
0
 10
-29.500000
 20
-85.663452
 11
-29.500000
 21
-90.663452
  0
LINE
  8
0
 10
-30.041542
 20
-85.663437
 11
-0.000008
 21
-85.663437
  0
LINE
  8
0
 10
26.999996
 20
-85.663437
 11
12.849995
 21
-85.663437
  0
LINE
  8
0
 10
-22.000000
 20
-84.863449
 11
-22.000000
 21
-85.663452
  0
LINE
  8
0
 10
-14.000000
 20
-84.863434
 11
-14.000000
 21
-85.663437
  0
LINE
  8
0
 10
22.000004
 20
-84.863419
 11
22.000004
 21
-85.663422
  0
LINE
  8
0
 10
21.999996
 20
-84.863434
 11
13.999996
 21
-84.863434
  0
LINE
  8
0
 10
14.000004
 20
-84.863434
 11
14.000004
 21
-85.663437
  0
LINE
  8
0
 10
-12.500000
 20
-82.163422
 11
-12.500000
 21
-74.163467
  0
LINE
  8
0
 10
-11.500000
 20
-73.163467
 11
-11.500000
 21
-83.163437
  0
LINE
  8
0
 10
-11.500015
 20
-83.163437
 11
-8.683372
 21
-83.163437
  0
LINE
  8
0
 10
-12.499949
 20
-82.163391
 11
-11.499946
 21
-83.163391
  0
LINE
  8
0
 10
-1.000000
 20
-70.663437
 11
-1.000000
 21
-85.663437
  0
LINE
  8
0
 10
27.000004
 20
-69.663422
 11
27.000004
 21
-90.663422
  0
LINE
  8
0
 10
1.749992
 20
-69.663437
 11
-0.000008
 21
-69.663437
  0
LINE
  8
0
 10
0.000000
 20
-85.663437
 11
0.000000
 21
-69.663437
  0
LINE
  8
0
 10
0.150002
 20
-89.663437
 11
12.850002
 21
-89.663437
  0
LINE
  8
0
 10
-11.500015
 20
-73.163437
 11
-8.683388
 21
-73.163437
  0
LINE
  8
0
 10
-12.499973
 20
-74.163452
 11
-11.499970
 21
-73.163452
  0
LINE
  8
0
 10
-17.000015
 20
-70.663437
 11
-0.000008
 21
-70.663437
  0
LINE
  8
0
 10
-17.000000
 20
-70.663437
 11
-17.000000
 21
-81.363434
  0
LINE
  8
0
 10
-40.000000
 20
-97.663437
 11
40.000004
 21
-97.663437
  0
LINE
  8
0
  6
CENTER
 62
     2
 10
-32.500000
 20
-88.068573
 11
-32.500000
 21
-99.609375
  0
LINE
  8
0
  6
CENTER
 62
     2
 10
25.000004
 20
-88.187531
 11
25.000004
 21
-100.204254
  0
LINE
  8
0
  6
CENTER
 62
     2
 10
-25.000000
 20
-88.068573
 11
-25.000000
 21
-99.609375
  0
LINE
  8
0
  6
CENTER
 62
     2
 10
32.500004
 20
-88.187531
 11
32.500004
 21
-100.204254
  0
LINE
  8
0
 10
-30.041542
 20
-82.463440
 11
-30.041542
 21
-85.663437
  0
LINE
  8
0
 10
-21.958612
 20
-82.463440
 11
-21.958612
 21
-84.863434
  0
LINE
  8
0
 10
-30.041542
 20
-82.463440
 11
-21.958612
 21
-82.463440
  0
LINE
  8
0
 10
-28.000008
 20
-79.163437
 11
-24.000008
 21
-79.163437
  0
LINE
  8
0
 10
-27.322884
 20
-82.163437
 11
-24.677132
 21
-82.163437
  0
LINE
  8
0
 10
-28.020737
 20
-82.463440
 11
-28.020737
 21
-85.663437
  0
LINE
  8
0
 10
-23.979279
 20
-82.463440
 11
-23.979279
 21
-85.663437
  0
LINE
  8
0
 10
-24.000008
 20
-79.163437
 11
-24.000008
 21
-82.463440
  0
LINE
  8
0
 10
-28.000008
 20
-79.163437
 11
-28.000008
 21
-82.463440
  0
LINE
  8
0
 10
-24.677132
 20
-79.163437
 11
-24.677132
 21
-82.163437
  0
LINE
  8
0
 10
-27.322884
 20
-79.163437
 11
-27.322884
 21
-82.163437
  0
CIRCLE
  8
0
 10
32.500000
 20
68.836548
 40
2.250000
  0
ARC
  8
0
 10
0.000011
 20
61.336559
 40
2.000000
 50
311.409637
 51
228.590363
  0
CIRCLE
  8
0
 10
32.500000
 20
68.836563
 40
4.000000
  0
CIRCLE
  8
0
 10
-32.500000
 20
68.836548
 40
2.250000
  0
CIRCLE
  8
0
 10
-32.500000
 20
36.336559
 40
2.000000
  0
CIRCLE
  8
0
 10
32.500004
 20
36.336559
 40
2.000000
  0
CIRCLE
  8
0
 10
0.000011
 20
68.836563
 40
2.000000
  0
CIRCLE
  8
0
 10
0.000000
 20
36.336563
 40
6.500000
  0
CIRCLE
  8
0
 10
0.000019
 20
3.836563
 40
2.000000
  0
ARC
  8
0
 10
3.000011
 20
10.536568
 40
1.000000
 50
0.000000
 51
180.000000
  0
ARC
  8
0
 10
6.500011
 20
10.536568
 40
1.000000
 50
0.000000
 51
180.000000
  0
ARC
  8
0
 10
10.000011
 20
10.536570
 40
1.000000
 50
0.000000
 51
180.000000
  0
CIRCLE
  8
0
 10
-25.000000
 20
61.336563
 40
2.250000
  0
CIRCLE
  8
0
 10
25.000000
 20
61.336571
 40
2.250000
  0
CIRCLE
  8
0
 10
25.000008
 20
11.336573
 40
2.250000
  0
CIRCLE
  8
0
 10
-25.000000
 20
61.336555
 40
4.000000
  0
CIRCLE
  8
0
 10
25.000008
 20
61.336563
 40
4.000000
  0
CIRCLE
  8
0
 10
25.000008
 20
11.336565
 40
4.000000
  0
CIRCLE
  8
0
 10
-26.000008
 20
36.336559
 40
2.000000
  0
CIRCLE
  8
0
 62
     2
 10
-26.000008
 20
36.336559
 40
1.120000
  0
CIRCLE
  8
0
 10
-26.000008
 20
36.336559
 40
3.500000
  0
ARC
  8
0
 10
-0.000008
 20
36.336563
 40
29.500000
 50
181.875046
 51
232.807587
  0
ARC
  8
0
 10
-0.000008
 20
36.336563
 40
29.500002
 50
23.758110
 51
52.807606
  0
ARC
  8
0
 10
0.000000
 20
36.336571
 40
29.500000
 50
307.192383
 51
336.241852
  0
ARC
  8
0
 10
18.000008
 20
18.336565
 40
5.000000
 50
89.999977
 51
179.999954
  0
CIRCLE
  8
0
 10
18.000008
 20
18.336565
 40
4.000000
  0
ARC
  8
0
 10
18.000000
 20
54.336563
 40
5.000000
 50
180.000000
 51
270.000031
  0
CIRCLE
  8
0
 10
18.000000
 20
54.336563
 40
4.000000
  0
ARC
  8
0
 10
-0.000008
 20
36.336563
 40
29.500002
 50
127.192406
 51
178.124939
  0
CIRCLE
  8
0
 10
-18.000000
 20
18.336561
 40
4.000000
  0
CIRCLE
  8
0
 10
-18.000000
 20
54.336555
 40
4.000000
  0
ARC
  8
0
 10
0.000000
 20
36.336563
 40
17.000000
 50
93.372307
 51
266.627686
  0
CIRCLE
  8
0
 10
-25.000000
 20
11.336561
 40
4.000000
  0
CIRCLE
  8
0
 10
-25.000000
 20
11.336569
 40
2.250000
  0
CIRCLE
  8
0
 10
-32.500000
 20
3.836559
 40
4.000000
  0
CIRCLE
  8
0
 10
-32.500000
 20
3.836567
 40
2.250000
  0
CIRCLE
  8
0
 10
32.500008
 20
3.836567
 40
4.000000
  0
CIRCLE
  8
0
 10
32.500008
 20
3.836575
 40
2.250000
  0
CIRCLE
  8
0
 10
-32.500000
 20
68.836563
 40
4.000000
  0
CIRCLE
  8
0
 10
-116.500000
 20
46.336552
 40
5.500000
  0
CIRCLE
  8
0
 10
-116.500000
 20
26.336567
 40
5.500000
  0
ARC
  8
0
 10
-124.802750
 20
34.586567
 40
4.002762
 50
334.074768
 51
25.925245
  0
ARC
  8
0
 10
-124.802750
 20
38.086567
 40
4.002762
 50
334.074768
 51
25.925245
  0
ARC
  8
0
 10
-107.500000
 20
8.186550
 40
3.000000
 50
359.999939
 51
90.000000
  0
ARC
  8
0
 10
-107.500000
 20
8.186550
 40
1.000000
 50
359.999939
 51
90.000000
  0
ARC
  8
0
 10
103.500168
 20
8.186382
 40
1.000000
 50
90.000000
 51
180.000000
  0
ARC
  8
0
 10
103.500168
 20
8.186382
 40
3.000000
 50
90.000000
 51
180.000015
  0
CIRCLE
  8
0
 10
112.000000
 20
36.336445
 40
3.000000
  0
CIRCLE
  8
0
 10
112.000000
 20
36.336445
 40
2.000000
  0
CIRCLE
  8
0
 62
     2
 10
111.999947
 20
44.336445
 40
2.000000
  0
CIRCLE
  8
0
 62
     2
 10
112.000046
 20
28.336445
 40
2.000000
  0
CIRCLE
  8
0
 10
111.999947
 20
44.336445
 40
1.600000
  0
CIRCLE
  8
0
 10
112.000000
 20
28.336567
 40
1.600000
  0
CIRCLE
  8
0
 10
9.999973
 20
-63.663437
 40
0.500000
  0
CIRCLE
  8
0
 10
4.099995
 20
-83.063431
 40
2.000000
  0
CIRCLE
  8
0
 10
8.899998
 20
-83.063431
 40
2.000000
  0
CIRCLE
  8
0
 10
2.749985
 20
-63.663437
 40
1.000000
  0
CIRCLE
  8
0
 10
6.499981
 20
-63.663437
 40
1.000000
  0
CIRCLE
  8
0
 10
9.999973
 20
-63.663437
 40
1.000000
  0
CIRCLE
  8
0
 10
2.749985
 20
-63.663437
 40
0.500000
  0
CIRCLE
  8
0
 10
6.499981
 20
-63.663437
 40
0.500000
  0
ARC
  8
0
 10
-12.000015
 20
-78.163445
 40
6.000000
 50
0.000000
 51
146.442581
  0
ARC
  8
0
 10
-12.000015
 20
-78.163445
 40
6.000002
 50
245.375748
 51
0.000000
  0
ARC
  8
0
 10
-29.031139
 20
-83.932098
 40
1.468655
 50
46.529728
 51
133.470276
  0
ARC
  8
0
 10
-26.000008
 20
-87.733475
 40
5.270039
 50
67.453239
 51
112.546776
  0
ARC
  8
0
 10
-22.968945
 20
-83.931915
 40
1.468479
 50
46.527016
 51
133.473038
  0
TEXT
  8
0
 10
115.907150
 20
122.050003
 40
4.500000
  1
DATE : MAY ,1993
 50
0.000000
 41
1.052631
 51
0.000000
  7
STANDARD
  0
TEXT
  8
0
 10
113.700279
 20
-130.669998
 40
6.300000
  1
KOGANEI CORP.
 50
0.000000
 41
1.052632
 51
0.000000
  7
STANDARD
  0
TEXT
  8
0
 10
-185.892654
 20
122.050003
 40
4.500000
  1
HANDLING MODULE
 50
0.000000
 41
1.052632
 51
0.000000
  7
STANDARD
  0
TEXT
  8
0
 10
-186.892654
 20
104.550003
 40
4.500000
  1
MODEL:SHM11M-13
 50
0.000000
 41
1.052632
 51
0.000000
  7
STANDARD
  0
ENDSEC
  0
EOF
