  0
SECTION
  2
HEADER
  0
ENDSEC
  0
SECTION
  2
TABLES
  0
TABLE
  2
LTYPE
 70
     4
  0
LTYPE
  2
CONTINUOUS
 70
    64
  3
Solid line
 72
    65
 73
     0
 40
0.000000
  0
LTYPE
  2
DASHED
 70
    64
  3
__ __ __ __ __ __ __ __ __ __ __ __ __ __ __
 72
    65
 73
     2
 40
3.500000
 49
2.000000
 49
-1.500000
  0
LTYPE
  2
CENTER
 70
    64
  3
____ _ ____ _ ____ _ ____ _ ____ _ ____ _ ____
 72
    65
 73
     4
 40
17.500000
 49
13.000000
 49
-1.500000
 49
1.500000
 49
-1.500000
  0
LTYPE
  2
PHANTOM
 70
    64
  3
_____ _ _ _____ _ _ _____ _ _ _____ _ _ ____  
 72
    65
 73
     6
 40
15.500000
 49
8.000000
 49
-1.500000
 49
1.500000
 49
-1.500000
 49
1.500000
 49
-1.500000
  0
LTYPE
  2
DASHED1
 70
    64
  3
__ __ __ __ __ __ __ __ __ __ __ __ __ __ __
 72
    65
 73
     2
 40
1.500000
 49
1.000000
 49
-0.500000
  0
LTYPE
  2
DASHED2
 70
    64
  3
__ __ __ __ __ __ __ __ __ __ __ __ __ __ __
 72
    65
 73
     2
 40
3.500000
 49
2.500000
 49
-1.000000
  0
LTYPE
  2
DASHED3
 70
    64
  3
__ __ __ __ __ __ __ __ __ __ __ __ __ __ __
 72
    65
 73
     2
 40
6.000000
 49
4.000000
 49
-2.000000
  0
LTYPE
  2
DASHED4
 70
    64
  3
__ __ __ __ __ __ __ __ __ __ __ __ __ __ __
 72
    65
 73
     2
 40
12.000000
 49
10.000000
 49
-2.000000
  0
LTYPE
  2
DASHED5
 70
    64
  3
__ __ __ __ __ __ __ __ __ __ __ __ __ __ __
 72
    65
 73
     2
 40
17.000000
 49
15.000000
 49
-2.000000
  0
LTYPE
  2
DASHED6
 70
    64
  3
__ __ __ __ __ __ __ __ __ __ __ __ __ __ __
 72
    65
 73
     2
 40
29.000000
 49
27.000000
 49
-2.000000
  0
LTYPE
  2
PHANTOM1
 70
    64
  3
_____ _ _ _____ _ _ _____ _ _ _____ _ _ ____  
 72
    65
 73
     6
 40
31.000000
 49
25.000000
 49
-1.500000
 49
1.000000
 49
-1.000000
 49
1.000000
 49
-1.500000
  0
LTYPE
  2
PHANTOM2
 70
    64
  3
_____ _ _ _____ _ _ _____ _ _ _____ _ _ ____  
 72
    65
 73
     6
 40
36.000000
 49
27.000000
 49
-1.500000
 49
2.500000
 49
-1.000000
 49
2.500000
 49
-1.500000
  0
LTYPE
  2
PHANTOM3
 70
    64
  3
_____ _ _ _____ _ _ _____ _ _ _____ _ _ ____  
 72
    65
 73
     6
 40
78.000000
 49
64.000000
 49
-2.000000
 49
4.000000
 49
-2.000000
 49
4.000000
 49
-2.000000
  0
LTYPE
  2
CENTER1
 70
    64
  3
____ _ ____ _ ____ _ ____ _ ____ _ ____ _ ____
 72
    65
 73
     4
 40
19.000000
 49
14.000000
 49
-1.000000
 49
3.000000
 49
-1.000000
  0
LTYPE
  2
CENTER2
 70
    64
  3
____ _ ____ _ ____ _ ____ _ ____ _ ____ _ ____
 72
    65
 73
     4
 40
28.500000
 49
25.000000
 49
-1.000000
 49
1.500000
 49
-1.000000
  0
LTYPE
  2
CENTER3
 70
    64
  3
____ _ ____ _ ____ _ ____ _ ____ _ ____ _ ____
 72
    65
 73
     4
 40
31.500000
 49
27.000000
 49
-1.000000
 49
2.500000
 49
-1.000000
  0
LTYPE
  2
CENTER4
 70
    64
  3
____ _ ____ _ ____ _ ____ _ ____ _ ____ _ ____
 72
    65
 73
     4
 40
50.000000
 49
45.000000
 49
-1.000000
 49
3.000000
 49
-1.000000
  0
LTYPE
  2
CENTER5
 70
    64
  3
____ _ ____ _ ____ _ ____ _ ____ _ ____ _ ____
 72
    65
 73
     4
 40
100.000000
 49
92.000000
 49
-2.000000
 49
4.000000
 49
-2.000000
  0
LTYPE
  2
SBK1
 70
    64
  3
______ _ _ _ ______ _ _ _ ______ _ _ _ _____  
 72
    65
 73
     8
 40
60.500000
 49
45.000000
 49
-2.000000
 49
2.500000
 49
-2.000000
 49
2.500000
 49
-2.000000
 49
2.500000
 49
-2.000000
  0
LTYPE
  2
SBK2
 70
    64
  3
______ _ _ _ ______ _ _ _ ______ _ _ _ _____  
 72
    65
 73
     8
 40
84.000000
 49
64.000000
 49
-2.000000
 49
4.000000
 49
-2.000000
 49
4.000000
 49
-2.000000
 49
4.000000
 49
-2.000000
  0
LTYPE
  2
STCH
 70
    64
  3
__ __ __ __ __ __ __ __ __ __ __ __ __ __ __
 72
    65
 73
     2
 40
3.000000
 49
1.000000
 49
-2.000000
  0
LTYPE
  2
MTCH
 70
    64
  3
_____ _ _ _____ _ _ _____ _ _ _____ _ _ ____  
 72
    65
 73
     6
 40
80.000000
 49
66.000000
 49
-2.000000
 49
4.000000
 49
-2.000000
 49
4.000000
 49
-2.000000
  0
ENDTAB
  0
TABLE
  2
LAYER
 70
     1
  0
LAYER
  2
0
 70
     0
 62
     7
  6
CONTINUOUS
  0
ENDTAB
  0
TABLE
  2
STYLE
 70
     1
  0
STYLE
  2
STANDARD
 70
     0
 40
0.000000
 41
1.000000
 50
0.000000
 71
     0
 42
0.200000
  3
txt
  4
BIGFONT
  0
ENDTAB
  0
TABLE
  2
VIEW
 70
     0
  0
ENDTAB
  0
ENDSEC
  0
SECTION
  2
BLOCKS
  0
ENDSEC
  0
SECTION
  2
ENTITIES
  0
LINE
  8
0
 10
-194.250000
 20
132.600006
 11
194.800003
 21
132.600006
  0
LINE
  8
0
 10
194.800003
 20
132.600006
 11
194.800003
 21
-133.500000
  0
LINE
  8
0
 10
-194.250000
 20
132.600006
 11
-194.250000
 21
-133.500000
  0
LINE
  8
0
 10
-194.250000
 20
-133.500000
 11
194.800003
 21
-133.500000
  0
LINE
  8
0
 10
109.800003
 20
-118.500000
 11
109.800003
 21
-133.500000
  0
LINE
  8
0
 10
109.800003
 20
-118.500000
 11
194.800003
 21
-118.500000
  0
LINE
  8
0
 10
109.800003
 20
132.600006
 11
109.800003
 21
117.600006
  0
LINE
  8
0
 10
109.800003
 20
117.600006
 11
194.800003
 21
117.600006
  0
LINE
  8
0
 10
-194.250000
 20
117.600006
 11
-109.250000
 21
117.600006
  0
LINE
  8
0
 10
-109.250000
 20
132.600006
 11
-109.250000
 21
117.600006
  0
LINE
  8
0
  6
CENTER
 62
     2
 10
-45.324997
 20
31.943398
 11
45.325001
 21
31.943398
  0
LINE
  8
0
  6
CENTER
 62
     2
 10
0.000000
 20
-18.106602
 11
0.000000
 21
77.793404
  0
LINE
  8
0
 10
12.850002
 20
3.143391
 11
11.000004
 21
3.143391
  0
LINE
  8
0
 10
7.500004
 20
-14.392498
 11
7.500004
 21
6.143398
  0
LINE
  8
0
 10
5.500004
 20
-13.856602
 11
5.500004
 21
6.143398
  0
LINE
  8
0
 10
4.000008
 20
-14.392509
 11
4.000008
 21
6.143398
  0
LINE
  8
0
 10
9.000004
 20
-13.856571
 11
9.000004
 21
6.143398
  0
LINE
  8
0
 10
11.000004
 20
-14.392471
 11
11.000004
 21
6.143398
  0
LINE
  8
0
 10
2.000008
 20
-13.856609
 11
2.000008
 21
6.143398
  0
LINE
  8
0
 10
9.000004
 20
3.143391
 11
7.500004
 21
3.143391
  0
LINE
  8
0
 10
5.500004
 20
3.143391
 11
4.000004
 21
3.143391
  0
LINE
  8
0
 10
2.000004
 20
3.143391
 11
0.150009
 21
3.143391
  0
LINE
  8
0
 62
     2
 10
3.999983
 20
-14.392512
 11
1.999986
 21
-13.856615
  0
LINE
  8
0
 62
     2
 10
7.499975
 20
-14.392507
 11
5.499979
 21
-13.856609
  0
LINE
  8
0
 62
     2
 10
11.000010
 20
-14.392471
 11
9.000006
 21
-13.856571
  0
LINE
  8
0
 10
-40.000000
 20
-8.056602
 11
-40.000000
 21
71.943405
  0
LINE
  8
0
 10
40.000000
 20
-8.056602
 11
40.000000
 21
71.943398
  0
LINE
  8
0
 10
-40.000008
 20
-8.056606
 11
2.000004
 21
-8.056606
  0
LINE
  8
0
 10
-39.999992
 20
71.943398
 11
40.000004
 21
71.943398
  0
LINE
  8
0
  6
CENTER
 62
     2
 10
-30.783073
 20
56.943398
 11
-19.238754
 21
56.943398
  0
LINE
  8
0
  6
CENTER
 62
     2
 10
-25.000000
 20
51.404541
 11
-25.000000
 21
62.840965
  0
LINE
  8
0
 10
11.000000
 20
-8.056606
 11
39.999996
 21
-8.056606
  0
LINE
  8
0
 10
-17.832542
 20
8.443394
 11
17.832542
 21
8.443394
  0
LINE
  8
0
 10
0.150009
 20
3.143398
 11
0.150009
 21
8.443401
  0
LINE
  8
0
 10
12.850002
 20
3.143398
 11
12.850002
 21
8.443401
  0
LINE
  8
0
 10
4.000004
 20
-8.056606
 11
5.500000
 21
-8.056606
  0
LINE
  8
0
  6
CENTER
 62
     2
 10
25.000004
 20
51.404541
 11
25.000004
 21
62.840965
  0
LINE
  8
0
  6
CENTER
 62
     2
 10
30.783077
 20
56.943398
 11
19.238758
 21
56.943398
  0
LINE
  8
0
  6
CENTER
 62
     2
 10
25.000004
 20
12.482248
 11
25.000004
 21
1.045824
  0
LINE
  8
0
  6
CENTER
 62
     2
 10
30.783077
 20
6.943394
 11
19.238758
 21
6.943394
  0
LINE
  8
0
 10
17.133957
 20
15.443394
 11
18.866005
 21
15.443394
  0
LINE
  8
0
 10
18.865929
 20
15.443346
 11
19.731958
 21
13.943334
  0
LINE
  8
0
 10
19.732018
 20
13.943394
 11
18.865984
 21
12.443382
  0
LINE
  8
0
 10
18.866005
 20
12.443378
 11
17.133957
 21
12.443378
  0
LINE
  8
0
 10
17.133883
 20
12.443335
 11
16.267855
 21
13.943340
  0
LINE
  8
0
 10
16.267830
 20
13.943418
 11
17.133856
 21
15.443419
  0
LINE
  8
0
 10
-17.133957
 20
48.443398
 11
-18.866005
 21
48.443398
  0
LINE
  8
0
 10
-18.865940
 20
48.443405
 11
-19.731974
 21
49.943424
  0
LINE
  8
0
 10
-19.732105
 20
49.943424
 11
-18.866070
 21
51.443436
  0
LINE
  8
0
 10
-18.866005
 20
51.443413
 11
-17.133957
 21
51.443413
  0
LINE
  8
0
 10
-17.133894
 20
51.443428
 11
-16.267868
 21
49.943420
  0
LINE
  8
0
 10
-16.268000
 20
49.943481
 11
-17.134022
 21
48.443485
  0
LINE
  8
0
 10
-17.133957
 20
15.443394
 11
-18.866005
 21
15.443394
  0
LINE
  8
0
 10
-18.865965
 20
15.443370
 11
-19.731998
 21
13.943360
  0
LINE
  8
0
 10
-19.732077
 20
13.943377
 11
-18.866041
 21
12.443369
  0
LINE
  8
0
 10
-18.866005
 20
12.443378
 11
-17.133957
 21
12.443378
  0
LINE
  8
0
 10
-17.133938
 20
12.443360
 11
-16.267910
 21
13.943369
  0
LINE
  8
0
 10
-16.267941
 20
13.943350
 11
-17.133961
 21
15.443350
  0
LINE
  8
0
 10
-23.979334
 20
28.443419
 11
-21.958612
 21
31.943413
  0
LINE
  8
0
 10
-30.041517
 20
31.943434
 11
-28.020792
 21
35.443432
  0
LINE
  8
0
 10
-21.958656
 20
31.943336
 11
-23.979382
 21
35.443336
  0
LINE
  8
0
 10
-28.020826
 20
28.443346
 11
-30.041550
 21
31.943346
  0
LINE
  8
0
 10
-28.020737
 20
28.443390
 11
-23.979279
 21
28.443390
  0
LINE
  8
0
 10
-28.020737
 20
35.443390
 11
-23.979279
 21
35.443390
  0
LINE
  8
0
 10
-24.677132
 20
33.443390
 11
-27.322884
 21
33.443390
  0
LINE
  8
0
 10
-24.677132
 20
30.443390
 11
-27.322884
 21
30.443390
  0
LINE
  8
0
 10
17.133957
 20
48.443398
 11
18.866005
 21
48.443398
  0
LINE
  8
0
 10
18.865921
 20
48.443443
 11
19.731949
 21
49.943447
  0
LINE
  8
0
 10
19.732040
 20
49.943405
 11
18.866013
 21
51.443413
  0
LINE
  8
0
 10
18.866005
 20
51.443413
 11
17.133957
 21
51.443413
  0
LINE
  8
0
 10
17.133867
 20
51.443447
 11
16.267839
 21
49.943443
  0
LINE
  8
0
 10
16.267874
 20
49.943413
 11
17.133898
 21
48.443417
  0
LINE
  8
0
 10
0.000000
 20
36.943398
 11
0.000000
 21
55.443398
  0
LINE
  8
0
 10
9.000000
 20
-8.056606
 11
7.500000
 21
-8.056606
  0
LINE
  8
0
 10
27.000000
 20
20.058535
 11
27.000000
 21
43.828270
  0
LINE
  8
0
 10
18.000000
 20
44.943398
 11
26.481129
 21
44.943398
  0
LINE
  8
0
 10
18.000000
 20
18.943394
 11
26.481121
 21
18.943394
  0
LINE
  8
0
 10
13.000000
 20
13.943394
 11
13.000000
 21
8.443394
  0
LINE
  8
0
 10
13.000000
 20
49.943398
 11
13.000000
 21
55.443398
  0
LINE
  8
0
 10
0.000000
 20
26.943398
 11
0.000000
 21
8.443394
  0
LINE
  8
0
 10
-17.832542
 20
55.443398
 11
17.832542
 21
55.443398
  0
LINE
  8
0
 10
-13.500000
 20
16.943394
 11
-8.000000
 21
16.943394
  0
LINE
  8
0
 10
-13.500000
 20
16.943394
 11
-13.500000
 21
21.611404
  0
LINE
  8
0
 10
-1.000000
 20
14.972832
 11
-1.000000
 21
27.044418
  0
LINE
  8
0
 10
-13.500000
 20
46.943398
 11
-13.500000
 21
42.275391
  0
LINE
  8
0
 10
-13.500000
 20
46.943398
 11
-8.000000
 21
46.943398
  0
LINE
  8
0
 10
-1.000000
 20
48.913956
 11
-1.000000
 21
36.842377
  0
LINE
  8
0
  6
CENTER
 62
     2
 10
-25.000000
 20
12.482252
 11
-25.000000
 21
1.045828
  0
LINE
  8
0
  6
CENTER
 62
     2
 10
-30.783073
 20
6.943394
 11
-19.238754
 21
6.943394
  0
LINE
  8
0
  6
CENTER
 62
     2
 10
-32.500000
 20
4.982252
 11
-32.500000
 21
-6.454170
  0
LINE
  8
0
  6
CENTER
 62
     2
 10
-38.283073
 20
-0.556606
 11
-26.738754
 21
-0.556606
  0
LINE
  8
0
  6
CENTER
 62
     2
 10
38.283073
 20
-0.556606
 11
26.738754
 21
-0.556606
  0
LINE
  8
0
  6
CENTER
 62
     2
 10
32.500000
 20
4.982248
 11
32.500000
 21
-6.454178
  0
LINE
  8
0
  6
CENTER
 62
     2
 10
-38.283073
 20
64.443398
 11
-26.738754
 21
64.443398
  0
LINE
  8
0
  6
CENTER
 62
     2
 10
-32.500000
 20
58.904541
 11
-32.500000
 21
70.340965
  0
LINE
  8
0
  6
CENTER
 62
     2
 10
38.283073
 20
64.443398
 11
26.738754
 21
64.443398
  0
LINE
  8
0
  6
CENTER
 62
     2
 10
32.500000
 20
58.904541
 11
32.500000
 21
70.340965
  0
LINE
  8
0
  6
CENTER
 62
     2
 10
3.358780
 20
56.943405
 11
-3.565643
 21
56.943405
  0
LINE
  8
0
  6
CENTER
 62
     2
 10
-32.500000
 20
35.302170
 11
-32.500000
 21
28.377748
  0
LINE
  8
0
  6
CENTER
 62
     2
 10
32.500008
 20
28.584616
 11
32.500008
 21
35.509041
  0
LINE
  8
0
  6
CENTER
 62
     2
 10
3.358780
 20
64.443405
 11
-3.565643
 21
64.443405
  0
LINE
  8
0
  6
CENTER
 62
     2
 10
3.358780
 20
-0.556614
 11
-3.565643
 21
-0.556614
  0
LINE
  8
0
 10
9.000004
 20
0.843391
 11
7.500004
 21
0.843391
  0
LINE
  8
0
 10
5.500004
 20
0.843391
 11
4.000004
 21
0.843391
  0
LINE
  8
0
 10
-132.999969
 20
71.943405
 11
-132.999969
 21
-8.056599
  0
LINE
  8
0
 10
-125.999992
 20
71.943405
 11
-133.000000
 21
71.943405
  0
LINE
  8
0
 10
-125.999962
 20
-8.056599
 11
-132.999969
 21
-8.056599
  0
LINE
  8
0
 10
-125.999977
 20
71.943405
 11
-125.999977
 21
-8.056595
  0
LINE
  8
0
 10
-116.499977
 20
17.443394
 11
-120.199974
 21
17.443394
  0
LINE
  8
0
 10
-116.499977
 20
10.443394
 11
-120.199974
 21
10.443394
  0
LINE
  8
0
 10
-116.499977
 20
17.443399
 11
-116.499977
 21
10.443399
  0
LINE
  8
0
 10
-104.999977
 20
55.443420
 11
-104.999977
 21
8.443403
  0
LINE
  8
0
 10
-115.499977
 20
43.098106
 11
-115.499977
 21
40.788704
  0
LINE
  8
0
 10
-111.499977
 20
43.098106
 11
-111.499977
 21
40.788712
  0
LINE
  8
0
 10
-115.499992
 20
43.098251
 11
-113.499992
 21
44.252953
  0
LINE
  8
0
 10
-113.499969
 20
39.634109
 11
-111.499969
 21
40.788811
  0
LINE
  8
0
 10
-113.499977
 20
44.252796
 11
-111.499977
 21
43.098095
  0
LINE
  8
0
 10
-115.499985
 20
40.788704
 11
-113.500000
 21
39.634010
  0
LINE
  8
0
 10
-116.499977
 20
46.443398
 11
-120.199974
 21
46.443398
  0
LINE
  8
0
 10
-116.499977
 20
53.443405
 11
-116.499977
 21
46.443405
  0
LINE
  8
0
 10
-120.999977
 20
8.443398
 11
-120.999977
 21
55.443417
  0
LINE
  8
0
 10
-120.199974
 20
9.943398
 11
-120.199974
 21
17.943398
  0
LINE
  8
0
 10
-120.199974
 20
9.943394
 11
-120.999977
 21
9.943394
  0
LINE
  8
0
 10
-120.199974
 20
17.943394
 11
-120.999977
 21
17.943394
  0
LINE
  8
0
 10
-120.199974
 20
53.943413
 11
-120.999977
 21
53.943413
  0
LINE
  8
0
 10
-120.199974
 20
45.943413
 11
-120.999977
 21
45.943413
  0
LINE
  8
0
 10
-120.199974
 20
53.943417
 11
-120.199974
 21
45.943417
  0
LINE
  8
0
 10
-117.799965
 20
28.443411
 11
-117.799965
 21
35.443413
  0
LINE
  8
0
 10
-114.499977
 20
30.443411
 11
-114.499977
 21
33.443413
  0
LINE
  8
0
 10
-117.499977
 20
33.443413
 11
-117.499977
 21
33.943413
  0
LINE
  8
0
 10
-117.499977
 20
33.943405
 11
-117.799965
 21
33.943405
  0
LINE
  8
0
 10
-120.199974
 20
53.943413
 11
-120.999977
 21
53.943413
  0
LINE
  8
0
 10
-113.499977
 20
24.252760
 11
-111.499977
 21
23.098059
  0
LINE
  8
0
 10
-115.500023
 20
23.098200
 11
-113.500031
 21
24.252893
  0
LINE
  8
0
 10
-115.500008
 20
20.788633
 11
-113.500008
 21
19.633932
  0
LINE
  8
0
 10
-113.500008
 20
19.634106
 11
-111.500008
 21
20.788807
  0
LINE
  8
0
 10
-111.499977
 20
20.788715
 11
-111.499977
 21
23.098110
  0
LINE
  8
0
 10
-115.499977
 20
20.788713
 11
-115.499977
 21
23.098116
  0
LINE
  8
0
 10
-116.499977
 20
53.443413
 11
-120.199974
 21
53.443413
  0
LINE
  8
0
 10
-117.799965
 20
28.443405
 11
-120.999977
 21
28.443405
  0
LINE
  8
0
 10
-117.799965
 20
35.443405
 11
-120.999977
 21
35.443405
  0
LINE
  8
0
 10
-114.499977
 20
33.443405
 11
-117.499977
 21
33.443405
  0
LINE
  8
0
 10
-114.499977
 20
30.443405
 11
-117.499977
 21
30.443405
  0
LINE
  8
0
 10
-117.499977
 20
30.443411
 11
-117.499977
 21
29.943411
  0
LINE
  8
0
 10
-117.499977
 20
29.943405
 11
-117.799965
 21
29.943405
  0
LINE
  8
0
 10
-125.999962
 20
8.443394
 11
-104.999962
 21
8.443394
  0
LINE
  8
0
 10
-125.999992
 20
55.443413
 11
-104.999992
 21
55.443413
  0
LINE
  8
0
 10
-120.999977
 20
31.943405
 11
-118.202782
 21
31.943405
  0
LINE
  8
0
 10
-124.999977
 20
3.143396
 11
-124.999977
 21
8.443396
  0
LINE
  8
0
 10
-109.999962
 20
4.793392
 11
-104.499962
 21
4.793392
  0
LINE
  8
0
 62
     2
 10
-103.499939
 20
-14.392457
 11
-101.499939
 21
-13.856558
  0
LINE
  8
0
 10
-109.999962
 20
6.793392
 11
-104.499962
 21
6.793392
  0
LINE
  8
0
 10
-103.499977
 20
3.793402
 11
-103.499977
 21
-14.392433
  0
LINE
  8
0
 10
-109.999977
 20
8.443401
 11
-109.999977
 21
3.143402
  0
LINE
  8
0
 10
-101.499977
 20
3.793404
 11
-101.499977
 21
-13.856537
  0
LINE
  8
0
 10
-124.999962
 20
3.143394
 11
-109.999962
 21
3.143394
  0
LINE
  8
0
 10
-105.999977
 20
14.972841
 11
-105.999977
 21
48.913979
  0
LINE
  8
0
 10
-120.999977
 20
17.443398
 11
-120.999977
 21
28.443409
  0
LINE
  8
0
 10
-116.499977
 20
14.972832
 11
-105.999977
 21
14.972832
  0
LINE
  8
0
 10
-120.999977
 20
46.443417
 11
-120.999977
 21
35.443409
  0
LINE
  8
0
 10
-116.499977
 20
48.913971
 11
-105.999977
 21
48.913971
  0
LINE
  8
0
 10
-120.399956
 20
0.843395
 11
-116.399956
 21
0.843395
  0
LINE
  8
0
 10
-120.399971
 20
3.143398
 11
-120.399971
 21
0.843399
  0
LINE
  8
0
 10
-116.399971
 20
3.143400
 11
-116.399971
 21
0.843401
  0
LINE
  8
0
  6
CENTER
 62
     2
 10
-99.402321
 20
31.943405
 11
-138.001434
 21
31.943405
  0
LINE
  8
0
  6
CENTER
 62
     2
 10
-123.166725
 20
-0.556599
 11
-136.166718
 21
-0.556599
  0
LINE
  8
0
  6
CENTER
 62
     2
 10
-123.166725
 20
6.943401
 11
-136.166718
 21
6.943401
  0
LINE
  8
0
  6
CENTER
 62
     2
 10
-122.500084
 20
64.443405
 11
-135.833405
 21
64.443405
  0
LINE
  8
0
  6
CENTER
 62
     2
 10
-122.500084
 20
56.943405
 11
-135.833405
 21
56.943405
  0
LINE
  8
0
 10
124.500000
 20
3.143383
 11
124.500000
 21
8.443382
  0
LINE
  8
0
 10
109.500046
 20
4.793392
 11
104.000046
 21
4.793392
  0
LINE
  8
0
 62
     2
 10
103.000053
 20
-14.392478
 11
101.000061
 21
-13.856580
  0
LINE
  8
0
 10
125.499939
 20
71.943405
 11
132.499939
 21
71.943405
  0
LINE
  8
0
 10
125.500061
 20
-8.056599
 11
132.500061
 21
-8.056599
  0
LINE
  8
0
  6
CENTER
 62
     2
 10
96.484070
 20
31.943405
 11
137.572113
 21
31.943405
  0
LINE
  8
0
 10
125.500000
 20
71.943390
 11
125.500000
 21
-8.056610
  0
LINE
  8
0
 10
109.500038
 20
6.793392
 11
104.000038
 21
6.793392
  0
LINE
  8
0
 10
103.000000
 20
3.793346
 11
103.000000
 21
-14.392490
  0
LINE
  8
0
 10
109.500000
 20
8.443359
 11
109.500000
 21
3.143360
  0
LINE
  8
0
 10
101.000000
 20
3.793344
 11
101.000000
 21
-13.856598
  0
LINE
  8
0
 10
116.200035
 20
10.443394
 11
119.700035
 21
10.443394
  0
LINE
  8
0
 10
116.199997
 20
17.443369
 11
116.199997
 21
10.443369
  0
LINE
  8
0
  6
CENTER
 62
     2
 10
114.155159
 20
49.943398
 11
123.499146
 21
49.943398
  0
LINE
  8
0
 10
119.699997
 20
9.943375
 11
119.699997
 21
17.943375
  0
LINE
  8
0
  6
CENTER
 62
     2
 10
114.155212
 20
13.943394
 11
123.656418
 21
13.943394
  0
LINE
  8
0
 10
116.200027
 20
17.443394
 11
119.700027
 21
17.443394
  0
LINE
  8
0
 10
116.199966
 20
53.443398
 11
119.699966
 21
53.443398
  0
LINE
  8
0
 10
124.500046
 20
3.143394
 11
109.500046
 21
3.143394
  0
LINE
  8
0
 10
116.199982
 20
46.443398
 11
119.699982
 21
46.443398
  0
LINE
  8
0
 10
116.199997
 20
53.443375
 11
116.199997
 21
46.443375
  0
LINE
  8
0
 10
119.700035
 20
9.943394
 11
120.500031
 21
9.943394
  0
LINE
  8
0
 10
119.700027
 20
17.943394
 11
120.500023
 21
17.943394
  0
LINE
  8
0
 10
119.699966
 20
53.943413
 11
120.499969
 21
53.943413
  0
LINE
  8
0
 10
119.699997
 20
53.943394
 11
119.699997
 21
45.943394
  0
LINE
  8
0
 10
119.699982
 20
45.943413
 11
120.499977
 21
45.943413
  0
LINE
  8
0
  6
CENTER
 62
     2
 10
108.833496
 20
23.943401
 11
115.475998
 21
23.943401
  0
LINE
  8
0
  6
CENTER
 62
     2
 10
112.500000
 20
43.975159
 11
112.500000
 21
20.163548
  0
LINE
  8
0
  6
CENTER
 62
     2
 10
108.833481
 20
39.943405
 11
115.475967
 21
39.943405
  0
LINE
  8
0
 10
120.500000
 20
44.943394
 11
120.500000
 21
55.443394
  0
LINE
  8
0
 10
104.500031
 20
8.443394
 11
125.500031
 21
8.443394
  0
LINE
  8
0
 10
104.500015
 20
20.058537
 11
125.500015
 21
20.058537
  0
LINE
  8
0
 10
104.499969
 20
55.443413
 11
125.499969
 21
55.443413
  0
LINE
  8
0
 10
104.499985
 20
44.943413
 11
120.499985
 21
44.943413
  0
LINE
  8
0
 10
104.499985
 20
43.828270
 11
125.499985
 21
43.828270
  0
LINE
  8
0
 10
104.500015
 20
18.943394
 11
120.500015
 21
18.943394
  0
LINE
  8
0
 10
120.500000
 20
18.943375
 11
120.500000
 21
8.443375
  0
LINE
  8
0
 10
104.500000
 20
55.443371
 11
104.500000
 21
8.443352
  0
LINE
  8
0
 10
132.500000
 20
71.943405
 11
132.500000
 21
-8.056599
  0
LINE
  8
0
 10
119.900047
 20
0.843395
 11
115.900047
 21
0.843395
  0
LINE
  8
0
 10
115.900002
 20
3.143370
 11
115.900002
 21
0.843370
  0
LINE
  8
0
 10
119.900002
 20
3.143375
 11
119.900002
 21
0.843376
  0
LINE
  8
0
  6
CENTER
 62
     2
 10
123.499222
 20
-0.556599
 11
134.032990
 21
-0.556599
  0
LINE
  8
0
  6
CENTER
 62
     2
 10
123.813560
 20
64.443405
 11
134.661758
 21
64.443405
  0
LINE
  8
0
  6
CENTER
 62
     2
 10
123.499207
 20
6.943401
 11
134.032959
 21
6.943401
  0
LINE
  8
0
  6
CENTER
 62
     2
 10
123.813568
 20
56.943405
 11
134.661774
 21
56.943405
  0
LINE
  8
0
 10
-40.000008
 20
-89.056610
 11
-40.000008
 21
-96.056610
  0
LINE
  8
0
 10
39.999996
 20
-89.056572
 11
39.999996
 21
-96.056580
  0
LINE
  8
0
  6
CENTER
 62
     2
 10
-0.000004
 20
-65.556580
 11
-0.000004
 21
-102.389915
  0
LINE
  8
0
 10
0.149990
 20
-71.456589
 11
12.849987
 21
-71.456589
  0
LINE
  8
0
 10
7.499989
 20
-62.056602
 11
7.499989
 21
-71.456589
  0
LINE
  8
0
 10
5.499989
 20
-62.056602
 11
5.499989
 21
-71.456589
  0
LINE
  8
0
 10
8.999989
 20
-62.056602
 11
8.999989
 21
-71.456589
  0
LINE
  8
0
 10
3.749992
 20
-62.056602
 11
3.749992
 21
-71.456589
  0
LINE
  8
0
 10
10.999989
 20
-62.056595
 11
10.999989
 21
-71.456581
  0
LINE
  8
0
 10
1.749992
 20
-62.056602
 11
1.749992
 21
-71.456589
  0
LINE
  8
0
 10
9.600010
 20
-81.052437
 11
9.600010
 21
-81.860725
  0
LINE
  8
0
 10
8.899947
 20
-80.648445
 11
9.599945
 21
-81.052589
  0
LINE
  8
0
 10
8.200000
 20
-81.052414
 11
8.899999
 21
-80.648270
  0
LINE
  8
0
 10
8.200016
 20
-81.860741
 11
8.200016
 21
-81.052452
  0
LINE
  8
0
 10
8.899954
 20
-82.264954
 11
8.199956
 21
-81.860809
  0
LINE
  8
0
 10
9.599960
 20
-81.860725
 11
8.899962
 21
-82.264870
  0
LINE
  8
0
 10
4.099943
 20
-82.264954
 11
3.399945
 21
-81.860809
  0
LINE
  8
0
 10
4.799966
 20
-81.860710
 11
4.099968
 21
-82.264854
  0
LINE
  8
0
 10
4.800007
 20
-81.052452
 11
4.800007
 21
-81.860741
  0
LINE
  8
0
 10
4.099939
 20
-80.648453
 11
4.799938
 21
-81.052597
  0
LINE
  8
0
 10
3.400014
 20
-81.052429
 11
4.100013
 21
-80.648285
  0
LINE
  8
0
 10
3.400017
 20
-81.860741
 11
3.400017
 21
-81.052452
  0
LINE
  8
0
 10
12.849995
 20
-68.056587
 11
12.849995
 21
-88.056587
  0
LINE
  8
0
 10
0.150005
 20
-71.456589
 11
0.150005
 21
-88.056595
  0
LINE
  8
0
 10
-40.000008
 20
-89.056595
 11
39.999992
 21
-89.056595
  0
LINE
  8
0
 10
-14.500008
 20
-79.756615
 11
-14.500008
 21
-83.256615
  0
LINE
  8
0
 10
-21.500008
 20
-79.756615
 11
-21.500008
 21
-83.256615
  0
LINE
  8
0
 10
-14.500008
 20
-79.756599
 11
-21.500008
 21
-79.756599
  0
LINE
  8
0
 10
3.749981
 20
-68.056595
 11
5.499977
 21
-68.056595
  0
LINE
  8
0
 10
7.499977
 20
-68.056595
 11
8.999977
 21
-68.056595
  0
LINE
  8
0
 10
10.999977
 20
-68.056595
 11
26.999985
 21
-68.056595
  0
LINE
  8
0
 10
21.499996
 20
-79.756599
 11
21.499996
 21
-83.256599
  0
LINE
  8
0
 10
14.499996
 20
-79.756599
 11
14.499996
 21
-83.256599
  0
LINE
  8
0
 10
21.499989
 20
-79.756599
 11
14.499989
 21
-79.756599
  0
LINE
  8
0
 10
-22.000008
 20
-83.256599
 11
-14.000008
 21
-83.256599
  0
LINE
  8
0
 10
-29.500008
 20
-84.056602
 11
-29.500008
 21
-89.056602
  0
LINE
  8
0
 10
-30.041542
 20
-84.056595
 11
-0.000004
 21
-84.056595
  0
LINE
  8
0
 10
26.999992
 20
-84.056595
 11
12.849991
 21
-84.056595
  0
LINE
  8
0
 10
-22.000008
 20
-83.256607
 11
-22.000008
 21
-84.056602
  0
LINE
  8
0
 10
-14.000008
 20
-83.256607
 11
-14.000008
 21
-84.056602
  0
LINE
  8
0
 10
21.999996
 20
-83.256592
 11
21.999996
 21
-84.056587
  0
LINE
  8
0
 10
21.999992
 20
-83.256599
 11
13.999992
 21
-83.256599
  0
LINE
  8
0
 10
13.999996
 20
-83.256592
 11
13.999996
 21
-84.056587
  0
LINE
  8
0
 10
-12.500008
 20
-80.556595
 11
-12.500008
 21
-72.556633
  0
LINE
  8
0
 10
-11.500008
 20
-71.556641
 11
-11.500008
 21
-81.556602
  0
LINE
  8
0
 10
-11.500008
 20
-81.556595
 11
-8.683380
 21
-81.556595
  0
LINE
  8
0
 10
-12.499944
 20
-80.556526
 11
-11.499941
 21
-81.556526
  0
LINE
  8
0
 10
-1.000004
 20
-69.056595
 11
-1.000004
 21
-84.056595
  0
LINE
  8
0
 10
26.999996
 20
-68.056587
 11
26.999996
 21
-89.056587
  0
LINE
  8
0
 10
1.749981
 20
-68.056595
 11
-0.000004
 21
-68.056595
  0
LINE
  8
0
 10
0.149994
 20
-88.056595
 11
12.849991
 21
-88.056595
  0
LINE
  8
0
 10
-11.500008
 20
-71.556602
 11
-8.683372
 21
-71.556602
  0
LINE
  8
0
 10
-12.499970
 20
-72.556602
 11
-11.499968
 21
-71.556602
  0
LINE
  8
0
 10
-17.000015
 20
-69.056595
 11
-0.000004
 21
-69.056595
  0
LINE
  8
0
 10
-17.000008
 20
-69.056602
 11
-17.000008
 21
-79.756607
  0
LINE
  8
0
 10
-40.000008
 20
-96.056595
 11
39.999996
 21
-96.056595
  0
LINE
  8
0
  6
CENTER
 62
     2
 10
-32.500008
 20
-85.723259
 11
-32.500008
 21
-99.389931
  0
LINE
  8
0
  6
CENTER
 62
     2
 10
32.499996
 20
-86.723228
 11
32.499996
 21
-99.389900
  0
LINE
  8
0
  6
CENTER
 62
     2
 10
24.999996
 20
-87.056572
 11
24.999996
 21
-99.389908
  0
LINE
  8
0
  6
CENTER
 62
     2
 10
-25.000008
 20
-85.723251
 11
-25.000008
 21
-99.389923
  0
LINE
  8
0
 10
-30.041542
 20
-80.856598
 11
-30.041542
 21
-84.056595
  0
LINE
  8
0
 10
-21.958612
 20
-80.856598
 11
-21.958612
 21
-83.256599
  0
LINE
  8
0
 10
-30.041542
 20
-80.856598
 11
-21.958612
 21
-80.856598
  0
LINE
  8
0
 10
-28.000008
 20
-77.556595
 11
-24.000008
 21
-77.556595
  0
LINE
  8
0
 10
-27.322884
 20
-80.556595
 11
-24.677132
 21
-80.556595
  0
LINE
  8
0
 10
-28.020737
 20
-80.856598
 11
-28.020737
 21
-84.056595
  0
LINE
  8
0
 10
-23.979279
 20
-80.856598
 11
-23.979279
 21
-84.056595
  0
LINE
  8
0
 10
-24.000008
 20
-77.556595
 11
-24.000008
 21
-80.856598
  0
LINE
  8
0
 10
-28.000008
 20
-77.556595
 11
-28.000008
 21
-80.856598
  0
LINE
  8
0
 10
-24.677132
 20
-77.556595
 11
-24.677132
 21
-80.556595
  0
LINE
  8
0
 10
-27.322884
 20
-77.556595
 11
-27.322884
 21
-80.556595
  0
LINE
  8
0
 10
-0.000004
 20
-68.056595
 11
-0.000004
 21
-84.056595
  0
CIRCLE
  8
0
 10
-32.500000
 20
31.943399
 40
2.000000
  0
ARC
  8
0
 10
0.000015
 20
56.943398
 40
2.000000
 50
311.409637
 51
228.590363
  0
CIRCLE
  8
0
 10
32.500000
 20
31.943388
 40
2.000000
  0
CIRCLE
  8
0
 10
0.000015
 20
-0.556606
 40
2.000000
  0
CIRCLE
  8
0
 10
0.000015
 20
64.443398
 40
2.000000
  0
ARC
  8
0
 10
3.000004
 20
6.143398
 40
1.000000
 50
0.000000
 51
179.999969
  0
ARC
  8
0
 10
6.500004
 20
6.143398
 40
1.000000
 50
0.000000
 51
179.999969
  0
ARC
  8
0
 10
10.000004
 20
6.143398
 40
1.000000
 50
0.000000
 51
179.999969
  0
CIRCLE
  8
0
 10
-25.000000
 20
56.943405
 40
2.250000
  0
CIRCLE
  8
0
 10
25.000000
 20
56.943405
 40
2.250000
  0
CIRCLE
  8
0
 10
25.000000
 20
6.943399
 40
2.250000
  0
CIRCLE
  8
0
 10
-25.000000
 20
56.943398
 40
4.000000
  0
CIRCLE
  8
0
 10
25.000008
 20
56.943398
 40
4.000000
  0
CIRCLE
  8
0
 10
25.000000
 20
6.943392
 40
4.000000
  0
CIRCLE
  8
0
 10
-26.000008
 20
31.943399
 40
2.000000
  0
CIRCLE
  8
0
 62
     2
 10
-26.000008
 20
31.943399
 40
1.120000
  0
CIRCLE
  8
0
 10
-26.000008
 20
31.943399
 40
3.500000
  0
ARC
  8
0
 10
-0.000008
 20
31.943398
 40
29.500000
 50
181.875046
 51
232.807587
  0
ARC
  8
0
 10
-0.000008
 20
31.943398
 40
29.500002
 50
23.758110
 51
52.807606
  0
ARC
  8
0
 10
0.000000
 20
31.943405
 40
29.500000
 50
307.192383
 51
336.241852
  0
ARC
  8
0
 10
18.000000
 20
13.943394
 40
5.000000
 50
89.999977
 51
179.999969
  0
CIRCLE
  8
0
 10
18.000000
 20
13.943394
 40
4.000000
  0
ARC
  8
0
 10
18.000000
 20
49.943398
 40
5.000000
 50
180.000000
 51
270.000031
  0
CIRCLE
  8
0
 10
18.000000
 20
49.943398
 40
4.000000
  0
ARC
  8
0
 10
-0.000008
 20
31.943398
 40
29.500002
 50
127.192406
 51
178.124939
  0
CIRCLE
  8
0
 10
-18.000000
 20
13.943394
 40
4.000000
  0
CIRCLE
  8
0
 10
-18.000000
 20
49.943398
 40
4.000000
  0
CIRCLE
  8
0
 10
0.000000
 20
31.943398
 40
5.000000
  0
ARC
  8
0
 10
0.000000
 20
31.943398
 40
17.000000
 50
93.372307
 51
266.627686
  0
CIRCLE
  8
0
 10
-25.000000
 20
6.943396
 40
4.000000
  0
CIRCLE
  8
0
 10
-25.000000
 20
6.943403
 40
2.250000
  0
CIRCLE
  8
0
 10
-32.500000
 20
-0.556606
 40
4.000000
  0
CIRCLE
  8
0
 10
-32.500000
 20
-0.556599
 40
2.250000
  0
CIRCLE
  8
0
 10
32.500000
 20
-0.556606
 40
4.000000
  0
CIRCLE
  8
0
 10
32.500000
 20
-0.556599
 40
2.250000
  0
CIRCLE
  8
0
 10
-32.500000
 20
64.443398
 40
4.000000
  0
CIRCLE
  8
0
 10
-32.500000
 20
64.443390
 40
2.250000
  0
CIRCLE
  8
0
 10
32.500000
 20
64.443398
 40
4.000000
  0
CIRCLE
  8
0
 10
32.500000
 20
64.443390
 40
2.250000
  0
CIRCLE
  8
0
 10
-113.499977
 20
41.943405
 40
5.500000
  0
ARC
  8
0
 10
-121.802727
 20
30.193409
 40
4.002762
 50
334.074768
 51
25.925245
  0
ARC
  8
0
 10
-104.499969
 20
3.793402
 40
3.000000
 50
359.999939
 51
90.000000
  0
ARC
  8
0
 10
-121.802727
 20
33.693409
 40
4.002762
 50
334.074768
 51
25.925245
  0
ARC
  8
0
 10
-104.499969
 20
3.793402
 40
1.000000
 50
359.999939
 51
90.000000
  0
CIRCLE
  8
0
 10
-113.499977
 20
21.943417
 40
5.500000
  0
CIRCLE
  8
0
 62
     2
 10
112.500015
 20
23.943371
 40
2.000000
  0
CIRCLE
  8
0
 62
     2
 10
112.499985
 20
39.943375
 40
2.000000
  0
CIRCLE
  8
0
 10
112.500000
 20
31.943375
 40
2.000000
  0
CIRCLE
  8
0
 10
112.500000
 20
31.943375
 40
3.000000
  0
ARC
  8
0
 10
104.000046
 20
3.793348
 40
1.000000
 50
90.000000
 51
180.000015
  0
ARC
  8
0
 10
104.000046
 20
3.793348
 40
3.000000
 50
90.000000
 51
180.000015
  0
CIRCLE
  8
0
 10
112.500015
 20
23.943371
 40
1.600000
  0
CIRCLE
  8
0
 10
112.499985
 20
39.943378
 40
1.600000
  0
CIRCLE
  8
0
 10
9.999969
 20
-62.056602
 40
0.500000
  0
CIRCLE
  8
0
 10
8.899994
 20
-81.456589
 40
2.000000
  0
CIRCLE
  8
0
 10
4.099991
 20
-81.456596
 40
2.000000
  0
CIRCLE
  8
0
 10
2.749981
 20
-62.056602
 40
1.000000
  0
CIRCLE
  8
0
 10
6.499977
 20
-62.056602
 40
1.000000
  0
CIRCLE
  8
0
 10
9.999969
 20
-62.056602
 40
1.000000
  0
CIRCLE
  8
0
 10
2.749981
 20
-62.056602
 40
0.500000
  0
CIRCLE
  8
0
 10
6.499977
 20
-62.056602
 40
0.500000
  0
ARC
  8
0
 10
-12.000008
 20
-76.556602
 40
6.000000
 50
0.000000
 51
146.442673
  0
ARC
  8
0
 10
-12.000008
 20
-76.556602
 40
5.999999
 50
245.375641
 51
0.000000
  0
ARC
  8
0
 10
-29.031139
 20
-82.325249
 40
1.468655
 50
46.529728
 51
133.470276
  0
ARC
  8
0
 10
-26.000008
 20
-86.126633
 40
5.270039
 50
67.453239
 51
112.546776
  0
ARC
  8
0
 10
-22.968945
 20
-82.325073
 40
1.468479
 50
46.527016
 51
133.473038
  0
TEXT
  8
0
 10
115.907150
 20
122.050003
 40
4.500000
  1
DATE : MAY ,1993
 50
0.000000
 41
1.052631
 51
0.000000
  7
STANDARD
  0
TEXT
  8
0
 10
113.700279
 20
-130.669998
 40
6.300000
  1
KOGANEI CORP.
 50
0.000000
 41
1.052632
 51
0.000000
  7
STANDARD
  0
TEXT
  8
0
 10
-185.892654
 20
122.050003
 40
4.500000
  1
HANDLING MODULE
 50
0.000000
 41
1.052632
 51
0.000000
  7
STANDARD
  0
TEXT
  8
0
 10
-186.892654
 20
104.550003
 40
4.500000
  1
MODEL:SHM11M-10
 50
0.000000
 41
1.052632
 51
0.000000
  7
STANDARD
  0
ENDSEC
  0
EOF
