  0
SECTION
  2
HEADER
  0
ENDSEC
  0
SECTION
  2
TABLES
  0
TABLE
  2
LTYPE
 70
     4
  0
LTYPE
  2
CONTINUOUS
 70
    64
  3
Solid line
 72
    65
 73
     0
 40
0.000000
  0
LTYPE
  2
DASHED
 70
    64
  3
__ __ __ __ __ __ __ __ __ __ __ __ __ __ __
 72
    65
 73
     2
 40
3.500000
 49
2.000000
 49
-1.500000
  0
LTYPE
  2
CENTER
 70
    64
  3
____ _ ____ _ ____ _ ____ _ ____ _ ____ _ ____
 72
    65
 73
     4
 40
17.500000
 49
13.000000
 49
-1.500000
 49
1.500000
 49
-1.500000
  0
LTYPE
  2
PHANTOM
 70
    64
  3
_____ _ _ _____ _ _ _____ _ _ _____ _ _ ____  
 72
    65
 73
     6
 40
15.500000
 49
8.000000
 49
-1.500000
 49
1.500000
 49
-1.500000
 49
1.500000
 49
-1.500000
  0
LTYPE
  2
DASHED1
 70
    64
  3
__ __ __ __ __ __ __ __ __ __ __ __ __ __ __
 72
    65
 73
     2
 40
1.500000
 49
1.000000
 49
-0.500000
  0
LTYPE
  2
DASHED2
 70
    64
  3
__ __ __ __ __ __ __ __ __ __ __ __ __ __ __
 72
    65
 73
     2
 40
3.500000
 49
2.500000
 49
-1.000000
  0
LTYPE
  2
DASHED3
 70
    64
  3
__ __ __ __ __ __ __ __ __ __ __ __ __ __ __
 72
    65
 73
     2
 40
6.000000
 49
4.000000
 49
-2.000000
  0
LTYPE
  2
DASHED4
 70
    64
  3
__ __ __ __ __ __ __ __ __ __ __ __ __ __ __
 72
    65
 73
     2
 40
12.000000
 49
10.000000
 49
-2.000000
  0
LTYPE
  2
DASHED5
 70
    64
  3
__ __ __ __ __ __ __ __ __ __ __ __ __ __ __
 72
    65
 73
     2
 40
17.000000
 49
15.000000
 49
-2.000000
  0
LTYPE
  2
DASHED6
 70
    64
  3
__ __ __ __ __ __ __ __ __ __ __ __ __ __ __
 72
    65
 73
     2
 40
29.000000
 49
27.000000
 49
-2.000000
  0
LTYPE
  2
PHANTOM1
 70
    64
  3
_____ _ _ _____ _ _ _____ _ _ _____ _ _ ____  
 72
    65
 73
     6
 40
31.000000
 49
25.000000
 49
-1.500000
 49
1.000000
 49
-1.000000
 49
1.000000
 49
-1.500000
  0
LTYPE
  2
PHANTOM2
 70
    64
  3
_____ _ _ _____ _ _ _____ _ _ _____ _ _ ____  
 72
    65
 73
     6
 40
36.000000
 49
27.000000
 49
-1.500000
 49
2.500000
 49
-1.000000
 49
2.500000
 49
-1.500000
  0
LTYPE
  2
PHANTOM3
 70
    64
  3
_____ _ _ _____ _ _ _____ _ _ _____ _ _ ____  
 72
    65
 73
     6
 40
78.000000
 49
64.000000
 49
-2.000000
 49
4.000000
 49
-2.000000
 49
4.000000
 49
-2.000000
  0
LTYPE
  2
CENTER1
 70
    64
  3
____ _ ____ _ ____ _ ____ _ ____ _ ____ _ ____
 72
    65
 73
     4
 40
19.000000
 49
14.000000
 49
-1.000000
 49
3.000000
 49
-1.000000
  0
LTYPE
  2
CENTER2
 70
    64
  3
____ _ ____ _ ____ _ ____ _ ____ _ ____ _ ____
 72
    65
 73
     4
 40
28.500000
 49
25.000000
 49
-1.000000
 49
1.500000
 49
-1.000000
  0
LTYPE
  2
CENTER3
 70
    64
  3
____ _ ____ _ ____ _ ____ _ ____ _ ____ _ ____
 72
    65
 73
     4
 40
31.500000
 49
27.000000
 49
-1.000000
 49
2.500000
 49
-1.000000
  0
LTYPE
  2
CENTER4
 70
    64
  3
____ _ ____ _ ____ _ ____ _ ____ _ ____ _ ____
 72
    65
 73
     4
 40
50.000000
 49
45.000000
 49
-1.000000
 49
3.000000
 49
-1.000000
  0
LTYPE
  2
CENTER5
 70
    64
  3
____ _ ____ _ ____ _ ____ _ ____ _ ____ _ ____
 72
    65
 73
     4
 40
100.000000
 49
92.000000
 49
-2.000000
 49
4.000000
 49
-2.000000
  0
LTYPE
  2
SBK1
 70
    64
  3
______ _ _ _ ______ _ _ _ ______ _ _ _ _____  
 72
    65
 73
     8
 40
60.500000
 49
45.000000
 49
-2.000000
 49
2.500000
 49
-2.000000
 49
2.500000
 49
-2.000000
 49
2.500000
 49
-2.000000
  0
LTYPE
  2
SBK2
 70
    64
  3
______ _ _ _ ______ _ _ _ ______ _ _ _ _____  
 72
    65
 73
     8
 40
84.000000
 49
64.000000
 49
-2.000000
 49
4.000000
 49
-2.000000
 49
4.000000
 49
-2.000000
 49
4.000000
 49
-2.000000
  0
LTYPE
  2
STCH
 70
    64
  3
__ __ __ __ __ __ __ __ __ __ __ __ __ __ __
 72
    65
 73
     2
 40
3.000000
 49
1.000000
 49
-2.000000
  0
LTYPE
  2
MTCH
 70
    64
  3
_____ _ _ _____ _ _ _____ _ _ _____ _ _ ____  
 72
    65
 73
     6
 40
80.000000
 49
66.000000
 49
-2.000000
 49
4.000000
 49
-2.000000
 49
4.000000
 49
-2.000000
  0
ENDTAB
  0
TABLE
  2
LAYER
 70
     1
  0
LAYER
  2
0
 70
     0
 62
     7
  6
CONTINUOUS
  0
ENDTAB
  0
TABLE
  2
STYLE
 70
     1
  0
STYLE
  2
STANDARD
 70
     0
 40
0.000000
 41
1.000000
 50
0.000000
 71
     0
 42
0.200000
  3
txt
  4
BIGFONT
  0
ENDTAB
  0
TABLE
  2
VIEW
 70
     0
  0
ENDTAB
  0
ENDSEC
  0
SECTION
  2
BLOCKS
  0
ENDSEC
  0
SECTION
  2
ENTITIES
  0
LINE
  8
0
 10
-194.250000
 20
132.600006
 11
194.800003
 21
132.600006
  0
LINE
  8
0
 10
194.800003
 20
132.600006
 11
194.800003
 21
-133.500000
  0
LINE
  8
0
 10
-194.250000
 20
132.600006
 11
-194.250000
 21
-133.500000
  0
LINE
  8
0
 10
-194.250000
 20
-133.500000
 11
194.800003
 21
-133.500000
  0
LINE
  8
0
 10
109.800003
 20
-118.500000
 11
109.800003
 21
-133.500000
  0
LINE
  8
0
 10
109.800003
 20
-118.500000
 11
194.800003
 21
-118.500000
  0
LINE
  8
0
 10
109.800003
 20
132.600006
 11
109.800003
 21
117.600006
  0
LINE
  8
0
 10
109.800003
 20
117.600006
 11
194.800003
 21
117.600006
  0
LINE
  8
0
 10
-194.250000
 20
117.600006
 11
-109.250000
 21
117.600006
  0
LINE
  8
0
 10
-109.250000
 20
132.600006
 11
-109.250000
 21
117.600006
  0
LINE
  8
0
 10
-2.149998
 20
4.199989
 11
-3.999996
 21
4.199989
  0
LINE
  8
0
 10
-7.499996
 20
-13.335899
 11
-7.499996
 21
7.199997
  0
LINE
  8
0
 10
-9.499996
 20
-12.800003
 11
-9.499996
 21
7.199997
  0
LINE
  8
0
 10
-10.999992
 20
-13.335911
 11
-10.999992
 21
7.199997
  0
LINE
  8
0
 10
-5.999996
 20
-12.799973
 11
-5.999996
 21
7.199997
  0
LINE
  8
0
 10
-3.999996
 20
-13.335873
 11
-3.999996
 21
7.199997
  0
LINE
  8
0
 10
-12.999992
 20
-12.800011
 11
-12.999992
 21
7.199997
  0
LINE
  8
0
 10
-5.999996
 20
4.199989
 11
-7.499996
 21
4.199989
  0
LINE
  8
0
 10
-9.499996
 20
4.199989
 11
-10.999996
 21
4.199989
  0
LINE
  8
0
 10
-12.999996
 20
4.199989
 11
-14.849991
 21
4.199989
  0
LINE
  8
0
 62
     2
 10
-11.000010
 20
-13.335903
 11
-13.000004
 21
-12.800007
  0
LINE
  8
0
 62
     2
 10
-7.500005
 20
-13.335909
 11
-9.500002
 21
-12.800012
  0
LINE
  8
0
 62
     2
 10
-3.999992
 20
-13.335876
 11
-5.999998
 21
-12.799976
  0
LINE
  8
0
 10
-32.832542
 20
9.499992
 11
2.832542
 21
9.499992
  0
LINE
  8
0
 10
-14.849991
 20
4.199997
 11
-14.849991
 21
9.500000
  0
LINE
  8
0
 10
-2.149998
 20
4.199997
 11
-2.149998
 21
9.500000
  0
LINE
  8
0
 62
     2
 10
2.133957
 20
16.499992
 11
3.866005
 21
16.499992
  0
LINE
  8
0
 62
     2
 10
3.865931
 20
16.499947
 11
4.731960
 21
14.999939
  0
LINE
  8
0
 62
     2
 10
4.732030
 20
14.999978
 11
3.865998
 21
13.499969
  0
LINE
  8
0
 62
     2
 10
3.866005
 20
13.499977
 11
2.133957
 21
13.499977
  0
LINE
  8
0
 62
     2
 10
2.133893
 20
13.499943
 11
1.267865
 21
14.999951
  0
LINE
  8
0
 62
     2
 10
1.267845
 20
14.999998
 11
2.133870
 21
16.500000
  0
LINE
  8
0
 62
     2
 10
-32.133957
 20
49.499992
 11
-33.866005
 21
49.499992
  0
LINE
  8
0
 62
     2
 10
-33.865925
 20
49.500034
 11
-34.731953
 21
51.000046
  0
LINE
  8
0
 62
     2
 10
-34.732037
 20
51.000000
 11
-33.865997
 21
52.500011
  0
LINE
  8
0
 62
     2
 10
-33.866005
 20
52.500008
 11
-32.133957
 21
52.500008
  0
LINE
  8
0
 62
     2
 10
-32.133881
 20
52.500034
 11
-31.267855
 21
51.000027
  0
LINE
  8
0
 62
     2
 10
-31.267950
 20
51.000046
 11
-32.133972
 21
49.500046
  0
LINE
  8
0
 62
     2
 10
-32.133957
 20
16.499992
 11
-33.866005
 21
16.499992
  0
LINE
  8
0
 62
     2
 10
-33.865940
 20
16.499945
 11
-34.731972
 21
14.999935
  0
LINE
  8
0
 62
     2
 10
-34.732037
 20
14.999991
 11
-33.866001
 21
13.499983
  0
LINE
  8
0
 62
     2
 10
-33.866005
 20
13.499977
 11
-32.133957
 21
13.499977
  0
LINE
  8
0
 62
     2
 10
-32.133896
 20
13.499930
 11
-31.267868
 21
14.999939
  0
LINE
  8
0
 62
     2
 10
-31.267897
 20
14.999973
 11
-32.133919
 21
16.499973
  0
LINE
  8
0
 10
-38.979336
 20
29.500019
 11
-36.958614
 21
33.000011
  0
LINE
  8
0
 10
-45.041504
 20
33.000019
 11
-43.020779
 21
36.500019
  0
LINE
  8
0
 10
-36.958622
 20
32.999969
 11
-38.979347
 21
36.499966
  0
LINE
  8
0
 10
-43.020805
 20
29.499969
 11
-45.041531
 21
32.999969
  0
LINE
  8
0
 10
-43.020737
 20
29.499985
 11
-38.979279
 21
29.499985
  0
LINE
  8
0
 10
-43.020737
 20
36.499985
 11
-38.979279
 21
36.499985
  0
LINE
  8
0
 10
-39.677132
 20
34.499985
 11
-42.322884
 21
34.499985
  0
LINE
  8
0
 10
-39.677132
 20
31.499985
 11
-42.322884
 21
31.499985
  0
LINE
  8
0
 62
     2
 10
2.133957
 20
49.499992
 11
3.866005
 21
49.499992
  0
LINE
  8
0
 62
     2
 10
3.865907
 20
49.500042
 11
4.731935
 21
51.000046
  0
LINE
  8
0
 62
     2
 10
4.732049
 20
51.000004
 11
3.866019
 21
52.500011
  0
LINE
  8
0
 62
     2
 10
3.866005
 20
52.500008
 11
2.133957
 21
52.500008
  0
LINE
  8
0
 62
     2
 10
2.133868
 20
52.500046
 11
1.267840
 21
51.000042
  0
LINE
  8
0
 62
     2
 10
1.267889
 20
51.000023
 11
2.133913
 21
49.500023
  0
LINE
  8
0
 10
-16.000000
 20
12.023815
 11
-16.000000
 21
23.050117
  0
LINE
  8
0
 10
-16.000000
 20
42.949867
 11
-16.000000
 21
53.976166
  0
LINE
  8
0
 10
-15.000000
 20
42.999992
 11
-15.000000
 21
56.499992
  0
LINE
  8
0
 10
12.000000
 20
21.115135
 11
12.000000
 21
44.884865
  0
LINE
  8
0
 10
3.000000
 20
45.999992
 11
11.481129
 21
45.999992
  0
LINE
  8
0
 10
3.000000
 20
19.999992
 11
11.481121
 21
19.999992
  0
LINE
  8
0
 10
-2.000000
 20
14.999992
 11
-2.000000
 21
9.499992
  0
LINE
  8
0
 10
-2.000000
 20
50.999992
 11
-2.000000
 21
56.499992
  0
LINE
  8
0
 10
-15.000000
 20
22.999992
 11
-15.000000
 21
9.499992
  0
LINE
  8
0
 10
-32.832542
 20
56.499992
 11
2.832542
 21
56.499992
  0
LINE
  8
0
 10
-28.500000
 20
12.999992
 11
-22.889862
 21
12.999992
  0
LINE
  8
0
 10
-28.500000
 20
16.914284
 11
-28.500000
 21
12.999992
  0
LINE
  8
0
 10
-29.499969
 20
13.999993
 11
-28.499966
 21
12.999994
  0
LINE
  8
0
 10
-29.500000
 20
14.000000
 11
-29.500000
 21
17.809536
  0
LINE
  8
0
 10
-23.000000
 20
13.583504
 11
-23.000000
 21
13.043793
  0
LINE
  8
0
 10
-28.500000
 20
49.085701
 11
-28.500000
 21
52.999992
  0
LINE
  8
0
 10
-29.500000
 20
51.999985
 11
-29.500000
 21
48.190445
  0
LINE
  8
0
 10
-29.499937
 20
51.999966
 11
-28.499933
 21
52.999966
  0
LINE
  8
0
 10
-28.500000
 20
52.999992
 11
-22.889862
 21
52.999992
  0
LINE
  8
0
 10
-23.000000
 20
52.416481
 11
-23.000000
 21
52.956192
  0
LINE
  8
0
 62
     2
 10
-11.641220
 20
0.499985
 11
-18.565643
 21
0.499985
  0
LINE
  8
0
 10
-65.000000
 20
-17.000008
 11
-65.000000
 21
82.999992
  0
LINE
  8
0
 10
-65.000000
 20
-17.000008
 11
35.000000
 21
-17.000008
  0
LINE
  8
0
 10
35.000000
 20
-17.000008
 11
35.000000
 21
82.999992
  0
LINE
  8
0
  6
CENTER
 62
     2
 10
-64.149994
 20
75.499992
 11
-50.500000
 21
75.499992
  0
LINE
  8
0
  6
CENTER
 62
     2
 10
-57.500000
 20
68.699997
 11
-57.500000
 21
82.000000
  0
LINE
  8
0
  6
CENTER
 62
     2
 10
-47.500000
 20
59.961136
 11
-47.500000
 21
71.397560
  0
LINE
  8
0
  6
CENTER
 62
     2
 10
-53.283073
 20
65.499992
 11
-41.738754
 21
65.499992
  0
LINE
  8
0
  6
CENTER
 62
     2
 10
-11.641220
 20
75.500000
 11
-18.565643
 21
75.500000
  0
LINE
  8
0
  6
CENTER
 62
     2
 10
-11.641220
 20
65.500000
 11
-18.565643
 21
65.500000
  0
LINE
  8
0
  6
CENTER
 62
     2
 10
23.283073
 20
65.499992
 11
11.738754
 21
65.499992
  0
LINE
  8
0
  6
CENTER
 62
     2
 10
17.500000
 20
59.961136
 11
17.500000
 21
71.397560
  0
LINE
  8
0
  6
CENTER
 62
     2
 10
27.500000
 20
68.699997
 11
27.500000
 21
82.000000
  0
LINE
  8
0
  6
CENTER
 62
     2
 10
34.149994
 20
75.499992
 11
20.500000
 21
75.499992
  0
LINE
  8
0
  6
CENTER
 62
     2
 10
-15.000000
 20
-19.687790
 11
-15.000000
 21
86.900002
  0
LINE
  8
0
  6
CENTER
 62
     2
 10
-57.500000
 20
36.358780
 11
-57.500000
 21
29.434357
  0
LINE
  8
0
  6
CENTER
 62
     2
 10
-47.500000
 20
36.358765
 11
-47.500000
 21
29.434341
  0
LINE
  8
0
  6
CENTER
 62
     2
 10
17.500008
 20
29.641212
 11
17.500008
 21
36.565636
  0
LINE
  8
0
  6
CENTER
 62
     2
 10
27.500008
 20
29.641197
 11
27.500008
 21
36.565620
  0
LINE
  8
0
  6
CENTER
 62
     2
 10
27.500000
 20
-2.700012
 11
27.500000
 21
-16.000015
  0
LINE
  8
0
  6
CENTER
 62
     2
 10
34.149994
 20
-9.500008
 11
20.500000
 21
-9.500008
  0
LINE
  8
0
  6
CENTER
 62
     2
 10
17.500000
 20
6.038849
 11
17.500000
 21
-5.397575
  0
LINE
  8
0
  6
CENTER
 62
     2
 10
23.283073
 20
0.499992
 11
11.738754
 21
0.499992
  0
LINE
  8
0
  6
CENTER
 62
     2
 10
-18.358788
 20
-9.500011
 11
-11.434364
 21
-9.500011
  0
LINE
  8
0
  6
CENTER
 62
     2
 10
-11.641220
 20
0.499985
 11
-18.565643
 21
0.499985
  0
LINE
  8
0
  6
CENTER
 62
     2
 10
-53.283073
 20
0.499992
 11
-41.738754
 21
0.499992
  0
LINE
  8
0
  6
CENTER
 62
     2
 10
-47.500000
 20
6.038849
 11
-47.500000
 21
-5.397575
  0
LINE
  8
0
  6
CENTER
 62
     2
 10
-64.149994
 20
-9.500008
 11
-50.500000
 21
-9.500008
  0
LINE
  8
0
  6
CENTER
 62
     2
 10
-57.500000
 20
-2.700012
 11
-57.500000
 21
-16.000015
  0
LINE
  8
0
 10
-65.000000
 20
82.999992
 11
35.000000
 21
82.999992
  0
LINE
  8
0
 10
-15.000000
 20
42.999992
 11
-15.000000
 21
56.499992
  0
LINE
  8
0
 10
-15.000000
 20
22.999992
 11
-15.000000
 21
9.499992
  0
LINE
  8
0
  6
CENTER
 62
     2
 10
-70.000000
 20
32.999992
 11
39.029999
 21
32.999992
  0
LINE
  8
0
  6
CENTER
 62
     2
 10
-128.902344
 20
32.999992
 11
-167.501450
 21
32.999992
  0
LINE
  8
0
 10
-147.500000
 20
18.499985
 11
-151.199997
 21
18.499985
  0
LINE
  8
0
 10
-147.500000
 20
11.499985
 11
-151.000000
 21
11.499985
  0
LINE
  8
0
 10
-147.000000
 20
17.999844
 11
-147.000000
 21
11.999985
  0
LINE
  8
0
 10
-147.499908
 20
11.499887
 11
-146.999908
 21
11.999887
  0
LINE
  8
0
 10
-147.000122
 20
17.999882
 11
-147.500107
 21
18.499861
  0
LINE
  8
0
 10
-147.500000
 20
18.499985
 11
-147.500000
 21
11.499985
  0
LINE
  8
0
 10
-133.000000
 20
56.500000
 11
-133.000000
 21
9.499985
  0
LINE
  8
0
 10
-147.500000
 20
47.499985
 11
-151.000000
 21
47.499985
  0
LINE
  8
0
 10
-147.500000
 20
54.499985
 11
-147.500000
 21
47.499985
  0
LINE
  8
0
 10
-147.000000
 20
53.999985
 11
-147.000000
 21
47.999985
  0
LINE
  8
0
 10
-147.499863
 20
47.499897
 11
-146.999863
 21
47.999897
  0
LINE
  8
0
 10
-147.000092
 20
53.999939
 11
-147.500061
 21
54.499916
  0
LINE
  8
0
 10
-152.000000
 20
9.499985
 11
-152.000000
 21
56.500000
  0
LINE
  8
0
 10
-151.199997
 20
10.999985
 11
-151.199997
 21
18.999985
  0
LINE
  8
0
 10
-151.199997
 20
10.999985
 11
-152.000000
 21
10.999985
  0
LINE
  8
0
 10
-151.199997
 20
18.999985
 11
-152.000000
 21
18.999985
  0
LINE
  8
0
 10
-151.199997
 20
55.000000
 11
-152.000000
 21
55.000000
  0
LINE
  8
0
 10
-151.199997
 20
47.000000
 11
-152.000000
 21
47.000000
  0
LINE
  8
0
 10
-151.199997
 20
55.000000
 11
-151.199997
 21
47.000000
  0
LINE
  8
0
 10
-148.799988
 20
29.499992
 11
-148.799988
 21
36.499992
  0
LINE
  8
0
 10
-145.500000
 20
31.499992
 11
-145.500000
 21
34.499992
  0
LINE
  8
0
 10
-148.500000
 20
34.499992
 11
-148.500000
 21
34.999992
  0
LINE
  8
0
 10
-148.500000
 20
34.999992
 11
-148.799988
 21
34.999992
  0
LINE
  8
0
 10
-151.199997
 20
55.000000
 11
-152.000000
 21
55.000000
  0
LINE
  8
0
 62
     2
 10
-141.500015
 20
50.309372
 11
-139.500000
 21
49.154663
  0
LINE
  8
0
 62
     2
 10
-143.500015
 20
49.154770
 11
-141.500031
 21
50.309464
  0
LINE
  8
0
 62
     2
 10
-143.500015
 20
46.845226
 11
-141.500015
 21
45.690533
  0
LINE
  8
0
 62
     2
 10
-141.500031
 20
45.690655
 11
-139.500031
 21
46.845356
  0
LINE
  8
0
 62
     2
 10
-139.500000
 20
46.845299
 11
-139.500000
 21
49.154694
  0
LINE
  8
0
 62
     2
 10
-143.500000
 20
46.845299
 11
-143.500000
 21
49.154701
  0
LINE
  8
0
 10
-147.500000
 20
54.500000
 11
-151.000000
 21
54.500000
  0
LINE
  8
0
 10
-148.799988
 20
29.499992
 11
-152.000000
 21
29.499992
  0
LINE
  8
0
 10
-148.799988
 20
36.499992
 11
-152.000000
 21
36.499992
  0
LINE
  8
0
 10
-145.500000
 20
34.499992
 11
-148.500000
 21
34.499992
  0
LINE
  8
0
 10
-145.500000
 20
31.499992
 11
-148.500000
 21
31.499992
  0
LINE
  8
0
 10
-148.500000
 20
31.499992
 11
-148.500000
 21
30.999992
  0
LINE
  8
0
 10
-148.500000
 20
30.999992
 11
-148.799988
 21
30.999992
  0
LINE
  8
0
 10
-157.000000
 20
9.499985
 11
-133.000000
 21
9.499985
  0
LINE
  8
0
 10
-147.000000
 20
12.023808
 11
-134.000000
 21
12.023808
  0
LINE
  8
0
 10
-147.000000
 20
53.976173
 11
-134.000000
 21
53.976173
  0
LINE
  8
0
 10
-157.000000
 20
56.500000
 11
-133.000000
 21
56.500000
  0
LINE
  8
0
 10
-152.000000
 20
32.999992
 11
-149.202805
 21
32.999992
  0
LINE
  8
0
 10
-156.500000
 20
8.649986
 11
-156.500000
 21
5.049988
  0
LINE
  8
0
 10
-156.500000
 20
6.049984
 11
-157.000000
 21
6.049984
  0
LINE
  8
0
 10
-156.000000
 20
4.199986
 11
-156.000000
 21
9.499985
  0
LINE
  8
0
 10
-156.500000
 20
7.649982
 11
-157.000000
 21
7.649982
  0
LINE
  8
0
 10
-156.000000
 20
8.649982
 11
-156.500000
 21
8.649982
  0
LINE
  8
0
 10
-156.000000
 20
5.049984
 11
-156.500000
 21
5.049984
  0
LINE
  8
0
 10
-141.000000
 20
5.849983
 11
-135.500000
 21
5.849983
  0
LINE
  8
0
 62
     2
 10
-134.500000
 20
-4.072587
 11
-132.499985
 21
-3.536688
  0
LINE
  8
0
 10
-141.000000
 20
7.849983
 11
-135.500000
 21
7.849983
  0
LINE
  8
0
 10
-134.500000
 20
4.849983
 11
-134.500000
 21
-4.072567
  0
LINE
  8
0
 10
-141.000000
 20
9.499985
 11
-141.000000
 21
4.199986
  0
LINE
  8
0
 10
-132.500000
 20
4.849983
 11
-132.500000
 21
-3.536671
  0
LINE
  8
0
 10
-156.000000
 20
4.199986
 11
-141.000000
 21
4.199986
  0
LINE
  8
0
 10
-134.000000
 20
12.023808
 11
-134.000000
 21
53.976173
  0
LINE
  8
0
 10
-149.000000
 20
18.499985
 11
-149.000000
 21
29.499992
  0
LINE
  8
0
 10
-149.000000
 20
47.500000
 11
-149.000000
 21
36.499992
  0
LINE
  8
0
 62
     2
 10
-141.500046
 20
15.690683
 11
-139.500046
 21
16.845385
  0
LINE
  8
0
 62
     2
 10
-143.500015
 20
16.845213
 11
-141.500031
 21
15.690520
  0
LINE
  8
0
 62
     2
 10
-143.500000
 20
16.845299
 11
-143.500000
 21
19.154701
  0
LINE
  8
0
 62
     2
 10
-143.500031
 20
19.154753
 11
-141.500046
 21
20.309444
  0
LINE
  8
0
 62
     2
 10
-141.500015
 20
20.309322
 11
-139.500031
 21
19.154629
  0
LINE
  8
0
 62
     2
 10
-139.500000
 20
16.845299
 11
-139.500000
 21
19.154694
  0
LINE
  8
0
 10
-157.000000
 20
82.999992
 11
-157.000000
 21
-17.000008
  0
LINE
  8
0
 10
-157.000000
 20
-17.000008
 11
-164.000000
 21
-17.000008
  0
LINE
  8
0
 10
-164.000000
 20
82.999992
 11
-164.000000
 21
-17.000008
  0
LINE
  8
0
 10
-157.000000
 20
82.999992
 11
-164.000000
 21
82.999992
  0
LINE
  8
0
 10
-151.399994
 20
1.899986
 11
-147.399994
 21
1.899986
  0
LINE
  8
0
 10
-147.399994
 20
4.199986
 11
-147.399994
 21
1.899986
  0
LINE
  8
0
 10
-151.399994
 20
4.199986
 11
-151.399994
 21
1.899986
  0
LINE
  8
0
 10
126.500000
 20
8.649986
 11
126.500000
 21
5.049988
  0
LINE
  8
0
 10
126.500000
 20
6.049984
 11
127.000000
 21
6.049984
  0
LINE
  8
0
 10
126.000000
 20
4.199986
 11
126.000000
 21
9.499985
  0
LINE
  8
0
 10
126.500000
 20
7.649982
 11
127.000000
 21
7.649982
  0
LINE
  8
0
 10
126.000000
 20
8.649982
 11
126.500000
 21
8.649982
  0
LINE
  8
0
 10
126.000000
 20
5.049984
 11
126.500000
 21
5.049984
  0
LINE
  8
0
 10
111.000000
 20
5.849983
 11
105.500000
 21
5.849983
  0
LINE
  8
0
 62
     2
 10
104.499992
 20
-4.072589
 11
102.500000
 21
-3.536692
  0
LINE
  8
0
 10
111.000000
 20
7.849983
 11
105.500000
 21
7.849983
  0
LINE
  8
0
 10
104.500000
 20
4.849983
 11
104.500000
 21
-4.072567
  0
LINE
  8
0
 10
111.000000
 20
9.499985
 11
111.000000
 21
4.199986
  0
LINE
  8
0
 10
102.500000
 20
4.849983
 11
102.500000
 21
-3.536671
  0
LINE
  8
0
 10
117.699997
 20
11.499985
 11
121.199997
 21
11.499985
  0
LINE
  8
0
 10
117.699997
 20
18.499985
 11
117.699997
 21
11.499985
  0
LINE
  8
0
 10
117.199997
 20
17.999985
 11
117.199997
 21
11.999985
  0
LINE
  8
0
 10
121.199997
 20
10.999985
 11
121.199997
 21
18.999985
  0
LINE
  8
0
 10
117.699997
 20
18.499985
 11
121.199997
 21
18.499985
  0
LINE
  8
0
 10
117.699951
 20
11.499926
 11
117.199951
 21
11.999927
  0
LINE
  8
0
 10
117.200050
 20
17.999958
 11
117.700043
 21
18.499945
  0
LINE
  8
0
 10
117.200066
 20
53.999958
 11
117.700050
 21
54.499935
  0
LINE
  8
0
 10
117.699997
 20
54.499985
 11
121.199997
 21
54.499985
  0
LINE
  8
0
 10
126.000000
 20
4.199986
 11
111.000000
 21
4.199986
  0
LINE
  8
0
 10
117.699997
 20
47.499985
 11
121.199997
 21
47.499985
  0
LINE
  8
0
 10
117.699997
 20
54.499985
 11
117.699997
 21
47.499985
  0
LINE
  8
0
 10
117.199997
 20
53.999985
 11
117.199997
 21
47.999985
  0
LINE
  8
0
 10
117.699951
 20
47.499928
 11
117.199951
 21
47.999931
  0
LINE
  8
0
  6
CENTER
 62
     2
 10
137.020660
 20
32.999992
 11
99.745201
 21
32.999992
  0
LINE
  8
0
 10
121.199997
 20
10.999985
 11
122.000000
 21
10.999985
  0
LINE
  8
0
 10
121.199997
 20
18.999985
 11
122.000000
 21
18.999985
  0
LINE
  8
0
 10
121.199997
 20
55.000000
 11
122.000000
 21
55.000000
  0
LINE
  8
0
 10
121.199997
 20
55.000000
 11
121.199997
 21
47.000000
  0
LINE
  8
0
 10
121.199997
 20
47.000000
 11
122.000000
 21
47.000000
  0
LINE
  8
0
  6
CENTER
 62
     2
 10
107.333488
 20
24.999992
 11
113.975983
 21
24.999992
  0
LINE
  8
0
  6
CENTER
 62
     2
 10
107.333488
 20
40.999992
 11
113.975983
 21
40.999992
  0
LINE
  8
0
 10
122.000000
 20
46.000000
 11
122.000000
 21
56.500000
  0
LINE
  8
0
 10
103.000000
 20
9.499985
 11
127.000000
 21
9.499985
  0
LINE
  8
0
 10
103.000000
 20
21.115128
 11
127.000000
 21
21.115128
  0
LINE
  8
0
 10
103.000000
 20
56.500000
 11
127.000000
 21
56.500000
  0
LINE
  8
0
 10
103.000000
 20
46.000000
 11
122.000000
 21
46.000000
  0
LINE
  8
0
 10
103.000000
 20
44.884857
 11
127.000000
 21
44.884857
  0
LINE
  8
0
 10
103.000000
 20
19.999985
 11
122.000000
 21
19.999985
  0
LINE
  8
0
 10
122.000000
 20
19.999985
 11
122.000000
 21
9.499985
  0
LINE
  8
0
 10
103.000000
 20
56.500000
 11
103.000000
 21
9.499985
  0
LINE
  8
0
 10
127.000000
 20
82.999992
 11
127.000000
 21
-17.000008
  0
LINE
  8
0
 10
127.000000
 20
-17.000008
 11
134.000000
 21
-17.000008
  0
LINE
  8
0
 10
127.000000
 20
82.999992
 11
134.000000
 21
82.999992
  0
LINE
  8
0
 10
134.000000
 20
82.999992
 11
134.000000
 21
-17.000008
  0
LINE
  8
0
 10
121.400002
 20
1.899986
 11
117.400002
 21
1.899986
  0
LINE
  8
0
 10
121.400002
 20
4.199986
 11
121.400002
 21
1.899986
  0
LINE
  8
0
 10
117.400002
 20
4.199986
 11
117.400002
 21
1.899986
  0
LINE
  8
0
  6
CENTER
 62
     2
 10
111.000000
 20
44.501587
 11
111.000000
 21
21.220169
  0
LINE
  8
0
  6
CENTER
 62
     2
 10
-15.000000
 20
-70.750015
 11
-15.000000
 21
-112.400002
  0
LINE
  8
0
 10
-14.849998
 20
-83.400002
 11
-2.150002
 21
-83.400002
  0
LINE
  8
0
 10
-7.500008
 20
-74.000015
 11
-7.500008
 21
-83.400002
  0
LINE
  8
0
 10
-9.500008
 20
-74.000015
 11
-9.500008
 21
-83.400002
  0
LINE
  8
0
 10
-6.000008
 20
-74.000015
 11
-6.000008
 21
-83.400002
  0
LINE
  8
0
 10
-11.250004
 20
-74.000015
 11
-11.250004
 21
-83.400002
  0
LINE
  8
0
 10
-4.000008
 20
-74.000015
 11
-4.000008
 21
-83.400002
  0
LINE
  8
0
 10
-13.250004
 20
-74.000015
 11
-13.250004
 21
-83.400002
  0
LINE
  8
0
 62
     2
 10
-5.399986
 20
-92.995842
 11
-5.399986
 21
-93.804131
  0
LINE
  8
0
 62
     2
 10
-6.100039
 20
-92.591881
 11
-5.400041
 21
-92.996025
  0
LINE
  8
0
 62
     2
 10
-6.799973
 20
-92.995857
 11
-6.099975
 21
-92.591713
  0
LINE
  8
0
 62
     2
 10
-6.799980
 20
-93.804146
 11
-6.799980
 21
-92.995857
  0
LINE
  8
0
 62
     2
 10
-6.100037
 20
-94.208389
 11
-6.800035
 21
-93.804245
  0
LINE
  8
0
 62
     2
 10
-5.400002
 20
-93.804138
 11
-6.100001
 21
-94.208282
  0
LINE
  8
0
 62
     2
 10
-10.900046
 20
-94.208374
 11
-11.600039
 21
-93.804237
  0
LINE
  8
0
 62
     2
 10
-10.200009
 20
-93.804138
 11
-10.900008
 21
-94.208282
  0
LINE
  8
0
 62
     2
 10
-10.199989
 20
-92.995857
 11
-10.199989
 21
-93.804146
  0
LINE
  8
0
 62
     2
 10
-10.900061
 20
-92.591888
 11
-10.200062
 21
-92.996033
  0
LINE
  8
0
 62
     2
 10
-11.599977
 20
-92.995865
 11
-10.899978
 21
-92.591721
  0
LINE
  8
0
 62
     2
 10
-11.599979
 20
-93.804146
 11
-11.599979
 21
-92.995857
  0
LINE
  8
0
 10
-2.150002
 20
-83.400009
 11
-2.150002
 21
-100.000008
  0
LINE
  8
0
 10
-14.849991
 20
-83.400009
 11
-14.849991
 21
-100.000008
  0
LINE
  8
0
 10
-29.500000
 20
-91.700012
 11
-29.500000
 21
-95.200012
  0
LINE
  8
0
 10
-36.500000
 20
-91.700012
 11
-36.500000
 21
-95.200012
  0
LINE
  8
0
 10
-30.000000
 20
-91.200005
 11
-36.000000
 21
-91.200005
  0
LINE
  8
0
 10
-36.500015
 20
-91.699997
 11
-36.000015
 21
-91.199997
  0
LINE
  8
0
 10
-30.000067
 20
-91.200142
 11
-29.500082
 21
-91.700127
  0
LINE
  8
0
 10
-29.500000
 20
-91.700005
 11
-36.500000
 21
-91.700005
  0
LINE
  8
0
 10
-11.250004
 20
-77.000008
 11
-9.500008
 21
-77.000008
  0
LINE
  8
0
 10
-7.500008
 20
-77.000008
 11
-6.000008
 21
-77.000008
  0
LINE
  8
0
 10
-4.000008
 20
-77.000008
 11
12.000000
 21
-77.000008
  0
LINE
  8
0
 10
6.500000
 20
-91.700012
 11
6.500000
 21
-95.200012
  0
LINE
  8
0
 10
-0.500000
 20
-91.700012
 11
-0.500000
 21
-95.200012
  0
LINE
  8
0
 10
6.000000
 20
-91.200005
 11
0.000000
 21
-91.200005
  0
LINE
  8
0
 10
-0.500048
 20
-91.699951
 11
-0.000048
 21
-91.199951
  0
LINE
  8
0
 10
5.999943
 20
-91.200111
 11
6.499934
 21
-91.700104
  0
LINE
  8
0
 10
6.500000
 20
-91.700005
 11
-0.500000
 21
-91.700005
  0
LINE
  8
0
 10
-37.000000
 20
-95.200005
 11
-29.000000
 21
-95.200005
  0
LINE
  8
0
 10
-44.500000
 20
-96.000008
 11
-44.500000
 21
-101.000008
  0
LINE
  8
0
 10
-44.500000
 20
-96.000008
 11
-15.000000
 21
-96.000008
  0
LINE
  8
0
 10
12.000000
 20
-96.000008
 11
-2.150002
 21
-96.000008
  0
LINE
  8
0
 10
-37.000000
 20
-95.200005
 11
-37.000000
 21
-96.000008
  0
LINE
  8
0
 10
-29.000000
 20
-95.200005
 11
-29.000000
 21
-96.000008
  0
LINE
  8
0
 10
7.000000
 20
-95.200005
 11
7.000000
 21
-96.000008
  0
LINE
  8
0
 10
7.000000
 20
-95.200005
 11
-1.000000
 21
-95.200005
  0
LINE
  8
0
 10
-1.000000
 20
-95.200005
 11
-1.000000
 21
-96.000008
  0
LINE
  8
0
 10
-29.500000
 20
-89.500000
 11
-29.500000
 21
-81.500038
  0
LINE
  8
0
 10
-28.500000
 20
-80.500046
 11
-28.500000
 21
-90.500000
  0
LINE
  8
0
 10
-28.500000
 20
-90.500000
 11
-26.999542
 21
-90.500000
  0
LINE
  8
0
 10
-29.499935
 20
-89.499954
 11
-28.499933
 21
-90.499954
  0
LINE
  8
0
 10
-29.500000
 20
-93.500008
 11
-16.000000
 21
-93.500008
  0
LINE
  8
0
 10
-16.000000
 20
-77.500008
 11
-16.000000
 21
-93.500008
  0
LINE
  8
0
 10
2.832542
 20
-96.000008
 11
2.832542
 21
-101.000008
  0
LINE
  8
0
 10
-2.000000
 20
-77.000008
 11
-2.000000
 21
-96.000008
  0
LINE
  8
0
 10
12.000000
 20
-77.000008
 11
12.000000
 21
-101.000008
  0
LINE
  8
0
 10
-36.000000
 20
-77.500008
 11
-36.000000
 21
-91.200005
  0
LINE
  8
0
 10
-13.250004
 20
-77.000008
 11
-15.000000
 21
-77.000008
  0
LINE
  8
0
 10
-15.000000
 20
-96.000008
 11
-15.000000
 21
-77.000008
  0
LINE
  8
0
 10
2.832542
 20
-96.000008
 11
2.832542
 21
-101.000008
  0
LINE
  8
0
 10
-32.832542
 20
-96.000008
 11
-32.832542
 21
-101.000008
  0
LINE
  8
0
 10
-14.849998
 20
-100.000008
 11
-2.150002
 21
-100.000008
  0
LINE
  8
0
 10
-7.900002
 20
-100.000008
 11
-7.900002
 21
-100.500008
  0
LINE
  8
0
 10
-4.300003
 20
-100.500008
 11
-7.900002
 21
-100.500008
  0
LINE
  8
0
 10
-4.300003
 20
-100.000008
 11
-4.300003
 21
-100.500008
  0
LINE
  8
0
 10
-5.300003
 20
-100.500008
 11
-5.300003
 21
-101.000008
  0
LINE
  8
0
 10
-6.900002
 20
-100.500008
 11
-6.900002
 21
-101.000008
  0
LINE
  8
0
 10
-28.500000
 20
-80.500015
 11
-27.000534
 21
-80.500015
  0
LINE
  8
0
 10
-29.499958
 20
-81.500000
 11
-28.499954
 21
-80.500000
  0
LINE
  8
0
 10
-36.000000
 20
-77.500008
 11
-16.000000
 21
-77.500008
  0
LINE
  8
0
 10
-65.000000
 20
-101.000008
 11
35.000000
 21
-101.000008
  0
LINE
  8
0
 10
35.000000
 20
-100.999977
 11
35.000000
 21
-108.000008
  0
LINE
  8
0
 10
-65.000000
 20
-101.000008
 11
-65.000000
 21
-108.000008
  0
LINE
  8
0
 10
-65.000000
 20
-108.000008
 11
35.000000
 21
-108.000008
  0
CIRCLE
  8
0
 10
-57.500000
 20
-9.500008
 40
4.750000
  0
CIRCLE
  8
0
 10
-57.500000
 20
-9.500008
 40
2.750000
  0
ARC
  8
0
 10
-11.999996
 20
7.199997
 40
1.000000
 50
0.000000
 51
179.999969
  0
ARC
  8
0
 10
-8.499996
 20
7.199997
 40
1.000000
 50
0.000000
 51
179.999969
  0
ARC
  8
0
 10
-4.999996
 20
7.199997
 40
1.000000
 50
0.000000
 51
179.999969
  0
CIRCLE
  8
0
 10
-41.000008
 20
32.999992
 40
2.000000
  0
CIRCLE
  8
0
 62
     2
 10
-41.000008
 20
32.999992
 40
1.120000
  0
CIRCLE
  8
0
 10
-41.000008
 20
32.999992
 40
3.500000
  0
CIRCLE
  8
0
 10
-47.500000
 20
0.500000
 40
2.250000
  0
ARC
  8
0
 10
-15.000008
 20
32.999992
 40
29.499998
 50
181.875046
 51
232.807587
  0
ARC
  8
0
 10
-15.000008
 20
32.999992
 40
29.500000
 50
23.758110
 51
52.807610
  0
ARC
  8
0
 10
-15.000000
 20
33.000000
 40
29.500000
 50
307.192383
 51
336.241852
  0
ARC
  8
0
 10
3.000000
 20
14.999992
 40
5.000000
 50
89.999977
 51
179.999969
  0
CIRCLE
  8
0
 10
3.000000
 20
14.999992
 40
4.000000
  0
ARC
  8
0
 10
3.000000
 20
50.999992
 40
5.000000
 50
180.000000
 51
270.000031
  0
CIRCLE
  8
0
 10
3.000000
 20
50.999992
 40
4.000000
  0
ARC
  8
0
 10
-15.000008
 20
32.999992
 40
29.500002
 50
127.192406
 51
178.124939
  0
ARC
  8
0
 10
-33.000000
 20
14.999992
 40
4.000000
 50
28.955040
 51
341.228027
  0
ARC
  8
0
 10
-33.000000
 20
50.999992
 40
3.999999
 50
18.771833
 51
331.044952
  0
ARC
  8
0
 10
-15.000000
 20
32.999992
 40
21.000000
 50
92.665901
 51
267.270538
  0
CIRCLE
  8
0
 10
-14.999985
 20
0.499992
 40
2.000000
  0
CIRCLE
  8
0
 10
-57.500000
 20
75.499992
 40
2.750000
  0
CIRCLE
  8
0
 10
-57.500000
 20
75.499992
 40
4.750000
  0
CIRCLE
  8
0
 10
-47.500000
 20
65.499992
 40
4.000000
  0
CIRCLE
  8
0
 10
-47.500000
 20
65.499985
 40
2.250000
  0
CIRCLE
  8
0
 10
-14.999985
 20
75.499992
 40
2.000000
  0
CIRCLE
  8
0
 10
-14.999985
 20
65.499992
 40
2.000000
  0
CIRCLE
  8
0
 10
17.500000
 20
65.499992
 40
4.000000
  0
CIRCLE
  8
0
 10
17.500000
 20
65.499985
 40
2.250000
  0
CIRCLE
  8
0
 10
27.500000
 20
75.499992
 40
4.750000
  0
CIRCLE
  8
0
 10
27.500000
 20
75.499992
 40
2.750000
  0
CIRCLE
  8
0
 10
-57.500000
 20
33.000008
 40
2.000000
  0
CIRCLE
  8
0
 10
-47.500000
 20
32.999992
 40
2.000000
  0
CIRCLE
  8
0
 10
17.500000
 20
32.999985
 40
2.000000
  0
CIRCLE
  8
0
 10
27.500000
 20
32.999969
 40
2.000000
  0
CIRCLE
  8
0
 10
27.500000
 20
-9.500008
 40
4.750000
  0
CIRCLE
  8
0
 10
27.500000
 20
-9.500008
 40
2.750000
  0
CIRCLE
  8
0
 10
17.500000
 20
0.499992
 40
4.000000
  0
CIRCLE
  8
0
 10
17.500000
 20
0.500000
 40
2.250000
  0
CIRCLE
  8
0
 10
-15.000015
 20
-9.500008
 40
2.000000
  0
CIRCLE
  8
0
 10
-14.999985
 20
0.499992
 40
2.000000
  0
CIRCLE
  8
0
 10
-47.500000
 20
0.499992
 40
4.000000
  0
CIRCLE
  8
0
 10
-15.000000
 20
32.999992
 40
10.000000
  0
CIRCLE
  8
0
 10
-141.500000
 20
48.000000
 40
5.500000
  0
CIRCLE
  8
0
 10
-141.500000
 20
48.000000
 40
5.000000
  0
ARC
  8
0
 10
-152.802750
 20
31.249992
 40
4.002762
 50
334.074768
 51
25.925245
  0
ARC
  8
0
 10
-152.802750
 20
34.749992
 40
4.002762
 50
334.074768
 51
25.925245
  0
ARC
  8
0
 10
-135.500000
 20
4.849983
 40
1.000000
 50
359.999939
 51
90.000000
  0
ARC
  8
0
 10
-135.500000
 20
4.849983
 40
3.000000
 50
359.999939
 51
90.000000
  0
CIRCLE
  8
0
 10
-141.500000
 20
18.000000
 40
5.500000
  0
CIRCLE
  8
0
 10
-141.500000
 20
18.000000
 40
5.000000
  0
ARC
  8
0
 10
105.500000
 20
4.849983
 40
1.000000
 50
90.000000
 51
180.000031
  0
ARC
  8
0
 10
105.500000
 20
4.849983
 40
3.000000
 50
90.000000
 51
180.000015
  0
CIRCLE
  8
0
 62
     2
 10
111.000000
 20
24.999992
 40
2.000000
  0
CIRCLE
  8
0
 10
111.000000
 20
24.999992
 40
1.400000
  0
CIRCLE
  8
0
 62
     2
 10
111.000000
 20
40.999992
 40
2.000000
  0
CIRCLE
  8
0
 10
111.000000
 20
40.999992
 40
1.400000
  0
CIRCLE
  8
0
 10
111.000000
 20
32.999992
 40
3.000000
  0
CIRCLE
  8
0
 10
-12.250004
 20
-74.000015
 40
1.000000
  0
CIRCLE
  8
0
 10
-8.500008
 20
-74.000015
 40
1.000000
  0
CIRCLE
  8
0
 10
-5.000015
 20
-74.000015
 40
1.000000
  0
CIRCLE
  8
0
 10
-12.250004
 20
-74.000015
 40
0.500000
  0
CIRCLE
  8
0
 10
-8.500008
 20
-74.000015
 40
0.500000
  0
CIRCLE
  8
0
 10
-5.000015
 20
-74.000015
 40
0.500000
  0
CIRCLE
  8
0
 10
-10.900002
 20
-93.400002
 40
2.000000
  0
CIRCLE
  8
0
 10
-6.099998
 20
-93.400002
 40
2.000000
  0
ARC
  8
0
 10
-28.548946
 20
-85.500008
 40
5.048947
 50
349.096191
 51
10.903813
  0
ARC
  8
0
 10
-28.801380
 20
-85.571396
 40
5.310375
 50
11.144944
 51
42.779881
  0
ARC
  8
0
 10
-29.500000
 20
-86.358742
 40
6.358734
 50
43.711575
 51
136.288422
  0
ARC
  8
0
 10
-30.198620
 20
-85.571396
 40
5.310376
 50
137.220123
 51
168.855057
  0
ARC
  8
0
 10
-30.451054
 20
-85.500008
 40
5.048947
 50
169.096191
 51
190.903809
  0
ARC
  8
0
 10
-30.198620
 20
-85.428619
 40
5.310375
 50
191.144943
 51
222.779877
  0
ARC
  8
0
 10
-29.500000
 20
-84.641273
 40
6.358734
 50
223.711578
 51
316.288422
  0
ARC
  8
0
 10
-28.801380
 20
-85.428619
 40
5.310376
 50
317.220123
 51
348.855042
  0
TEXT
  8
0
 10
115.907150
 20
122.050003
 40
4.500000
  1
DATE : AUG ,1994
 50
0.000000
 41
1.052631
 51
0.000000
  7
STANDARD
  0
TEXT
  8
0
 10
113.700279
 20
-130.669998
 40
6.300000
  1
KOGANEI CORP.
 50
0.000000
 41
1.052632
 51
0.000000
  7
STANDARD
  0
TEXT
  8
0
 10
-185.892654
 20
122.050003
 40
4.500000
  1
HANDLING MODULE
 50
0.000000
 41
1.052632
 51
0.000000
  7
STANDARD
  0
TEXT
  8
0
 10
-186.892654
 20
104.550003
 40
4.500000
  1
MODEL:SHM11L-20
 50
0.000000
 41
1.052632
 51
0.000000
  7
STANDARD
  0
ENDSEC
  0
EOF
