  0
SECTION
  2
HEADER
  0
ENDSEC
  0
SECTION
  2
TABLES
  0
TABLE
  2
LTYPE
 70
     4
  0
LTYPE
  2
CONTINUOUS
 70
    64
  3
Solid line
 72
    65
 73
     0
 40
0.000000
  0
LTYPE
  2
DASHED
 70
    64
  3
__ __ __ __ __ __ __ __ __ __ __ __ __ __ __
 72
    65
 73
     2
 40
3.500000
 49
2.000000
 49
-1.500000
  0
LTYPE
  2
CENTER
 70
    64
  3
____ _ ____ _ ____ _ ____ _ ____ _ ____ _ ____
 72
    65
 73
     4
 40
17.500000
 49
13.000000
 49
-1.500000
 49
1.500000
 49
-1.500000
  0
LTYPE
  2
PHANTOM
 70
    64
  3
_____ _ _ _____ _ _ _____ _ _ _____ _ _ ____  
 72
    65
 73
     6
 40
15.500000
 49
8.000000
 49
-1.500000
 49
1.500000
 49
-1.500000
 49
1.500000
 49
-1.500000
  0
LTYPE
  2
DASHED1
 70
    64
  3
__ __ __ __ __ __ __ __ __ __ __ __ __ __ __
 72
    65
 73
     2
 40
1.500000
 49
1.000000
 49
-0.500000
  0
LTYPE
  2
DASHED2
 70
    64
  3
__ __ __ __ __ __ __ __ __ __ __ __ __ __ __
 72
    65
 73
     2
 40
3.500000
 49
2.500000
 49
-1.000000
  0
LTYPE
  2
DASHED3
 70
    64
  3
__ __ __ __ __ __ __ __ __ __ __ __ __ __ __
 72
    65
 73
     2
 40
6.000000
 49
4.000000
 49
-2.000000
  0
LTYPE
  2
DASHED4
 70
    64
  3
__ __ __ __ __ __ __ __ __ __ __ __ __ __ __
 72
    65
 73
     2
 40
12.000000
 49
10.000000
 49
-2.000000
  0
LTYPE
  2
DASHED5
 70
    64
  3
__ __ __ __ __ __ __ __ __ __ __ __ __ __ __
 72
    65
 73
     2
 40
17.000000
 49
15.000000
 49
-2.000000
  0
LTYPE
  2
DASHED6
 70
    64
  3
__ __ __ __ __ __ __ __ __ __ __ __ __ __ __
 72
    65
 73
     2
 40
29.000000
 49
27.000000
 49
-2.000000
  0
LTYPE
  2
PHANTOM1
 70
    64
  3
_____ _ _ _____ _ _ _____ _ _ _____ _ _ ____  
 72
    65
 73
     6
 40
31.000000
 49
25.000000
 49
-1.500000
 49
1.000000
 49
-1.000000
 49
1.000000
 49
-1.500000
  0
LTYPE
  2
PHANTOM2
 70
    64
  3
_____ _ _ _____ _ _ _____ _ _ _____ _ _ ____  
 72
    65
 73
     6
 40
36.000000
 49
27.000000
 49
-1.500000
 49
2.500000
 49
-1.000000
 49
2.500000
 49
-1.500000
  0
LTYPE
  2
PHANTOM3
 70
    64
  3
_____ _ _ _____ _ _ _____ _ _ _____ _ _ ____  
 72
    65
 73
     6
 40
78.000000
 49
64.000000
 49
-2.000000
 49
4.000000
 49
-2.000000
 49
4.000000
 49
-2.000000
  0
LTYPE
  2
CENTER1
 70
    64
  3
____ _ ____ _ ____ _ ____ _ ____ _ ____ _ ____
 72
    65
 73
     4
 40
19.000000
 49
14.000000
 49
-1.000000
 49
3.000000
 49
-1.000000
  0
LTYPE
  2
CENTER2
 70
    64
  3
____ _ ____ _ ____ _ ____ _ ____ _ ____ _ ____
 72
    65
 73
     4
 40
28.500000
 49
25.000000
 49
-1.000000
 49
1.500000
 49
-1.000000
  0
LTYPE
  2
CENTER3
 70
    64
  3
____ _ ____ _ ____ _ ____ _ ____ _ ____ _ ____
 72
    65
 73
     4
 40
31.500000
 49
27.000000
 49
-1.000000
 49
2.500000
 49
-1.000000
  0
LTYPE
  2
CENTER4
 70
    64
  3
____ _ ____ _ ____ _ ____ _ ____ _ ____ _ ____
 72
    65
 73
     4
 40
50.000000
 49
45.000000
 49
-1.000000
 49
3.000000
 49
-1.000000
  0
LTYPE
  2
CENTER5
 70
    64
  3
____ _ ____ _ ____ _ ____ _ ____ _ ____ _ ____
 72
    65
 73
     4
 40
100.000000
 49
92.000000
 49
-2.000000
 49
4.000000
 49
-2.000000
  0
LTYPE
  2
SBK1
 70
    64
  3
______ _ _ _ ______ _ _ _ ______ _ _ _ _____  
 72
    65
 73
     8
 40
60.500000
 49
45.000000
 49
-2.000000
 49
2.500000
 49
-2.000000
 49
2.500000
 49
-2.000000
 49
2.500000
 49
-2.000000
  0
LTYPE
  2
SBK2
 70
    64
  3
______ _ _ _ ______ _ _ _ ______ _ _ _ _____  
 72
    65
 73
     8
 40
84.000000
 49
64.000000
 49
-2.000000
 49
4.000000
 49
-2.000000
 49
4.000000
 49
-2.000000
 49
4.000000
 49
-2.000000
  0
LTYPE
  2
STCH
 70
    64
  3
__ __ __ __ __ __ __ __ __ __ __ __ __ __ __
 72
    65
 73
     2
 40
3.000000
 49
1.000000
 49
-2.000000
  0
LTYPE
  2
MTCH
 70
    64
  3
_____ _ _ _____ _ _ _____ _ _ _____ _ _ ____  
 72
    65
 73
     6
 40
80.000000
 49
66.000000
 49
-2.000000
 49
4.000000
 49
-2.000000
 49
4.000000
 49
-2.000000
  0
ENDTAB
  0
TABLE
  2
LAYER
 70
     1
  0
LAYER
  2
0
 70
     0
 62
     7
  6
CONTINUOUS
  0
ENDTAB
  0
TABLE
  2
STYLE
 70
     1
  0
STYLE
  2
STANDARD
 70
     0
 40
0.000000
 41
1.000000
 50
0.000000
 71
     0
 42
0.200000
  3
txt
  4
BIGFONT
  0
ENDTAB
  0
TABLE
  2
VIEW
 70
     0
  0
ENDTAB
  0
ENDSEC
  0
SECTION
  2
BLOCKS
  0
ENDSEC
  0
SECTION
  2
ENTITIES
  0
LINE
  8
0
 10
-194.250000
 20
132.600006
 11
194.800003
 21
132.600006
  0
LINE
  8
0
 10
194.800003
 20
132.600006
 11
194.800003
 21
-133.500000
  0
LINE
  8
0
 10
-194.250000
 20
132.600006
 11
-194.250000
 21
-133.500000
  0
LINE
  8
0
 10
-194.250000
 20
-133.500000
 11
194.800003
 21
-133.500000
  0
LINE
  8
0
 10
109.800003
 20
-118.500000
 11
109.800003
 21
-133.500000
  0
LINE
  8
0
 10
109.800003
 20
-118.500000
 11
194.800003
 21
-118.500000
  0
LINE
  8
0
 10
109.800003
 20
132.600006
 11
109.800003
 21
117.600006
  0
LINE
  8
0
 10
109.800003
 20
117.600006
 11
194.800003
 21
117.600006
  0
LINE
  8
0
 10
-194.250000
 20
117.600006
 11
-109.250000
 21
117.600006
  0
LINE
  8
0
 10
-109.250000
 20
132.600006
 11
-109.250000
 21
117.600006
  0
LINE
  8
0
 10
4.850002
 20
11.199989
 11
3.000004
 21
11.199989
  0
LINE
  8
0
 10
-0.499996
 20
-6.335899
 11
-0.499996
 21
14.199997
  0
LINE
  8
0
 10
-2.499996
 20
-5.800003
 11
-2.499996
 21
14.199997
  0
LINE
  8
0
 10
-3.999992
 20
-6.335911
 11
-3.999992
 21
14.199997
  0
LINE
  8
0
 10
1.000004
 20
-5.799973
 11
1.000004
 21
14.199997
  0
LINE
  8
0
 10
3.000004
 20
-6.335873
 11
3.000004
 21
14.199997
  0
LINE
  8
0
 10
-5.999992
 20
-5.800011
 11
-5.999992
 21
14.199997
  0
LINE
  8
0
 10
1.000004
 20
11.199989
 11
-0.499996
 21
11.199989
  0
LINE
  8
0
 10
-2.499996
 20
11.199989
 11
-3.999996
 21
11.199989
  0
LINE
  8
0
 10
-5.999996
 20
11.199989
 11
-7.849991
 21
11.199989
  0
LINE
  8
0
 62
     2
 10
-4.000003
 20
-6.335914
 11
-5.999996
 21
-5.800017
  0
LINE
  8
0
 62
     2
 10
-0.500007
 20
-6.335905
 11
-2.500004
 21
-5.800007
  0
LINE
  8
0
 62
     2
 10
3.000007
 20
-6.335876
 11
1.000003
 21
-5.799976
  0
LINE
  8
0
 10
-25.832542
 20
16.499992
 11
9.832542
 21
16.499992
  0
LINE
  8
0
 10
-7.849991
 20
11.199997
 11
-7.849991
 21
16.500000
  0
LINE
  8
0
 10
4.850002
 20
11.199997
 11
4.850002
 21
16.500000
  0
LINE
  8
0
 62
     2
 10
9.133957
 20
23.499992
 11
10.866005
 21
23.499992
  0
LINE
  8
0
 62
     2
 10
10.865923
 20
23.499941
 11
11.731952
 21
21.999931
  0
LINE
  8
0
 62
     2
 10
11.732020
 20
21.999987
 11
10.865988
 21
20.499977
  0
LINE
  8
0
 62
     2
 10
10.866005
 20
20.499977
 11
9.133957
 21
20.499977
  0
LINE
  8
0
 62
     2
 10
9.133875
 20
20.499933
 11
8.267846
 21
21.999941
  0
LINE
  8
0
 62
     2
 10
8.267845
 20
22.000002
 11
9.133870
 21
23.500004
  0
LINE
  8
0
 62
     2
 10
-25.133957
 20
56.499992
 11
-26.866005
 21
56.499992
  0
LINE
  8
0
 62
     2
 10
-26.865932
 20
56.500019
 11
-27.731964
 21
58.000034
  0
LINE
  8
0
 62
     2
 10
-27.732052
 20
58.000011
 11
-26.866016
 21
59.500019
  0
LINE
  8
0
 62
     2
 10
-26.866005
 20
59.500008
 11
-25.133957
 21
59.500008
  0
LINE
  8
0
 62
     2
 10
-25.133881
 20
59.500019
 11
-24.267857
 21
58.000019
  0
LINE
  8
0
 62
     2
 10
-24.267942
 20
58.000053
 11
-25.133966
 21
56.500053
  0
LINE
  8
0
 62
     2
 10
-25.133957
 20
23.499992
 11
-26.866005
 21
23.499992
  0
LINE
  8
0
 62
     2
 10
-26.865936
 20
23.499952
 11
-27.731968
 21
21.999941
  0
LINE
  8
0
 62
     2
 10
-27.732063
 20
21.999971
 11
-26.866030
 21
20.499966
  0
LINE
  8
0
 62
     2
 10
-26.866005
 20
20.499977
 11
-25.133957
 21
20.499977
  0
LINE
  8
0
 62
     2
 10
-25.133892
 20
20.499947
 11
-24.267866
 21
21.999952
  0
LINE
  8
0
 62
     2
 10
-24.267921
 20
21.999966
 11
-25.133942
 21
23.499966
  0
LINE
  8
0
 10
-31.979342
 20
36.500019
 11
-29.958620
 21
40.000011
  0
LINE
  8
0
 10
-38.041500
 20
40.000019
 11
-36.020775
 21
43.500015
  0
LINE
  8
0
 10
-29.958641
 20
39.999962
 11
-31.979366
 21
43.499962
  0
LINE
  8
0
 10
-36.020821
 20
36.499958
 11
-38.041542
 21
39.999954
  0
LINE
  8
0
 10
-36.020737
 20
36.499985
 11
-31.979279
 21
36.499985
  0
LINE
  8
0
 10
-36.020737
 20
43.499985
 11
-31.979279
 21
43.499985
  0
LINE
  8
0
 10
-32.677132
 20
41.499985
 11
-35.322884
 21
41.499985
  0
LINE
  8
0
 10
-32.677132
 20
38.499985
 11
-35.322884
 21
38.499985
  0
LINE
  8
0
 62
     2
 10
9.133957
 20
56.499992
 11
10.866005
 21
56.499992
  0
LINE
  8
0
 62
     2
 10
10.865908
 20
56.500042
 11
11.731936
 21
58.000046
  0
LINE
  8
0
 62
     2
 10
11.732043
 20
57.999996
 11
10.866012
 21
59.500008
  0
LINE
  8
0
 62
     2
 10
10.866005
 20
59.500008
 11
9.133957
 21
59.500008
  0
LINE
  8
0
 62
     2
 10
9.133867
 20
59.500053
 11
8.267839
 21
58.000050
  0
LINE
  8
0
 62
     2
 10
8.267871
 20
58.000015
 11
9.133895
 21
56.500019
  0
LINE
  8
0
 10
-8.000000
 20
49.999992
 11
-8.000000
 21
63.499992
  0
LINE
  8
0
 10
19.000000
 20
28.115135
 11
19.000000
 21
51.884865
  0
LINE
  8
0
 10
10.000000
 20
52.999992
 11
18.481129
 21
52.999992
  0
LINE
  8
0
 10
10.000000
 20
26.999992
 11
18.481121
 21
26.999992
  0
LINE
  8
0
 10
5.000000
 20
21.999992
 11
5.000000
 21
16.499992
  0
LINE
  8
0
 10
5.000000
 20
57.999992
 11
5.000000
 21
63.499992
  0
LINE
  8
0
 10
-8.000000
 20
29.999992
 11
-8.000000
 21
16.499992
  0
LINE
  8
0
 10
-25.832542
 20
63.499992
 11
9.832542
 21
63.499992
  0
LINE
  8
0
 62
     2
 10
-4.641220
 20
7.499985
 11
-11.565643
 21
7.499985
  0
LINE
  8
0
 10
-58.000000
 20
-10.000008
 11
-58.000000
 21
89.999992
  0
LINE
  8
0
 10
-58.000000
 20
-10.000008
 11
42.000000
 21
-10.000008
  0
LINE
  8
0
 10
42.000000
 20
-10.000008
 11
42.000000
 21
89.999992
  0
LINE
  8
0
  6
CENTER
 62
     2
 10
-57.149994
 20
82.499992
 11
-43.500000
 21
82.499992
  0
LINE
  8
0
  6
CENTER
 62
     2
 10
-50.500000
 20
75.699997
 11
-50.500000
 21
89.000000
  0
LINE
  8
0
  6
CENTER
 62
     2
 10
-40.500000
 20
66.961136
 11
-40.500000
 21
78.397560
  0
LINE
  8
0
  6
CENTER
 62
     2
 10
-46.283073
 20
72.499992
 11
-34.738754
 21
72.499992
  0
LINE
  8
0
  6
CENTER
 62
     2
 10
-4.641220
 20
82.500000
 11
-11.565643
 21
82.500000
  0
LINE
  8
0
  6
CENTER
 62
     2
 10
-4.641220
 20
72.500000
 11
-11.565643
 21
72.500000
  0
LINE
  8
0
  6
CENTER
 62
     2
 10
30.283073
 20
72.499992
 11
18.738754
 21
72.499992
  0
LINE
  8
0
  6
CENTER
 62
     2
 10
24.500000
 20
66.961136
 11
24.500000
 21
78.397560
  0
LINE
  8
0
  6
CENTER
 62
     2
 10
34.500000
 20
75.699997
 11
34.500000
 21
89.000000
  0
LINE
  8
0
  6
CENTER
 62
     2
 10
41.149994
 20
82.499992
 11
27.500000
 21
82.499992
  0
LINE
  8
0
  6
CENTER
 62
     2
 10
-63.000000
 20
39.999992
 11
46.029999
 21
39.999992
  0
LINE
  8
0
  6
CENTER
 62
     2
 10
-50.500000
 20
43.358780
 11
-50.500000
 21
36.434357
  0
LINE
  8
0
  6
CENTER
 62
     2
 10
-40.500000
 20
43.358765
 11
-40.500000
 21
36.434341
  0
LINE
  8
0
  6
CENTER
 62
     2
 10
24.500008
 20
36.641212
 11
24.500008
 21
43.565636
  0
LINE
  8
0
  6
CENTER
 62
     2
 10
34.500008
 20
36.641197
 11
34.500008
 21
43.565620
  0
LINE
  8
0
  6
CENTER
 62
     2
 10
34.500000
 20
4.299988
 11
34.500000
 21
-9.000015
  0
LINE
  8
0
  6
CENTER
 62
     2
 10
41.149994
 20
-2.500008
 11
27.500000
 21
-2.500008
  0
LINE
  8
0
  6
CENTER
 62
     2
 10
24.500000
 20
13.038849
 11
24.500000
 21
1.602425
  0
LINE
  8
0
  6
CENTER
 62
     2
 10
30.283073
 20
7.499992
 11
18.738754
 21
7.499992
  0
LINE
  8
0
  6
CENTER
 62
     2
 10
-11.358788
 20
-2.500011
 11
-4.434364
 21
-2.500011
  0
LINE
  8
0
  6
CENTER
 62
     2
 10
-4.641220
 20
7.499985
 11
-11.565643
 21
7.499985
  0
LINE
  8
0
  6
CENTER
 62
     2
 10
-46.283073
 20
7.499992
 11
-34.738754
 21
7.499992
  0
LINE
  8
0
  6
CENTER
 62
     2
 10
-40.500000
 20
13.038849
 11
-40.500000
 21
1.602425
  0
LINE
  8
0
  6
CENTER
 62
     2
 10
-57.149994
 20
-2.500008
 11
-43.500000
 21
-2.500008
  0
LINE
  8
0
  6
CENTER
 62
     2
 10
-50.500000
 20
4.299988
 11
-50.500000
 21
-9.000015
  0
LINE
  8
0
 10
-58.000000
 20
89.999992
 11
42.000000
 21
89.999992
  0
LINE
  8
0
 10
-8.000000
 20
33.499992
 11
-8.000000
 21
16.499992
  0
LINE
  8
0
 10
-8.000000
 20
46.499992
 11
-8.000000
 21
63.499992
  0
LINE
  8
0
 10
-20.500000
 20
24.999992
 11
-16.000000
 21
24.999992
  0
LINE
  8
0
 10
-21.499968
 20
26.000000
 11
-20.499964
 21
25.000002
  0
LINE
  8
0
 10
-20.500000
 20
28.478271
 11
-20.500000
 21
24.999992
  0
LINE
  8
0
 10
-21.500000
 20
26.000000
 11
-21.500000
 21
29.668003
  0
LINE
  8
0
 10
-9.000000
 20
23.029430
 11
-9.000000
 21
33.577377
  0
LINE
  8
0
 10
-21.500000
 20
53.999985
 11
-21.500000
 21
50.331985
  0
LINE
  8
0
 10
-20.500000
 20
51.521713
 11
-20.500000
 21
54.999992
  0
LINE
  8
0
 10
-21.499977
 20
53.999981
 11
-20.499973
 21
54.999981
  0
LINE
  8
0
 10
-20.500000
 20
54.999992
 11
-16.000000
 21
54.999992
  0
LINE
  8
0
 10
-9.000000
 20
56.970551
 11
-9.000000
 21
46.422607
  0
LINE
  8
0
  6
CENTER
 62
     2
 10
-8.000000
 20
-15.649994
 11
-8.000000
 21
93.780533
  0
LINE
  8
0
  6
CENTER
 62
     2
 10
-120.795135
 20
39.999992
 11
-156.501450
 21
39.999992
  0
LINE
  8
0
 10
-136.500000
 20
25.499985
 11
-140.199997
 21
25.499985
  0
LINE
  8
0
 10
-136.500000
 20
18.499985
 11
-140.000000
 21
18.499985
  0
LINE
  8
0
 10
-136.000000
 20
24.999844
 11
-136.000000
 21
18.999985
  0
LINE
  8
0
 10
-136.499954
 20
18.499889
 11
-135.999954
 21
18.999889
  0
LINE
  8
0
 10
-136.000107
 20
24.999880
 11
-136.500092
 21
25.499861
  0
LINE
  8
0
 10
-136.500000
 20
25.499985
 11
-136.500000
 21
18.499985
  0
LINE
  8
0
 10
-125.000000
 20
63.500000
 11
-125.000000
 21
16.499985
  0
LINE
  8
0
 10
-136.500000
 20
54.499985
 11
-140.000000
 21
54.499985
  0
LINE
  8
0
 10
-136.500000
 20
61.499985
 11
-136.500000
 21
54.499985
  0
LINE
  8
0
 10
-136.000000
 20
60.999985
 11
-136.000000
 21
54.999985
  0
LINE
  8
0
 10
-136.499863
 20
54.499897
 11
-135.999863
 21
54.999897
  0
LINE
  8
0
 10
-136.000107
 20
60.999920
 11
-136.500092
 21
61.499901
  0
LINE
  8
0
 10
-141.000000
 20
16.499985
 11
-141.000000
 21
63.500000
  0
LINE
  8
0
 10
-140.199997
 20
17.999985
 11
-140.199997
 21
25.999985
  0
LINE
  8
0
 10
-140.199997
 20
17.999985
 11
-141.000000
 21
17.999985
  0
LINE
  8
0
 10
-140.199997
 20
25.999985
 11
-141.000000
 21
25.999985
  0
LINE
  8
0
 10
-140.199997
 20
62.000000
 11
-141.000000
 21
62.000000
  0
LINE
  8
0
 10
-140.199997
 20
54.000000
 11
-141.000000
 21
54.000000
  0
LINE
  8
0
 10
-140.199997
 20
62.000000
 11
-140.199997
 21
54.000000
  0
LINE
  8
0
 10
-137.799988
 20
36.499992
 11
-137.799988
 21
43.499992
  0
LINE
  8
0
 10
-134.500000
 20
38.499992
 11
-134.500000
 21
41.499992
  0
LINE
  8
0
 10
-137.500000
 20
41.499992
 11
-137.500000
 21
41.999992
  0
LINE
  8
0
 10
-137.500000
 20
41.999992
 11
-137.799988
 21
41.999992
  0
LINE
  8
0
 10
-140.199997
 20
62.000000
 11
-141.000000
 21
62.000000
  0
LINE
  8
0
 62
     2
 10
-133.500015
 20
57.309357
 11
-131.500000
 21
56.154655
  0
LINE
  8
0
 62
     2
 10
-135.500015
 20
56.154762
 11
-133.500031
 21
57.309456
  0
LINE
  8
0
 62
     2
 10
-135.500031
 20
53.845226
 11
-133.500015
 21
52.690525
  0
LINE
  8
0
 62
     2
 10
-133.500031
 20
52.690659
 11
-131.500031
 21
53.845360
  0
LINE
  8
0
 62
     2
 10
-131.500000
 20
53.845299
 11
-131.500000
 21
56.154694
  0
LINE
  8
0
 62
     2
 10
-135.500000
 20
53.845299
 11
-135.500000
 21
56.154701
  0
LINE
  8
0
 10
-136.500000
 20
61.500000
 11
-140.000000
 21
61.500000
  0
LINE
  8
0
 10
-137.799988
 20
36.499992
 11
-141.000000
 21
36.499992
  0
LINE
  8
0
 10
-137.799988
 20
43.499992
 11
-141.000000
 21
43.499992
  0
LINE
  8
0
 10
-134.500000
 20
41.499992
 11
-137.500000
 21
41.499992
  0
LINE
  8
0
 10
-134.500000
 20
38.499992
 11
-137.500000
 21
38.499992
  0
LINE
  8
0
 10
-137.500000
 20
38.499992
 11
-137.500000
 21
37.999992
  0
LINE
  8
0
 10
-137.500000
 20
37.999992
 11
-137.799988
 21
37.999992
  0
LINE
  8
0
 10
-146.000000
 20
16.499985
 11
-125.000000
 21
16.499985
  0
LINE
  8
0
 10
-136.000000
 20
19.023808
 11
-126.000000
 21
19.023808
  0
LINE
  8
0
 10
-136.000000
 20
60.976173
 11
-126.000000
 21
60.976173
  0
LINE
  8
0
 10
-146.000000
 20
63.500000
 11
-125.000000
 21
63.500000
  0
LINE
  8
0
 10
-141.000000
 20
39.999992
 11
-138.202805
 21
39.999992
  0
LINE
  8
0
 10
-145.500000
 20
15.649986
 11
-145.500000
 21
12.049988
  0
LINE
  8
0
 10
-145.500000
 20
13.049984
 11
-146.000000
 21
13.049984
  0
LINE
  8
0
 10
-145.000000
 20
11.199986
 11
-145.000000
 21
16.499985
  0
LINE
  8
0
 10
-145.500000
 20
14.649982
 11
-146.000000
 21
14.649982
  0
LINE
  8
0
 10
-145.000000
 20
15.649982
 11
-145.500000
 21
15.649982
  0
LINE
  8
0
 10
-145.000000
 20
12.049984
 11
-145.500000
 21
12.049984
  0
LINE
  8
0
 10
-130.000000
 20
12.849983
 11
-124.500000
 21
12.849983
  0
LINE
  8
0
 62
     2
 10
-123.499992
 20
2.927415
 11
-121.499992
 21
3.463314
  0
LINE
  8
0
 10
-130.000000
 20
14.849983
 11
-124.500000
 21
14.849983
  0
LINE
  8
0
 10
-123.500000
 20
11.849983
 11
-123.500000
 21
2.927433
  0
LINE
  8
0
 10
-130.000000
 20
16.499985
 11
-130.000000
 21
11.199986
  0
LINE
  8
0
 10
-121.500000
 20
11.849983
 11
-121.500000
 21
3.463329
  0
LINE
  8
0
 10
-145.000000
 20
11.199986
 11
-130.000000
 21
11.199986
  0
LINE
  8
0
 10
-126.000000
 20
19.023808
 11
-126.000000
 21
60.976173
  0
LINE
  8
0
 62
     2
 10
-133.500046
 20
22.690680
 11
-131.500046
 21
23.845381
  0
LINE
  8
0
 62
     2
 10
-135.500031
 20
23.845215
 11
-133.500031
 21
22.690514
  0
LINE
  8
0
 62
     2
 10
-135.500000
 20
23.845299
 11
-135.500000
 21
26.154701
  0
LINE
  8
0
 62
     2
 10
-135.500031
 20
26.154772
 11
-133.500046
 21
27.309465
  0
LINE
  8
0
 62
     2
 10
-133.500015
 20
27.309345
 11
-131.500000
 21
26.154638
  0
LINE
  8
0
 62
     2
 10
-131.500000
 20
23.845299
 11
-131.500000
 21
26.154694
  0
LINE
  8
0
 10
-146.000000
 20
89.999992
 11
-146.000000
 21
-10.000008
  0
LINE
  8
0
 10
-146.000000
 20
-10.000008
 11
-153.000000
 21
-10.000008
  0
LINE
  8
0
 10
-153.000000
 20
89.999992
 11
-153.000000
 21
-10.000008
  0
LINE
  8
0
 10
-146.000000
 20
89.999992
 11
-153.000000
 21
89.999992
  0
LINE
  8
0
 10
-140.399994
 20
8.899986
 11
-136.399994
 21
8.899986
  0
LINE
  8
0
 10
-136.399994
 20
11.199986
 11
-136.399994
 21
8.899986
  0
LINE
  8
0
 10
-140.399994
 20
11.199986
 11
-140.399994
 21
8.899986
  0
LINE
  8
0
 62
     2
 10
124.589821
 20
39.999992
 11
119.355309
 21
39.999992
  0
LINE
  8
0
 10
132.500000
 20
15.649986
 11
132.500000
 21
12.049988
  0
LINE
  8
0
 10
132.500000
 20
13.049984
 11
133.000000
 21
13.049984
  0
LINE
  8
0
 10
132.000000
 20
11.199986
 11
132.000000
 21
16.499985
  0
LINE
  8
0
 10
132.500000
 20
14.649982
 11
133.000000
 21
14.649982
  0
LINE
  8
0
 10
132.000000
 20
15.649982
 11
132.500000
 21
15.649982
  0
LINE
  8
0
 10
132.000000
 20
12.049984
 11
132.500000
 21
12.049984
  0
LINE
  8
0
 10
117.000000
 20
12.849983
 11
111.500000
 21
12.849983
  0
LINE
  8
0
 62
     2
 10
110.499992
 20
2.927416
 11
108.499992
 21
3.463313
  0
LINE
  8
0
  6
CENTER
 62
     2
 10
106.889999
 20
39.999992
 11
145.072113
 21
39.999992
  0
LINE
  8
0
 10
117.000000
 20
14.849983
 11
111.500000
 21
14.849983
  0
LINE
  8
0
 10
110.500000
 20
11.849983
 11
110.500000
 21
2.927433
  0
LINE
  8
0
 10
117.000000
 20
16.499985
 11
117.000000
 21
11.199986
  0
LINE
  8
0
 10
108.500000
 20
11.849983
 11
108.500000
 21
3.463329
  0
LINE
  8
0
 10
123.699997
 20
18.499985
 11
127.199997
 21
18.499985
  0
LINE
  8
0
 10
123.699997
 20
25.499985
 11
123.699997
 21
18.499985
  0
LINE
  8
0
 10
123.199997
 20
24.999985
 11
123.199997
 21
18.999985
  0
LINE
  8
0
 10
127.199997
 20
17.999985
 11
127.199997
 21
25.999985
  0
LINE
  8
0
 10
123.699997
 20
25.499985
 11
127.199997
 21
25.499985
  0
LINE
  8
0
 10
123.699951
 20
18.499928
 11
123.199951
 21
18.999928
  0
LINE
  8
0
 10
123.200058
 20
24.999958
 11
123.700050
 21
25.499947
  0
LINE
  8
0
 10
123.200058
 20
60.999958
 11
123.700050
 21
61.499947
  0
LINE
  8
0
 10
123.699997
 20
61.499985
 11
127.199997
 21
61.499985
  0
LINE
  8
0
 10
132.000000
 20
11.199986
 11
117.000000
 21
11.199986
  0
LINE
  8
0
 10
123.699997
 20
54.499985
 11
127.199997
 21
54.499985
  0
LINE
  8
0
 10
123.699997
 20
61.499985
 11
123.699997
 21
54.499985
  0
LINE
  8
0
 10
123.199997
 20
60.999985
 11
123.199997
 21
54.999985
  0
LINE
  8
0
 10
123.699951
 20
54.499920
 11
123.199951
 21
54.999920
  0
LINE
  8
0
 62
     2
 10
125.589821
 20
39.999992
 11
120.355309
 21
39.999992
  0
LINE
  8
0
 62
     2
 10
119.589821
 20
39.999992
 11
114.355309
 21
39.999992
  0
LINE
  8
0
 62
     2
 10
118.589821
 20
39.999992
 11
113.355309
 21
39.999992
  0
LINE
  8
0
 10
127.199997
 20
17.999985
 11
128.000000
 21
17.999985
  0
LINE
  8
0
 10
127.199997
 20
25.999985
 11
128.000000
 21
25.999985
  0
LINE
  8
0
 10
127.199997
 20
62.000000
 11
128.000000
 21
62.000000
  0
LINE
  8
0
 10
127.199997
 20
62.000000
 11
127.199997
 21
54.000000
  0
LINE
  8
0
 10
127.199997
 20
54.000000
 11
128.000000
 21
54.000000
  0
LINE
  8
0
  6
CENTER
 62
     2
 10
116.809029
 20
31.999992
 11
122.975983
 21
31.999992
  0
LINE
  8
0
  6
CENTER
 62
     2
 10
120.000000
 20
44.001762
 11
120.000000
 21
36.472736
  0
LINE
  8
0
 10
128.000000
 20
53.000000
 11
128.000000
 21
63.500000
  0
LINE
  8
0
 10
112.000000
 20
16.499985
 11
133.000000
 21
16.499985
  0
LINE
  8
0
 10
112.000000
 20
28.115128
 11
133.000000
 21
28.115128
  0
LINE
  8
0
 10
112.000000
 20
63.500000
 11
133.000000
 21
63.500000
  0
LINE
  8
0
 10
112.000000
 20
53.000000
 11
128.000000
 21
53.000000
  0
LINE
  8
0
 10
112.000000
 20
51.884857
 11
133.000000
 21
51.884857
  0
LINE
  8
0
 10
112.000000
 20
26.999985
 11
128.000000
 21
26.999985
  0
LINE
  8
0
 10
128.000000
 20
26.999985
 11
128.000000
 21
16.499985
  0
LINE
  8
0
 10
112.000000
 20
63.500000
 11
112.000000
 21
16.499985
  0
LINE
  8
0
 10
133.000000
 20
89.999992
 11
133.000000
 21
-10.000008
  0
LINE
  8
0
 10
133.000000
 20
-10.000008
 11
140.000000
 21
-10.000008
  0
LINE
  8
0
 10
133.000000
 20
89.999992
 11
140.000000
 21
89.999992
  0
LINE
  8
0
 10
140.000000
 20
89.999992
 11
140.000000
 21
-10.000008
  0
LINE
  8
0
 10
127.400002
 20
8.899986
 11
123.400002
 21
8.899986
  0
LINE
  8
0
 10
127.400002
 20
11.199986
 11
127.400002
 21
8.899986
  0
LINE
  8
0
 10
123.400002
 20
11.199986
 11
123.400002
 21
8.899986
  0
LINE
  8
0
  6
CENTER
 62
     2
 10
120.000000
 20
34.941406
 11
120.000000
 21
29.454153
  0
LINE
  8
0
  6
CENTER
 62
     2
 10
116.809029
 20
47.999992
 11
122.975983
 21
47.999992
  0
LINE
  8
0
  6
CENTER
 62
     2
 10
120.000000
 20
45.058575
 11
120.000000
 21
50.545830
  0
LINE
  8
0
  6
CENTER
 62
     2
 10
-8.000000
 20
-64.750008
 11
-8.000000
 21
-106.400017
  0
LINE
  8
0
 10
-7.849998
 20
-77.400002
 11
4.849998
 21
-77.400002
  0
LINE
  8
0
 10
-0.500008
 20
-68.000008
 11
-0.500008
 21
-77.400002
  0
LINE
  8
0
 10
-2.500008
 20
-68.000008
 11
-2.500008
 21
-77.400002
  0
LINE
  8
0
 10
0.999992
 20
-68.000008
 11
0.999992
 21
-77.400002
  0
LINE
  8
0
 10
-4.250004
 20
-68.000008
 11
-4.250004
 21
-77.400002
  0
LINE
  8
0
 10
2.999992
 20
-68.000008
 11
2.999992
 21
-77.400002
  0
LINE
  8
0
 10
-6.250004
 20
-68.000008
 11
-6.250004
 21
-77.400002
  0
LINE
  8
0
 62
     2
 10
1.600014
 20
-86.995842
 11
1.600014
 21
-87.804131
  0
LINE
  8
0
 62
     2
 10
0.899952
 20
-86.591881
 11
1.599950
 21
-86.996025
  0
LINE
  8
0
 62
     2
 10
0.200024
 20
-86.995834
 11
0.900023
 21
-86.591690
  0
LINE
  8
0
 62
     2
 10
0.200020
 20
-87.804146
 11
0.200020
 21
-86.995857
  0
LINE
  8
0
 62
     2
 10
0.899968
 20
-88.208389
 11
0.199970
 21
-87.804245
  0
LINE
  8
0
 62
     2
 10
1.599973
 20
-87.804123
 11
0.899974
 21
-88.208267
  0
LINE
  8
0
 62
     2
 10
-3.900036
 20
-88.208344
 11
-4.600035
 21
-87.804199
  0
LINE
  8
0
 62
     2
 10
-3.200013
 20
-87.804138
 11
-3.900012
 21
-88.208282
  0
LINE
  8
0
 62
     2
 10
-3.199989
 20
-86.995857
 11
-3.199989
 21
-87.804146
  0
LINE
  8
0
 62
     2
 10
-3.900056
 20
-86.591888
 11
-3.200058
 21
-86.996033
  0
LINE
  8
0
 62
     2
 10
-4.599979
 20
-86.995842
 11
-3.899981
 21
-86.591698
  0
LINE
  8
0
 62
     2
 10
-4.599979
 20
-87.804146
 11
-4.599979
 21
-86.995857
  0
LINE
  8
0
 10
4.849998
 20
-77.400002
 11
4.849998
 21
-94.000008
  0
LINE
  8
0
 10
-7.849991
 20
-77.400002
 11
-7.849991
 21
-94.000008
  0
LINE
  8
0
 10
-22.500000
 20
-85.700012
 11
-22.500000
 21
-89.200012
  0
LINE
  8
0
 10
-29.500000
 20
-85.700012
 11
-29.500000
 21
-89.200012
  0
LINE
  8
0
 10
-23.000000
 20
-85.200005
 11
-29.000000
 21
-85.200005
  0
LINE
  8
0
 10
-29.500015
 20
-85.700005
 11
-29.000015
 21
-85.200005
  0
LINE
  8
0
 10
-23.000067
 20
-85.200142
 11
-22.500082
 21
-85.700127
  0
LINE
  8
0
 10
-22.500000
 20
-85.700005
 11
-29.500000
 21
-85.700005
  0
LINE
  8
0
 10
-4.250004
 20
-74.000008
 11
-2.500008
 21
-74.000008
  0
LINE
  8
0
 10
-0.500008
 20
-74.000008
 11
0.999992
 21
-74.000008
  0
LINE
  8
0
 10
2.999992
 20
-74.000008
 11
19.000000
 21
-74.000008
  0
LINE
  8
0
 10
13.500000
 20
-85.700012
 11
13.500000
 21
-89.200012
  0
LINE
  8
0
 10
6.500000
 20
-85.700012
 11
6.500000
 21
-89.200012
  0
LINE
  8
0
 10
13.000000
 20
-85.200005
 11
7.000000
 21
-85.200005
  0
LINE
  8
0
 10
6.499960
 20
-85.699982
 11
6.999961
 21
-85.199982
  0
LINE
  8
0
 10
12.999927
 20
-85.200111
 11
13.499918
 21
-85.700096
  0
LINE
  8
0
 10
-30.000000
 20
-89.200005
 11
-22.000000
 21
-89.200005
  0
LINE
  8
0
 10
-37.500000
 20
-90.000008
 11
-37.500000
 21
-95.000008
  0
LINE
  8
0
 10
-37.500000
 20
-90.000008
 11
-8.000000
 21
-90.000008
  0
LINE
  8
0
 10
19.000000
 20
-90.000008
 11
4.849998
 21
-90.000008
  0
LINE
  8
0
 10
-30.000000
 20
-89.200005
 11
-30.000000
 21
-90.000008
  0
LINE
  8
0
 10
-22.000000
 20
-89.200005
 11
-22.000000
 21
-90.000008
  0
LINE
  8
0
 10
14.000000
 20
-89.200005
 11
14.000000
 21
-90.000008
  0
LINE
  8
0
 10
14.000000
 20
-89.200005
 11
6.000000
 21
-89.200005
  0
LINE
  8
0
 10
6.000000
 20
-89.200005
 11
6.000000
 21
-90.000008
  0
LINE
  8
0
 10
-22.500000
 20
-86.499992
 11
-22.500000
 21
-78.500038
  0
LINE
  8
0
 10
-21.500000
 20
-77.500038
 11
-21.500000
 21
-87.500008
  0
LINE
  8
0
 10
-21.500000
 20
-87.500008
 11
-19.999542
 21
-87.500008
  0
LINE
  8
0
 10
-22.499916
 20
-86.499947
 11
-21.499912
 21
-87.499947
  0
LINE
  8
0
 10
-9.000000
 20
-74.500008
 11
-9.000000
 21
-90.000008
  0
LINE
  8
0
 10
9.832542
 20
-90.000008
 11
9.832542
 21
-95.000008
  0
LINE
  8
0
 10
5.000000
 20
-74.000008
 11
5.000000
 21
-90.000008
  0
LINE
  8
0
 10
19.000000
 20
-74.000008
 11
19.000000
 21
-95.000008
  0
LINE
  8
0
 10
-29.000000
 20
-74.500008
 11
-29.000000
 21
-85.200005
  0
LINE
  8
0
 10
-6.250004
 20
-74.000008
 11
-8.000000
 21
-74.000008
  0
LINE
  8
0
 10
-8.000000
 20
-90.000008
 11
-8.000000
 21
-74.000008
  0
LINE
  8
0
 10
9.832542
 20
-90.000008
 11
9.832542
 21
-95.000008
  0
LINE
  8
0
 10
-25.832542
 20
-90.000008
 11
-25.832542
 21
-95.000008
  0
LINE
  8
0
 10
-7.849998
 20
-94.000008
 11
4.849998
 21
-94.000008
  0
LINE
  8
0
 10
-0.900002
 20
-94.000008
 11
-0.900002
 21
-94.500008
  0
LINE
  8
0
 10
2.699997
 20
-94.500008
 11
-0.900002
 21
-94.500008
  0
LINE
  8
0
 10
2.699997
 20
-94.000008
 11
2.699997
 21
-94.500008
  0
LINE
  8
0
 10
1.699997
 20
-94.500008
 11
1.699997
 21
-95.000008
  0
LINE
  8
0
 10
0.099998
 20
-94.500008
 11
0.099998
 21
-95.000008
  0
LINE
  8
0
 10
-21.500000
 20
-77.500008
 11
-20.000534
 21
-77.500008
  0
LINE
  8
0
 10
-22.499960
 20
-78.500000
 11
-21.499958
 21
-77.500000
  0
LINE
  8
0
 10
-29.000000
 20
-74.500008
 11
-9.000000
 21
-74.500008
  0
LINE
  8
0
 10
-58.000000
 20
-95.000008
 11
42.000000
 21
-95.000008
  0
LINE
  8
0
 10
42.000000
 20
-94.999992
 11
42.000000
 21
-102.000008
  0
LINE
  8
0
 10
-58.000000
 20
-95.000008
 11
-58.000000
 21
-102.000008
  0
LINE
  8
0
 10
-58.000000
 20
-102.000008
 11
42.000000
 21
-102.000008
  0
LINE
  8
0
 10
6.500000
 20
-85.700005
 11
13.500000
 21
-85.700005
  0
ARC
  8
0
 10
-8.000000
 20
39.999992
 40
17.000000
 50
93.372307
 51
266.627686
  0
ARC
  8
0
 10
-4.999996
 20
14.199997
 40
1.000000
 50
0.000000
 51
180.000000
  0
ARC
  8
0
 10
-1.499996
 20
14.199997
 40
1.000000
 50
0.000000
 51
180.000000
  0
ARC
  8
0
 10
2.000004
 20
14.199997
 40
1.000000
 50
0.000000
 51
180.000000
  0
CIRCLE
  8
0
 10
-34.000008
 20
39.999992
 40
2.000000
  0
CIRCLE
  8
0
 62
     2
 10
-34.000008
 20
39.999992
 40
1.120000
  0
CIRCLE
  8
0
 10
-34.000008
 20
39.999992
 40
3.500000
  0
CIRCLE
  8
0
 10
-8.000000
 20
39.999992
 40
6.500000
  0
ARC
  8
0
 10
-8.000008
 20
39.999992
 40
29.499998
 50
181.875046
 51
232.807587
  0
ARC
  8
0
 10
-8.000008
 20
39.999992
 40
29.500002
 50
23.758110
 51
52.807610
  0
ARC
  8
0
 10
-8.000000
 20
40.000000
 40
29.500000
 50
307.192383
 51
336.241852
  0
ARC
  8
0
 10
10.000000
 20
21.999992
 40
5.000000
 50
89.999977
 51
179.999954
  0
CIRCLE
  8
0
 10
10.000000
 20
21.999992
 40
4.000000
  0
ARC
  8
0
 10
10.000000
 20
57.999992
 40
5.000000
 50
180.000000
 51
270.000031
  0
CIRCLE
  8
0
 10
10.000000
 20
57.999992
 40
4.000000
  0
ARC
  8
0
 10
-8.000008
 20
39.999992
 40
29.500002
 50
127.192406
 51
178.124939
  0
CIRCLE
  8
0
 10
-26.000000
 20
21.999992
 40
4.000000
  0
CIRCLE
  8
0
 10
-26.000000
 20
57.999992
 40
4.000000
  0
CIRCLE
  8
0
 10
-7.999985
 20
7.499992
 40
2.000000
  0
CIRCLE
  8
0
 10
-50.500000
 20
82.499992
 40
2.750000
  0
CIRCLE
  8
0
 10
-50.500000
 20
82.499992
 40
4.750000
  0
CIRCLE
  8
0
 10
-40.500000
 20
72.499992
 40
4.000000
  0
CIRCLE
  8
0
 10
-40.500000
 20
72.499985
 40
2.250000
  0
CIRCLE
  8
0
 10
-7.999985
 20
82.499992
 40
2.000000
  0
CIRCLE
  8
0
 10
-7.999985
 20
72.499992
 40
2.000000
  0
CIRCLE
  8
0
 10
24.500000
 20
72.499992
 40
4.000000
  0
CIRCLE
  8
0
 10
24.500000
 20
72.499985
 40
2.250000
  0
CIRCLE
  8
0
 10
34.500000
 20
82.499992
 40
4.750000
  0
CIRCLE
  8
0
 10
34.500000
 20
82.499992
 40
2.750000
  0
CIRCLE
  8
0
 10
-50.500000
 20
40.000008
 40
2.000000
  0
CIRCLE
  8
0
 10
-40.500000
 20
39.999992
 40
2.000000
  0
CIRCLE
  8
0
 10
24.500000
 20
39.999985
 40
2.000000
  0
CIRCLE
  8
0
 10
34.500000
 20
39.999969
 40
2.000000
  0
CIRCLE
  8
0
 10
34.500000
 20
-2.500008
 40
4.750000
  0
CIRCLE
  8
0
 10
34.500000
 20
-2.500008
 40
2.750000
  0
CIRCLE
  8
0
 10
24.500000
 20
7.499992
 40
4.000000
  0
CIRCLE
  8
0
 10
24.500000
 20
7.500000
 40
2.250000
  0
CIRCLE
  8
0
 10
-8.000015
 20
-2.500008
 40
2.000000
  0
CIRCLE
  8
0
 10
-7.999985
 20
7.499992
 40
2.000000
  0
CIRCLE
  8
0
 10
-40.500000
 20
7.499992
 40
4.000000
  0
CIRCLE
  8
0
 10
-40.500000
 20
7.500000
 40
2.250000
  0
CIRCLE
  8
0
 10
-50.500000
 20
-2.500008
 40
4.750000
  0
CIRCLE
  8
0
 10
-50.500000
 20
-2.500008
 40
2.750000
  0
ARC
  8
0
 10
-133.500000
 20
55.000000
 40
5.499994
 50
185.216080
 51
117.035690
  0
ARC
  8
0
 10
-133.500000
 20
55.000000
 40
4.999994
 50
185.739349
 51
120.000015
  0
ARC
  8
0
 10
-141.802750
 20
38.249992
 40
4.002762
 50
334.074768
 51
25.925245
  0
ARC
  8
0
 10
-141.802750
 20
41.749992
 40
4.002762
 50
334.074768
 51
25.925245
  0
ARC
  8
0
 10
-124.500000
 20
11.849983
 40
1.000000
 50
359.999939
 51
90.000000
  0
ARC
  8
0
 10
-124.500000
 20
11.849983
 40
3.000000
 50
359.999939
 51
90.000000
  0
ARC
  8
0
 10
-133.500000
 20
25.000000
 40
5.499998
 50
242.964294
 51
174.784271
  0
ARC
  8
0
 10
-133.500000
 20
25.000000
 40
4.999999
 50
240.000000
 51
174.261032
  0
ARC
  8
0
 10
111.500000
 20
11.849983
 40
1.000000
 50
90.000000
 51
180.000000
  0
ARC
  8
0
 10
111.500000
 20
11.849983
 40
3.000000
 50
90.000000
 51
180.000015
  0
CIRCLE
  8
0
 62
     2
 10
120.000000
 20
31.999992
 40
2.000000
  0
CIRCLE
  8
0
 10
120.000000
 20
31.999992
 40
1.400000
  0
CIRCLE
  8
0
 62
     2
 10
120.000000
 20
47.999992
 40
2.000000
  0
CIRCLE
  8
0
 10
120.000000
 20
47.999992
 40
1.400000
  0
CIRCLE
  8
0
 10
120.000000
 20
39.999992
 40
2.500000
  0
CIRCLE
  8
0
 10
120.000000
 20
39.999992
 40
3.000000
  0
CIRCLE
  8
0
 10
-5.250004
 20
-68.000008
 40
1.000000
  0
CIRCLE
  8
0
 10
-1.500008
 20
-68.000008
 40
1.000000
  0
CIRCLE
  8
0
 10
1.999985
 20
-68.000008
 40
1.000000
  0
CIRCLE
  8
0
 10
-5.250004
 20
-68.000008
 40
0.500000
  0
CIRCLE
  8
0
 10
-1.500008
 20
-68.000008
 40
0.500000
  0
CIRCLE
  8
0
 10
1.999985
 20
-68.000008
 40
0.500000
  0
CIRCLE
  8
0
 10
-3.900002
 20
-87.400002
 40
2.000000
  0
CIRCLE
  8
0
 10
0.900002
 20
-87.400002
 40
2.000000
  0
ARC
  8
0
 10
-22.500000
 20
-81.641273
 40
6.358734
 50
270.000031
 51
316.288422
  0
ARC
  8
0
 10
-21.801380
 20
-82.428619
 40
5.310376
 50
317.220123
 51
348.855042
  0
ARC
  8
0
 10
-21.548946
 20
-82.500008
 40
5.048947
 50
349.096191
 51
10.903813
  0
ARC
  8
0
 10
-21.801380
 20
-82.571396
 40
5.310375
 50
11.144944
 51
42.779881
  0
ARC
  8
0
 10
-22.500000
 20
-83.358742
 40
6.358734
 50
43.711575
 51
136.288422
  0
ARC
  8
0
 10
-23.198620
 20
-82.571396
 40
5.310376
 50
137.220123
 51
168.855057
  0
ARC
  8
0
 10
-23.451054
 20
-82.500008
 40
5.048947
 50
169.096191
 51
190.903809
  0
ARC
  8
0
 10
-23.198620
 20
-82.428619
 40
5.310375
 50
191.144943
 51
211.467224
  0
TEXT
  8
0
 10
115.907150
 20
122.050003
 40
4.500000
  1
DATE : AUG ,1994
 50
0.000000
 41
1.052631
 51
0.000000
  7
STANDARD
  0
TEXT
  8
0
 10
113.700279
 20
-130.669998
 40
6.300000
  1
KOGANEI CORP.
 50
0.000000
 41
1.052632
 51
0.000000
  7
STANDARD
  0
TEXT
  8
0
 10
-185.892654
 20
122.050003
 40
4.500000
  1
HANDLING MODULE
 50
0.000000
 41
1.052632
 51
0.000000
  7
STANDARD
  0
TEXT
  8
0
 10
-186.892654
 20
104.550003
 40
4.500000
  1
MODEL:SHM11L-13
 50
0.000000
 41
1.052632
 51
0.000000
  7
STANDARD
  0
ENDSEC
  0
EOF
