  0
SECTION
  2
HEADER
  0
ENDSEC
  0
SECTION
  2
TABLES
  0
TABLE
  2
LTYPE
 70
     4
  0
LTYPE
  2
CONTINUOUS
 70
    64
  3
Solid line
 72
    65
 73
     0
 40
0.000000
  0
LTYPE
  2
DASHED
 70
    64
  3
__ __ __ __ __ __ __ __ __ __ __ __ __ __ __
 72
    65
 73
     2
 40
3.500000
 49
2.000000
 49
-1.500000
  0
LTYPE
  2
CENTER
 70
    64
  3
____ _ ____ _ ____ _ ____ _ ____ _ ____ _ ____
 72
    65
 73
     4
 40
17.500000
 49
13.000000
 49
-1.500000
 49
1.500000
 49
-1.500000
  0
LTYPE
  2
PHANTOM
 70
    64
  3
_____ _ _ _____ _ _ _____ _ _ _____ _ _ ____  
 72
    65
 73
     6
 40
15.500000
 49
8.000000
 49
-1.500000
 49
1.500000
 49
-1.500000
 49
1.500000
 49
-1.500000
  0
LTYPE
  2
DASHED1
 70
    64
  3
__ __ __ __ __ __ __ __ __ __ __ __ __ __ __
 72
    65
 73
     2
 40
1.500000
 49
1.000000
 49
-0.500000
  0
LTYPE
  2
DASHED2
 70
    64
  3
__ __ __ __ __ __ __ __ __ __ __ __ __ __ __
 72
    65
 73
     2
 40
3.500000
 49
2.500000
 49
-1.000000
  0
LTYPE
  2
DASHED3
 70
    64
  3
__ __ __ __ __ __ __ __ __ __ __ __ __ __ __
 72
    65
 73
     2
 40
6.000000
 49
4.000000
 49
-2.000000
  0
LTYPE
  2
DASHED4
 70
    64
  3
__ __ __ __ __ __ __ __ __ __ __ __ __ __ __
 72
    65
 73
     2
 40
12.000000
 49
10.000000
 49
-2.000000
  0
LTYPE
  2
DASHED5
 70
    64
  3
__ __ __ __ __ __ __ __ __ __ __ __ __ __ __
 72
    65
 73
     2
 40
17.000000
 49
15.000000
 49
-2.000000
  0
LTYPE
  2
DASHED6
 70
    64
  3
__ __ __ __ __ __ __ __ __ __ __ __ __ __ __
 72
    65
 73
     2
 40
29.000000
 49
27.000000
 49
-2.000000
  0
LTYPE
  2
PHANTOM1
 70
    64
  3
_____ _ _ _____ _ _ _____ _ _ _____ _ _ ____  
 72
    65
 73
     6
 40
31.000000
 49
25.000000
 49
-1.500000
 49
1.000000
 49
-1.000000
 49
1.000000
 49
-1.500000
  0
LTYPE
  2
PHANTOM2
 70
    64
  3
_____ _ _ _____ _ _ _____ _ _ _____ _ _ ____  
 72
    65
 73
     6
 40
36.000000
 49
27.000000
 49
-1.500000
 49
2.500000
 49
-1.000000
 49
2.500000
 49
-1.500000
  0
LTYPE
  2
PHANTOM3
 70
    64
  3
_____ _ _ _____ _ _ _____ _ _ _____ _ _ ____  
 72
    65
 73
     6
 40
78.000000
 49
64.000000
 49
-2.000000
 49
4.000000
 49
-2.000000
 49
4.000000
 49
-2.000000
  0
LTYPE
  2
CENTER1
 70
    64
  3
____ _ ____ _ ____ _ ____ _ ____ _ ____ _ ____
 72
    65
 73
     4
 40
19.000000
 49
14.000000
 49
-1.000000
 49
3.000000
 49
-1.000000
  0
LTYPE
  2
CENTER2
 70
    64
  3
____ _ ____ _ ____ _ ____ _ ____ _ ____ _ ____
 72
    65
 73
     4
 40
28.500000
 49
25.000000
 49
-1.000000
 49
1.500000
 49
-1.000000
  0
LTYPE
  2
CENTER3
 70
    64
  3
____ _ ____ _ ____ _ ____ _ ____ _ ____ _ ____
 72
    65
 73
     4
 40
31.500000
 49
27.000000
 49
-1.000000
 49
2.500000
 49
-1.000000
  0
LTYPE
  2
CENTER4
 70
    64
  3
____ _ ____ _ ____ _ ____ _ ____ _ ____ _ ____
 72
    65
 73
     4
 40
50.000000
 49
45.000000
 49
-1.000000
 49
3.000000
 49
-1.000000
  0
LTYPE
  2
CENTER5
 70
    64
  3
____ _ ____ _ ____ _ ____ _ ____ _ ____ _ ____
 72
    65
 73
     4
 40
100.000000
 49
92.000000
 49
-2.000000
 49
4.000000
 49
-2.000000
  0
LTYPE
  2
SBK1
 70
    64
  3
______ _ _ _ ______ _ _ _ ______ _ _ _ _____  
 72
    65
 73
     8
 40
60.500000
 49
45.000000
 49
-2.000000
 49
2.500000
 49
-2.000000
 49
2.500000
 49
-2.000000
 49
2.500000
 49
-2.000000
  0
LTYPE
  2
SBK2
 70
    64
  3
______ _ _ _ ______ _ _ _ ______ _ _ _ _____  
 72
    65
 73
     8
 40
84.000000
 49
64.000000
 49
-2.000000
 49
4.000000
 49
-2.000000
 49
4.000000
 49
-2.000000
 49
4.000000
 49
-2.000000
  0
LTYPE
  2
STCH
 70
    64
  3
__ __ __ __ __ __ __ __ __ __ __ __ __ __ __
 72
    65
 73
     2
 40
3.000000
 49
1.000000
 49
-2.000000
  0
LTYPE
  2
MTCH
 70
    64
  3
_____ _ _ _____ _ _ _____ _ _ _____ _ _ ____  
 72
    65
 73
     6
 40
80.000000
 49
66.000000
 49
-2.000000
 49
4.000000
 49
-2.000000
 49
4.000000
 49
-2.000000
  0
ENDTAB
  0
TABLE
  2
LAYER
 70
     1
  0
LAYER
  2
0
 70
     0
 62
     7
  6
CONTINUOUS
  0
ENDTAB
  0
TABLE
  2
STYLE
 70
     1
  0
STYLE
  2
STANDARD
 70
     0
 40
0.000000
 41
1.000000
 50
0.000000
 71
     0
 42
0.200000
  3
txt
  4
BIGFONT
  0
ENDTAB
  0
TABLE
  2
VIEW
 70
     0
  0
ENDTAB
  0
ENDSEC
  0
SECTION
  2
BLOCKS
  0
ENDSEC
  0
SECTION
  2
ENTITIES
  0
LINE
  8
0
 10
-31.999989
 20
5.000000
 11
-27.000000
 21
5.000000
  0
LINE
  8
0
  6
CENTER
 62
     2
 10
-53.513729
 20
69.999992
 11
-23.295448
 21
69.999992
  0
LINE
  8
0
 10
-31.999992
 20
88.000031
 11
-31.999992
 21
-58.000031
  0
LINE
  8
0
 10
-31.999989
 20
-52.500015
 11
-27.000000
 21
-52.500015
  0
LINE
  8
0
 10
-31.999989
 20
-27.500011
 11
-27.000000
 21
-27.500011
  0
LINE
  8
0
 10
-49.000027
 20
89.000008
 11
-33.000015
 21
89.000008
  0
LINE
  8
0
 10
-49.000027
 20
-59.000000
 11
-33.000015
 21
-59.000000
  0
LINE
  8
0
 10
-49.999996
 20
87.999977
 11
-49.999996
 21
-58.000031
  0
LINE
  8
0
 10
-31.999989
 20
25.000000
 11
-27.000000
 21
25.000000
  0
LINE
  8
0
 10
-31.999989
 20
10.641098
 11
-30.000046
 21
10.641098
  0
LINE
  8
0
 10
-29.999996
 20
10.641087
 11
-29.999996
 21
19.358921
  0
LINE
  8
0
 10
-31.999992
 20
16.452950
 11
-29.999996
 21
10.641107
  0
LINE
  8
0
 10
-30.000000
 20
19.359058
 11
-32.000061
 21
13.547019
  0
LINE
  8
0
  6
CENTER
 62
     2
 10
-52.952763
 20
-40.000000
 11
-24.623863
 21
-40.000000
  0
LINE
  8
0
 10
-49.000103
 20
89.000099
 11
-50.000103
 21
88.000107
  0
LINE
  8
0
 10
-32.999985
 20
89.000046
 11
-32.000023
 21
88.000076
  0
LINE
  8
0
 10
-49.999931
 20
-57.999928
 11
-48.999935
 21
-58.999924
  0
LINE
  8
0
 10
-32.000053
 20
-57.999962
 11
-33.000057
 21
-58.999966
  0
LINE
  8
0
 10
-26.499992
 20
89.999985
 11
39.499996
 21
89.999985
  0
LINE
  8
0
 10
-27.000000
 20
25.399998
 11
40.000004
 21
25.399998
  0
LINE
  8
0
 10
-27.000000
 20
28.599987
 11
40.000004
 21
28.599987
  0
LINE
  8
0
 10
-27.000000
 20
87.000015
 11
40.000004
 21
87.000015
  0
LINE
  8
0
  6
CENTER
 62
     2
 10
2.047245
 20
48.000000
 11
19.697208
 21
48.000000
  0
LINE
  8
0
  6
CENTER
 62
     2
 10
11.000011
 20
56.613144
 11
11.000011
 21
39.280861
  0
LINE
  8
0
 10
-27.000000
 20
36.999992
 11
40.000004
 21
36.999992
  0
LINE
  8
0
 10
-27.000000
 20
35.999977
 11
40.000004
 21
35.999977
  0
LINE
  8
0
 10
-27.000000
 20
67.650017
 11
40.000004
 21
67.650017
  0
LINE
  8
0
 10
-27.000000
 20
62.349983
 11
40.000004
 21
62.349983
  0
LINE
  8
0
 10
39.499954
 20
89.999931
 11
39.999950
 21
89.499954
  0
LINE
  8
0
 10
-26.500065
 20
90.000061
 11
-27.000065
 21
89.500076
  0
LINE
  8
0
 10
-31.999989
 20
19.358917
 11
-29.999996
 21
19.358917
  0
LINE
  8
0
  6
DASHED
 62
     2
 10
78.999969
 20
-27.999985
 11
78.999969
 21
-52.000000
  0
LINE
  8
0
  6
DASHED
 62
     2
 10
39.999989
 20
-27.500000
 11
78.499985
 21
-27.500000
  0
LINE
  8
0
  6
DASHED
 62
     2
 10
39.999989
 20
-52.500000
 11
78.499985
 21
-52.500000
  0
LINE
  8
0
  6
DASHED
 62
     2
 10
78.500008
 20
-27.499996
 11
79.000008
 21
-27.999987
  0
LINE
  8
0
  6
DASHED
 62
     2
 10
78.999969
 20
-51.999985
 11
78.499969
 21
-52.499985
  0
LINE
  8
0
  6
DASHED
 62
     2
 10
78.499985
 20
-27.500000
 11
78.499985
 21
-52.500000
  0
LINE
  8
0
  6
DASHED
 62
     2
 10
78.999969
 20
82.000008
 11
78.999969
 21
57.999992
  0
LINE
  8
0
  6
DASHED
 62
     2
 10
39.999989
 20
82.499992
 11
78.499985
 21
82.499992
  0
LINE
  8
0
  6
DASHED
 62
     2
 10
39.999989
 20
57.499992
 11
78.499985
 21
57.499992
  0
LINE
  8
0
  6
DASHED
 62
     2
 10
78.500008
 20
82.500015
 11
79.000000
 21
82.000023
  0
LINE
  8
0
  6
DASHED
 62
     2
 10
78.999977
 20
57.999992
 11
78.499977
 21
57.499992
  0
LINE
  8
0
  6
DASHED
 62
     2
 10
78.499985
 20
82.499992
 11
78.499985
 21
57.499992
  0
LINE
  8
0
  6
CENTER
 62
     2
 10
-53.462940
 20
15.000000
 11
42.621037
 21
15.000000
  0
LINE
  8
0
 10
-31.999989
 20
82.499992
 11
-27.000000
 21
82.499992
  0
LINE
  8
0
 10
-31.999989
 20
57.499992
 11
-27.000000
 21
57.499992
  0
LINE
  8
0
  6
CENTER
 62
     2
 10
-18.999992
 20
56.613144
 11
-18.999992
 21
39.280861
  0
LINE
  8
0
  6
CENTER
 62
     2
 10
-27.952759
 20
48.000000
 11
-10.302799
 21
48.000000
  0
LINE
  8
0
 10
-27.000000
 20
89.500061
 11
-27.000000
 21
-59.499969
  0
LINE
  8
0
 10
-26.499981
 20
-60.000000
 11
39.500004
 21
-60.000000
  0
LINE
  8
0
 10
-26.999989
 20
-56.999992
 11
40.000004
 21
-56.999992
  0
LINE
  8
0
  6
CENTER
 62
     2
 10
1.909008
 20
-18.000008
 11
19.617252
 21
-18.000008
  0
LINE
  8
0
 10
39.999996
 20
89.500015
 11
39.999996
 21
-59.499969
  0
LINE
  8
0
  6
CENTER
 62
     2
 10
-27.952747
 20
-18.000008
 11
-10.302776
 21
-18.000008
  0
LINE
  8
0
  6
CENTER
 62
     2
 10
-18.999969
 20
-9.386814
 11
-18.999969
 21
-26.719143
  0
LINE
  8
0
  6
CENTER
 62
     2
 10
11.000011
 20
-9.386814
 11
11.000011
 21
-27.046181
  0
LINE
  8
0
  6
CENTER
 62
     2
 10
33.791248
 20
-37.499992
 11
17.114132
 21
-37.499992
  0
LINE
  8
0
 10
-26.999989
 20
-6.999992
 11
40.000004
 21
-6.999992
  0
LINE
  8
0
 10
-26.999989
 20
-5.999994
 11
40.000004
 21
-5.999994
  0
LINE
  8
0
 10
-26.999989
 20
1.399994
 11
40.000004
 21
1.399994
  0
LINE
  8
0
 10
-26.999989
 20
4.600002
 11
40.000004
 21
4.600002
  0
LINE
  8
0
  6
DASHED
 62
     2
 10
-1.299748
 20
-58.999798
 11
-0.299769
 21
-59.999779
  0
LINE
  8
0
  6
DASHED
 62
     2
 10
-13.699727
 20
-60.000019
 11
-12.699723
 21
-59.000015
  0
LINE
  8
0
  6
DASHED
 62
     2
 10
-1.299969
 20
-59.000000
 11
-12.699997
 21
-59.000000
  0
LINE
  8
0
  6
DASHED
 62
     2
 10
-12.699986
 20
-55.126099
 11
-12.699986
 21
-58.999962
  0
LINE
  8
0
  6
DASHED
 62
     2
 10
-13.422588
 20
-55.126095
 11
-13.546182
 21
-59.845905
  0
LINE
  8
0
  6
DASHED
 62
     2
 10
-1.299969
 20
-55.126099
 11
-1.299969
 21
-58.999962
  0
LINE
  8
0
  6
DASHED
 62
     2
 10
-0.577734
 20
-55.126102
 11
-0.450106
 21
-60.000004
  0
LINE
  8
0
  6
CENTER
 62
     2
 10
8.999996
 20
-53.970673
 11
8.999996
 21
-61.385651
  0
LINE
  8
0
  6
DASHED
 62
     2
 10
14.700237
 20
-58.999699
 11
15.700218
 21
-59.999680
  0
LINE
  8
0
  6
DASHED
 62
     2
 10
2.300160
 20
-60.000069
 11
3.300159
 21
-59.000072
  0
LINE
  8
0
  6
DASHED
 62
     2
 10
14.700016
 20
-59.000000
 11
3.299992
 21
-59.000000
  0
LINE
  8
0
  6
DASHED
 62
     2
 10
3.299992
 20
-55.126099
 11
3.299992
 21
-58.999962
  0
LINE
  8
0
  6
DASHED
 62
     2
 10
2.577497
 20
-55.126099
 11
2.453903
 21
-59.845955
  0
LINE
  8
0
  6
DASHED
 62
     2
 10
14.700024
 20
-55.126099
 11
14.700024
 21
-58.999962
  0
LINE
  8
0
  6
DASHED
 62
     2
 10
15.422366
 20
-55.126099
 11
15.549994
 21
-60.000023
  0
LINE
  8
0
  6
CENTER
 62
     2
 10
25.000019
 20
-29.321606
 11
25.000019
 21
-47.010498
  0
LINE
  8
0
 10
40.000076
 20
-59.500050
 11
39.500088
 21
-60.000042
  0
LINE
  8
0
 10
-26.999872
 20
-59.499844
 11
-26.499872
 21
-59.999840
  0
LINE
  8
0
  6
CENTER
 62
     2
 10
-6.999977
 20
-53.681816
 11
-6.999977
 21
-61.535706
  0
LINE
  8
0
  6
CENTER
 62
     2
 10
6.194492
 20
-37.499992
 11
-9.216175
 21
-37.499992
  0
LINE
  8
0
  6
CENTER
 62
     2
 10
-1.499966
 20
-29.225319
 11
-1.499966
 21
-46.864952
  0
LINE
  8
0
  6
PHANTOM
 62
     3
 10
1.750000
 20
-51.393753
 11
1.750000
 21
-70.000000
  0
LINE
  8
0
  6
PHANTOM
 62
     3
 10
15.437504
 20
-28.393749
 11
15.437504
 21
-51.393753
  0
LINE
  8
0
  6
PHANTOM
 62
     3
 10
1.750000
 20
-51.393753
 11
15.437504
 21
-51.393753
  0
LINE
  8
0
  6
PHANTOM
 62
     3
 10
0.624996
 20
119.999985
 11
0.624996
 21
-28.393749
  0
LINE
  8
0
  6
PHANTOM
 62
     3
 10
28.343746
 20
107.999985
 11
28.343746
 21
-28.393749
  0
LINE
  8
0
  6
PHANTOM
 62
     3
 10
15.437504
 20
-28.393749
 11
28.343746
 21
-28.393749
  0
LINE
  8
0
  6
PHANTOM
 62
     3
 10
0.624996
 20
-28.393749
 11
7.250004
 21
-28.393749
  0
LINE
  8
0
  6
PHANTOM
 62
     3
 10
7.250004
 20
-28.393749
 11
7.250004
 21
-48.393749
  0
LINE
  8
0
  6
PHANTOM
 62
     3
 10
0.250000
 20
-48.393749
 11
0.250000
 21
-70.000000
  0
LINE
  8
0
  6
PHANTOM
 62
     3
 10
0.250000
 20
-48.393749
 11
7.250004
 21
-48.393749
  0
LINE
  8
0
  6
CENTER
 62
     2
 10
-190.000000
 20
-64.273254
 11
-190.000000
 21
94.999977
  0
LINE
  8
0
 10
-160.000000
 20
89.999977
 11
-220.000000
 21
89.999977
  0
LINE
  8
0
 10
-160.000000
 20
-60.000011
 11
-220.000000
 21
-60.000011
  0
LINE
  8
0
 10
-157.000000
 20
87.000008
 11
-157.000000
 21
67.650009
  0
LINE
  8
0
 10
-160.000107
 20
89.999962
 11
-157.000076
 21
86.999939
  0
LINE
  8
0
 10
-219.999756
 20
89.999878
 11
-222.999741
 21
86.999870
  0
LINE
  8
0
 10
-223.000305
 20
-57.000198
 11
-220.000305
 21
-60.000202
  0
LINE
  8
0
 10
-157.000000
 20
-6.999957
 11
-157.000000
 21
-57.000004
  0
LINE
  8
0
  6
CENTER
 62
     2
 10
-226.542496
 20
14.999990
 11
-153.749695
 21
14.999990
  0
LINE
  8
0
 10
-223.000015
 20
-7.000001
 11
-223.000015
 21
-30.850014
  0
LINE
  8
0
 10
-157.000153
 20
-56.999931
 11
-160.000137
 21
-59.999908
  0
LINE
  8
0
 10
-223.000015
 20
-39.150009
 11
-223.000015
 21
-57.000095
  0
LINE
  8
0
 10
-223.000015
 20
69.149994
 11
-223.000015
 21
87.000092
  0
LINE
  8
0
 10
-223.000015
 20
36.999981
 11
-223.000015
 21
60.849995
  0
LINE
  8
0
 10
-158.999954
 20
34.999950
 11
-156.999954
 21
36.999935
  0
LINE
  8
0
 10
-159.000092
 20
-4.999984
 11
-157.087387
 21
-6.912684
  0
LINE
  8
0
 10
-220.999969
 20
34.999897
 11
-222.912659
 21
36.912590
  0
LINE
  8
0
 10
-221.000031
 20
-4.999948
 11
-222.912766
 21
-6.912665
  0
LINE
  8
0
 10
-221.000000
 20
60.849995
 11
-223.000015
 21
60.849995
  0
LINE
  8
0
 10
-221.000000
 20
69.149994
 11
-223.000015
 21
69.149994
  0
LINE
  8
0
 10
-157.000000
 20
67.650009
 11
-159.000015
 21
67.650009
  0
LINE
  8
0
 10
-157.000000
 20
62.349972
 11
-159.000015
 21
62.349972
  0
LINE
  8
0
 10
-157.000000
 20
62.349972
 11
-157.000000
 21
36.999981
  0
LINE
  8
0
 10
-221.000000
 20
-30.850014
 11
-223.000015
 21
-30.850014
  0
LINE
  8
0
 10
-221.000000
 20
-39.150009
 11
-223.000015
 21
-39.150009
  0
LINE
  8
0
 10
-220.000000
 20
-59.000011
 11
-160.000000
 21
-59.000011
  0
LINE
  8
0
 10
-220.000000
 20
89.000000
 11
-160.000000
 21
89.000000
  0
LINE
  8
0
 10
-219.999985
 20
88.999985
 11
-220.999985
 21
87.999977
  0
LINE
  8
0
 10
-220.999954
 20
-57.999973
 11
-219.999954
 21
-58.999977
  0
LINE
  8
0
 10
-159.000046
 20
-57.999954
 11
-160.000046
 21
-58.999954
  0
LINE
  8
0
 10
-159.999924
 20
89.000046
 11
-158.999924
 21
88.000053
  0
LINE
  8
0
  6
CENTER
 62
     2
 10
-211.000000
 20
-53.232494
 11
-211.000000
 21
-36.634621
  0
LINE
  8
0
  6
CENTER
 62
     2
 10
-202.751083
 20
-45.000011
 11
-218.242172
 21
-45.000011
  0
LINE
  8
0
 10
-190.000031
 20
-36.535912
 11
-193.000031
 21
-38.267967
  0
LINE
  8
0
 10
-193.000015
 20
-38.267963
 11
-193.000015
 21
-41.732059
  0
LINE
  8
0
 10
-190.000000
 20
-43.464119
 11
-193.000015
 21
-41.732059
  0
LINE
  8
0
 10
-186.999969
 20
-41.732048
 11
-189.999985
 21
-43.464119
  0
LINE
  8
0
 10
-187.000000
 20
-38.267963
 11
-187.000000
 21
-41.732059
  0
LINE
  8
0
 10
-190.000000
 20
-36.535881
 11
-186.999969
 21
-38.267952
  0
LINE
  8
0
 10
-189.999985
 20
73.464088
 11
-193.000000
 21
71.732025
  0
LINE
  8
0
 10
-193.000015
 20
71.732040
 11
-193.000015
 21
68.267944
  0
LINE
  8
0
 10
-190.000000
 20
66.535873
 11
-193.000015
 21
68.267937
  0
LINE
  8
0
 10
-187.000000
 20
68.267944
 11
-190.000000
 21
66.535896
  0
LINE
  8
0
 10
-187.000000
 20
71.732040
 11
-187.000000
 21
68.267944
  0
LINE
  8
0
 10
-190.000000
 20
73.464111
 11
-187.000000
 21
71.732048
  0
LINE
  8
0
 10
-190.000000
 20
18.464075
 11
-193.000031
 21
16.732008
  0
LINE
  8
0
 10
-193.000015
 20
16.732037
 11
-193.000015
 21
13.267945
  0
LINE
  8
0
 10
-190.000015
 20
11.535896
 11
-193.000015
 21
13.267957
  0
LINE
  8
0
 10
-187.000000
 20
13.267934
 11
-190.000015
 21
11.535881
  0
LINE
  8
0
 10
-187.000000
 20
16.732037
 11
-187.000000
 21
13.267945
  0
LINE
  8
0
 10
-190.000000
 20
18.464109
 11
-186.999985
 21
16.732050
  0
LINE
  8
0
 10
-221.000000
 20
87.999992
 11
-221.000000
 21
-58.000011
  0
LINE
  8
0
 10
-159.000015
 20
87.999985
 11
-159.000015
 21
-58.000011
  0
LINE
  8
0
  6
CENTER
 62
     2
 10
-211.000000
 20
83.232483
 11
-211.000000
 21
66.634605
  0
LINE
  8
0
  6
CENTER
 62
     2
 10
-202.751083
 20
74.999992
 11
-218.242172
 21
74.999992
  0
LINE
  8
0
  6
CENTER
 62
     2
 10
-169.000015
 20
-53.232494
 11
-169.000015
 21
-36.634621
  0
LINE
  8
0
  6
CENTER
 62
     2
 10
-177.248932
 20
-45.000011
 11
-161.757843
 21
-45.000011
  0
LINE
  8
0
  6
CENTER
 62
     2
 10
-169.000015
 20
83.232483
 11
-169.000015
 21
66.634605
  0
LINE
  8
0
  6
CENTER
 62
     2
 10
-177.248932
 20
74.999992
 11
-161.757843
 21
74.999992
  0
LINE
  8
0
  6
CENTER
 62
     2
 10
-202.058701
 20
69.999992
 11
-178.002960
 21
69.999992
  0
LINE
  8
0
  6
CENTER
 62
     2
 10
-202.058701
 20
-40.000011
 11
-178.002960
 21
-40.000011
  0
LINE
  8
0
  6
CENTER
 62
     2
 10
154.792877
 20
14.999986
 11
225.839355
 21
14.999986
  0
LINE
  8
0
 10
160.000046
 20
-60.000015
 11
220.000046
 21
-60.000015
  0
LINE
  8
0
  6
CENTER
 62
     2
 10
172.093185
 20
69.999985
 11
206.575897
 21
69.999985
  0
LINE
  8
0
  6
CENTER
 62
     2
 10
172.636749
 20
-40.000015
 11
206.575897
 21
-40.000015
  0
LINE
  8
0
 10
160.000183
 20
89.999954
 11
157.000168
 21
86.999947
  0
LINE
  8
0
 10
219.999863
 20
89.999817
 11
222.999847
 21
86.999817
  0
LINE
  8
0
 10
223.000229
 20
-57.000156
 11
220.000229
 21
-60.000160
  0
LINE
  8
0
 10
157.000046
 20
-6.999961
 11
157.000046
 21
-57.000008
  0
LINE
  8
0
 10
223.000031
 20
-7.000005
 11
223.000031
 21
-30.850018
  0
LINE
  8
0
 10
223.000031
 20
-39.150013
 11
223.000031
 21
-57.000099
  0
LINE
  8
0
 10
159.000061
 20
25.799984
 11
159.500046
 21
25.799984
  0
LINE
  8
0
 10
159.500031
 20
25.799997
 11
160.000015
 21
25.300009
  0
LINE
  8
0
 10
160.000046
 20
25.299973
 11
161.600052
 21
25.299973
  0
LINE
  8
0
 10
160.000046
 20
29.499977
 11
161.600052
 21
29.499977
  0
LINE
  8
0
 10
159.499969
 20
29.000038
 11
159.999969
 21
29.500034
  0
LINE
  8
0
 10
159.000061
 20
28.999969
 11
159.500046
 21
28.999969
  0
LINE
  8
0
 10
158.999985
 20
34.999889
 11
156.999985
 21
36.999878
  0
LINE
  8
0
 10
159.000031
 20
34.999985
 11
159.000031
 21
-5.000087
  0
LINE
  8
0
 10
159.000061
 20
4.199990
 11
159.500046
 21
4.199990
  0
LINE
  8
0
 10
159.500000
 20
4.199992
 11
159.999985
 21
4.699979
  0
LINE
  8
0
 10
160.000046
 20
4.699998
 11
161.600052
 21
4.699998
  0
LINE
  8
0
 10
160.000046
 20
0.499995
 11
161.600067
 21
0.499995
  0
LINE
  8
0
 10
159.500000
 20
0.999927
 11
159.999985
 21
0.499940
  0
LINE
  8
0
 10
159.000061
 20
1.000003
 11
159.500046
 21
1.000003
  0
LINE
  8
0
 10
221.000061
 20
25.799984
 11
220.500061
 21
25.799984
  0
LINE
  8
0
 10
220.500122
 20
25.799967
 11
220.000122
 21
25.299952
  0
LINE
  8
0
 10
220.000046
 20
25.299973
 11
218.400055
 21
25.299973
  0
LINE
  8
0
 10
220.000046
 20
29.499977
 11
218.400055
 21
29.499977
  0
LINE
  8
0
 10
220.500290
 20
29.000177
 11
220.000275
 21
29.500187
  0
LINE
  8
0
 10
221.000061
 20
28.999969
 11
220.500061
 21
28.999969
  0
LINE
  8
0
 10
221.000061
 20
4.199990
 11
220.500061
 21
4.199990
  0
LINE
  8
0
 10
220.500259
 20
4.200108
 11
220.000244
 21
4.700103
  0
LINE
  8
0
 10
220.000046
 20
4.699998
 11
218.400055
 21
4.699998
  0
LINE
  8
0
 10
220.000046
 20
0.499995
 11
218.400055
 21
0.499995
  0
LINE
  8
0
 10
220.500153
 20
0.999854
 11
220.000153
 21
0.499853
  0
LINE
  8
0
 10
221.000061
 20
1.000003
 11
220.500061
 21
1.000003
  0
LINE
  8
0
 10
159.000076
 20
-5.000031
 11
157.087387
 21
-6.912714
  0
LINE
  8
0
 10
220.999985
 20
35.000004
 11
222.912674
 21
36.912678
  0
LINE
  8
0
 10
221.000031
 20
34.999985
 11
221.000031
 21
-5.000049
  0
LINE
  8
0
 10
221.000031
 20
-30.850018
 11
221.000031
 21
-39.150013
  0
LINE
  8
0
 10
220.999954
 20
-5.000007
 11
222.912674
 21
-6.912715
  0
LINE
  8
0
 10
211.500061
 20
-28.350018
 11
218.500061
 21
-28.350018
  0
LINE
  8
0
 10
218.500031
 20
-28.350018
 11
218.500031
 21
-30.850018
  0
LINE
  8
0
 10
218.500061
 20
-30.850018
 11
223.000061
 21
-30.850018
  0
LINE
  8
0
 10
218.500061
 20
-39.150013
 11
223.000061
 21
-39.150013
  0
LINE
  8
0
 10
218.500031
 20
-39.150013
 11
218.500031
 21
-41.650013
  0
LINE
  8
0
 10
211.500031
 20
-28.350018
 11
211.500031
 21
-41.650013
  0
LINE
  8
0
 10
211.500061
 20
-41.650013
 11
218.500061
 21
-41.650013
  0
LINE
  8
0
  6
CENTER
 62
     2
 10
160.897980
 20
-50.000023
 11
175.052673
 21
-50.000023
  0
LINE
  8
0
  6
CENTER
 62
     2
 10
212.000015
 20
-43.000031
 11
212.000015
 21
-57.000015
  0
LINE
  8
0
 10
160.000046
 20
89.999969
 11
220.000046
 21
89.999969
  0
LINE
  8
0
 10
157.000107
 20
-57.000015
 11
160.000107
 21
-60.000023
  0
LINE
  8
0
 62
     2
 10
168.000061
 20
-46.730843
 11
168.000061
 21
-61.042801
  0
LINE
  8
0
 10
191.500031
 20
89.999969
 11
191.500031
 21
83.919380
  0
LINE
  8
0
 10
188.500015
 20
89.999969
 11
188.500015
 21
83.919380
  0
LINE
  8
0
 10
159.000046
 20
67.650002
 11
159.000046
 21
62.349968
  0
LINE
  8
0
 10
221.000046
 20
69.149986
 11
221.000046
 21
60.849991
  0
LINE
  8
0
 10
157.000046
 20
87.000000
 11
157.000046
 21
67.650002
  0
LINE
  8
0
 10
157.000046
 20
67.650002
 11
160.000046
 21
67.650002
  0
LINE
  8
0
 10
160.000031
 20
69.149986
 11
160.000031
 21
67.649956
  0
LINE
  8
0
 10
164.500046
 20
69.149986
 11
164.500046
 21
60.849983
  0
LINE
  8
0
 10
160.000031
 20
62.349968
 11
160.000031
 21
60.849983
  0
LINE
  8
0
 10
157.000046
 20
62.349968
 11
160.000046
 21
62.349968
  0
LINE
  8
0
 10
157.000046
 20
62.349968
 11
157.000046
 21
36.999977
  0
LINE
  8
0
 10
223.000031
 20
69.149986
 11
223.000031
 21
87.000084
  0
LINE
  8
0
 10
218.500061
 20
69.149986
 11
223.000061
 21
69.149986
  0
LINE
  8
0
 10
218.500031
 20
69.149986
 11
218.500031
 21
71.649986
  0
LINE
  8
0
 10
211.500061
 20
71.649986
 11
218.500061
 21
71.649986
  0
LINE
  8
0
 10
211.500031
 20
58.349991
 11
211.500031
 21
71.649986
  0
LINE
  8
0
 10
211.500061
 20
58.349991
 11
218.500061
 21
58.349991
  0
LINE
  8
0
 10
218.500061
 20
60.849991
 11
223.000061
 21
60.849991
  0
LINE
  8
0
 10
218.500031
 20
58.349991
 11
218.500031
 21
60.849991
  0
LINE
  8
0
 10
223.000031
 20
36.999977
 11
223.000031
 21
60.849991
  0
LINE
  8
0
  6
CENTER
 62
     2
 10
160.857285
 20
80.000000
 11
175.296234
 21
80.000000
  0
LINE
  8
0
  6
CENTER
 62
     2
 10
212.000015
 20
87.550964
 11
212.000015
 21
72.630157
  0
LINE
  8
0
  6
CENTER
 62
     2
 10
204.536362
 20
80.000000
 11
219.457169
 21
80.000000
  0
LINE
  8
0
  6
CENTER
 62
     2
 10
168.000076
 20
87.161720
 11
168.000076
 21
72.889656
  0
LINE
  8
0
  6
CENTER
 62
     2
 10
204.680832
 20
-50.000023
 11
219.187210
 21
-50.000023
  0
LINE
  8
0
  6
DASHED
 62
     2
 10
161.577774
 20
-55.126114
 11
161.454178
 21
-59.845959
  0
LINE
  8
0
  6
DASHED
 62
     2
 10
161.299988
 20
-59.999931
 11
162.299973
 21
-58.999935
  0
LINE
  8
0
  6
DASHED
 62
     2
 10
162.300064
 20
-55.126114
 11
162.300064
 21
-59.000000
  0
LINE
  8
0
  6
DASHED
 62
     2
 10
173.700058
 20
-59.000000
 11
162.300079
 21
-59.000000
  0
LINE
  8
0
  6
DASHED
 62
     2
 10
173.699997
 20
-59.000050
 11
174.699982
 21
-60.000027
  0
LINE
  8
0
  6
DASHED
 62
     2
 10
174.422470
 20
-55.126106
 11
174.550095
 21
-60.000027
  0
LINE
  8
0
  6
DASHED
 62
     2
 10
173.700043
 20
-55.126114
 11
173.700043
 21
-59.000000
  0
LINE
  8
0
  6
CENTER
 62
     2
 10
168.000076
 20
-43.566170
 11
168.000076
 21
-57.000015
  0
LINE
  8
0
  6
CENTER
 62
     2
 10
190.000046
 20
95.122452
 11
190.000046
 21
-63.631821
  0
LINE
  8
0
  6
CENTER
 62
     2
 10
173.997833
 20
-37.500015
 11
167.010559
 21
-37.500015
  0
LINE
  8
0
  6
CENTER
 62
     2
 10
170.500061
 20
-34.029404
 11
170.500061
 21
-41.016663
  0
LINE
  8
0
  6
CENTER
 62
     2
 10
208.438095
 20
-35.000015
 11
218.500061
 21
-35.000015
  0
LINE
  8
0
  6
CENTER
 62
     2
 10
208.830017
 20
64.999985
 11
218.500061
 21
64.999985
  0
LINE
  8
0
  6
CENTER
 62
     2
 10
160.000046
 20
64.999985
 11
167.172211
 21
64.999985
  0
LINE
  8
0
 10
188.500046
 20
-53.919426
 11
188.500046
 21
-60.000015
  0
LINE
  8
0
 10
191.500061
 20
-53.919426
 11
191.500061
 21
-60.000015
  0
LINE
  8
0
 10
160.000046
 20
69.149986
 11
164.500046
 21
69.149986
  0
LINE
  8
0
 10
160.000046
 20
60.849983
 11
164.500046
 21
60.849983
  0
LINE
  8
0
 10
-281.250000
 20
195.500000
 11
282.099976
 21
195.500000
  0
LINE
  8
0
 10
-281.250000
 20
195.500000
 11
-281.250000
 21
-195.000000
  0
LINE
  8
0
 10
282.099976
 20
195.500000
 11
282.099976
 21
-195.000000
  0
LINE
  8
0
 10
-281.250000
 20
-195.000000
 11
282.099976
 21
-195.000000
  0
LINE
  8
0
 10
162.099976
 20
-175.000000
 11
162.099976
 21
-195.000000
  0
LINE
  8
0
 10
162.099976
 20
-175.000000
 11
282.099976
 21
-175.000000
  0
LINE
  8
0
 10
162.099976
 20
175.500000
 11
282.099976
 21
175.500000
  0
LINE
  8
0
 10
-281.250000
 20
175.500000
 11
-121.250000
 21
175.500000
  0
LINE
  8
0
 10
162.099976
 20
195.500000
 11
162.099976
 21
175.500000
  0
LINE
  8
0
 10
-121.250000
 20
195.500000
 11
-121.250000
 21
175.500000
  0
LINE
  8
0
 10
-271.250000
 20
-185.000000
 11
-31.250000
 21
-185.000000
  0
LINE
  8
0
 10
-271.250000
 20
-144.000000
 11
-271.250000
 21
-185.000000
  0
LINE
  8
0
 10
-231.250000
 20
-144.000000
 11
-231.250000
 21
-185.000000
  0
LINE
  8
0
 10
-271.250000
 20
-151.000000
 11
-235.001297
 21
-151.000000
  0
LINE
  8
0
 10
-271.250000
 20
-165.000000
 11
-31.250000
 21
-165.000000
  0
LINE
  8
0
 10
-271.250000
 20
-144.000000
 11
-31.250000
 21
-144.000000
  0
LINE
  8
0
 10
-231.250015
 20
-165.000015
 11
-235.001312
 21
-151.000000
  0
LINE
  8
0
 10
-211.250000
 20
-144.000000
 11
-211.250000
 21
-185.000000
  0
LINE
  8
0
 10
-191.250000
 20
-144.000000
 11
-191.250000
 21
-185.000000
  0
LINE
  8
0
 10
-171.250000
 20
-144.000000
 11
-171.250000
 21
-185.000000
  0
LINE
  8
0
 10
-151.250000
 20
-144.000000
 11
-151.250000
 21
-185.000000
  0
LINE
  8
0
 10
-131.250000
 20
-144.000000
 11
-131.250000
 21
-185.000000
  0
LINE
  8
0
 10
-111.250000
 20
-144.000000
 11
-111.250000
 21
-185.000000
  0
LINE
  8
0
 10
-271.250000
 20
-175.000000
 11
-31.250000
 21
-175.000000
  0
LINE
  8
0
 10
-91.250000
 20
-144.000000
 11
-91.250000
 21
-185.000000
  0
LINE
  8
0
 10
-71.250000
 20
-144.000000
 11
-71.250000
 21
-185.000000
  0
LINE
  8
0
 10
-51.250000
 20
-144.000000
 11
-51.250000
 21
-185.000000
  0
LINE
  8
0
 10
-31.250000
 20
-144.000000
 11
-31.250000
 21
-185.000000
  0
CIRCLE
  8
0
 10
25.000019
 20
-37.499992
 40
5.750000
  0
CIRCLE
  8
0
 10
-1.499966
 20
-37.499992
 40
5.750000
  0
ARC
  8
0
 10
-38.999985
 20
15.000000
 40
9.999995
 50
334.158081
 51
25.842075
  0
CIRCLE
  8
0
 10
-18.999992
 20
48.000008
 40
7.000000
  0
CIRCLE
  8
0
  6
DASHED
 62
     2
 10
-18.999992
 20
48.000008
 40
5.000000
  0
CIRCLE
  8
0
 10
-18.999992
 20
48.000008
 40
4.300000
  0
CIRCLE
  8
0
 10
11.000004
 20
48.000008
 40
7.000000
  0
CIRCLE
  8
0
 10
11.000004
 20
48.000008
 40
4.300000
  0
CIRCLE
  8
0
  6
DASHED
 62
     2
 10
11.000004
 20
48.000008
 40
5.000000
  0
CIRCLE
  8
0
 10
11.000011
 20
-18.000008
 40
4.300000
  0
CIRCLE
  8
0
 10
-18.999969
 20
-18.000008
 40
7.000000
  0
CIRCLE
  8
0
 10
-18.999969
 20
-18.000008
 40
4.300000
  0
CIRCLE
  8
0
  6
DASHED
 62
     2
 10
-18.999969
 20
-18.000008
 40
5.000000
  0
CIRCLE
  8
0
 10
11.000011
 20
-18.000008
 40
7.000000
  0
CIRCLE
  8
0
  6
DASHED
 62
     2
 10
11.000011
 20
-18.000008
 40
5.000000
  0
CIRCLE
  8
0
 62
     2
 10
-1.499966
 20
-37.499992
 40
6.600000
  0
CIRCLE
  8
0
 62
     2
 10
25.000019
 20
-37.499992
 40
6.600000
  0
CIRCLE
  8
0
 10
-190.000000
 20
14.999990
 40
8.750000
  0
CIRCLE
  8
0
 10
-190.000000
 20
69.999992
 40
5.600000
  0
CIRCLE
  8
0
 10
-190.000000
 20
14.999990
 40
5.600000
  0
CIRCLE
  8
0
 10
-190.000000
 20
69.999992
 40
8.750000
  0
CIRCLE
  8
0
 10
-190.000000
 20
14.999990
 40
10.000000
  0
CIRCLE
  8
0
 10
-190.000000
 20
-40.000011
 40
10.000000
  0
CIRCLE
  8
0
 10
-190.000000
 20
69.999992
 40
10.000000
  0
CIRCLE
  8
0
 62
     2
 10
-211.000000
 20
-45.000011
 40
5.000000
  0
CIRCLE
  8
0
 10
-211.000000
 20
-45.000011
 40
4.250000
  0
CIRCLE
  8
0
 10
-211.000000
 20
74.999992
 40
4.250000
  0
CIRCLE
  8
0
 62
     2
 10
-211.000000
 20
74.999992
 40
5.000000
  0
CIRCLE
  8
0
 10
-169.000015
 20
-45.000011
 40
4.250000
  0
CIRCLE
  8
0
 62
     2
 10
-169.000015
 20
-45.000011
 40
5.000000
  0
CIRCLE
  8
0
 10
-169.000015
 20
74.999992
 40
4.250000
  0
CIRCLE
  8
0
 62
     2
 10
-169.000015
 20
74.999992
 40
5.000000
  0
CIRCLE
  8
0
 10
-190.000000
 20
-40.000011
 40
8.750000
  0
CIRCLE
  8
0
 10
-190.000000
 20
-40.000011
 40
5.600000
  0
CIRCLE
  8
0
 10
170.500061
 20
-37.500015
 40
2.000000
  0
CIRCLE
  8
0
 10
170.500061
 20
-37.500015
 40
1.500000
  0
CIRCLE
  8
0
 10
190.000046
 20
-40.000015
 40
14.000001
  0
CIRCLE
  8
0
 10
190.000046
 20
69.999985
 40
14.000001
  0
ARC
  8
0
 10
161.600052
 20
27.399975
 40
2.100000
 50
270.000000
 51
90.000000
  0
ARC
  8
0
 10
161.600052
 20
2.599998
 40
2.100000
 50
270.000000
 51
90.000000
  0
ARC
  8
0
 10
218.400055
 20
27.399975
 40
2.100000
 50
90.000000
 51
270.000000
  0
ARC
  8
0
 10
218.400055
 20
2.599998
 40
2.100000
 50
90.000000
 51
270.000000
  0
CIRCLE
  8
0
 62
     2
 10
168.000076
 20
-50.000023
 40
5.000000
  0
CIRCLE
  8
0
 10
168.000076
 20
-50.000023
 40
4.250000
  0
CIRCLE
  8
0
 62
     2
 10
212.000015
 20
-50.000023
 40
5.000000
  0
CIRCLE
  8
0
 10
212.000015
 20
-50.000023
 40
4.250000
  0
CIRCLE
  8
0
 62
     2
 10
168.000076
 20
80.000000
 40
5.000000
  0
CIRCLE
  8
0
 10
168.000076
 20
80.000000
 40
4.250000
  0
CIRCLE
  8
0
 62
     2
 10
212.000015
 20
80.000000
 40
5.000000
  0
CIRCLE
  8
0
 10
212.000015
 20
80.000000
 40
4.250000
  0
CIRCLE
  8
0
 10
190.000107
 20
14.999986
 40
25.999998
  0
CIRCLE
  8
0
 10
190.000107
 20
14.999986
 40
19.000000
  0
CIRCLE
  8
0
 10
190.000046
 20
69.999985
 40
12.500000
  0
CIRCLE
  8
0
 10
190.000046
 20
-40.000015
 40
12.500000
  0
TEXT
  8
0
 10
196.250259
 20
180.830002
 40
6.300000
  1
Ver. 1.0
 50
0.000000
 41
1.052632
 51
0.000000
  7
STANDARD
  0
TEXT
  8
0
 10
167.564667
 20
-192.100006
 40
9.000000
  1
KOGANEI CORP.
 50
0.000000
 41
1.052632
 51
0.000000
  7
STANDARD
  0
TEXT
  8
0
 10
-274.349731
 20
180.830002
 40
6.300000
  1
JIG CYLINDER WITH GUIDE
 50
0.000000
 41
1.052632
 51
0.000000
  7
STANDARD
  0
TEXT
  8
0
 10
-232.249710
 20
145.830002
 40
6.300000
  1
SGDAFY50*ST(10)
 50
0.000000
 41
1.052632
 51
0.000000
  7
STANDARD
  0
TEXT
  8
0
 10
-270.049713
 20
155.830002
 40
6.300000
  1
MODEL:SGDAY50*ST(10)
 50
0.000000
 41
1.052632
 51
0.000000
  7
STANDARD
  0
TEXT
  8
0
 10
-226.142654
 20
-157.550003
 40
4.500000
  1
10
 50
0.000000
 41
1.052632
 51
0.000000
  7
STANDARD
  0
TEXT
  8
0
 10
-206.142654
 20
-157.550003
 40
4.500000
  1
20
 50
0.000000
 41
1.052632
 51
0.000000
  7
STANDARD
  0
TEXT
  8
0
 10
-186.142654
 20
-157.550003
 40
4.500000
  1
30
 50
0.000000
 41
1.052632
 51
0.000000
  7
STANDARD
  0
TEXT
  8
0
 10
-166.142654
 20
-157.550003
 40
4.500000
  1
50
 50
0.000000
 41
1.052632
 51
0.000000
  7
STANDARD
  0
TEXT
  8
0
 10
-146.142654
 20
-157.550003
 40
4.500000
  1
75
 50
0.000000
 41
1.052632
 51
0.000000
  7
STANDARD
  0
TEXT
  8
0
 10
-128.392654
 20
-157.550003
 40
4.500000
  1
100
 50
0.000000
 41
1.052632
 51
0.000000
  7
STANDARD
  0
TEXT
  8
0
 10
-265.142670
 20
-150.550003
 40
4.500000
  1
STROKE
 50
0.000000
 41
1.052632
 51
0.000000
  7
STANDARD
  0
TEXT
  8
0
 10
-267.392670
 20
-156.324997
 40
4.500000
  1
STRETCH
 50
0.000000
 41
1.052632
 51
0.000000
  7
STANDARD
  0
TEXT
  8
0
 10
-267.392670
 20
-163.074997
 40
4.500000
  1
  PLACE
 50
0.000000
 41
1.052632
 51
0.000000
  7
STANDARD
  0
TEXT
  8
0
 10
-253.892654
 20
-173.050003
 40
4.500000
  1
A
 50
0.000000
 41
1.052632
 51
0.000000
  7
STANDARD
  0
TEXT
  8
0
 10
-253.892654
 20
-183.050003
 40
4.500000
  1
B
 50
0.000000
 41
1.052632
 51
0.000000
  7
STANDARD
  0
TEXT
  8
0
 10
-168.642654
 20
-142.050003
 40
4.500000
  1
STRETCH LIST
 50
0.000000
 41
1.052632
 51
0.000000
  7
STANDARD
  0
TEXT
  8
0
 10
-50.642658
 20
-144.050003
 40
4.500000
  1
(mm)
 50
0.000000
 41
1.052632
 51
0.000000
  7
STANDARD
  0
TEXT
  8
0
 10
-108.392654
 20
-157.550003
 40
4.500000
  1
125
 50
0.000000
 41
1.052632
 51
0.000000
  7
STANDARD
  0
TEXT
  8
0
 10
-88.392654
 20
-157.550003
 40
4.500000
  1
150
 50
0.000000
 41
1.052632
 51
0.000000
  7
STANDARD
  0
TEXT
  8
0
 10
-68.392654
 20
-157.550003
 40
4.500000
  1
175
 50
0.000000
 41
1.052632
 51
0.000000
  7
STANDARD
  0
TEXT
  8
0
 10
-48.392658
 20
-157.550003
 40
4.500000
  1
200
 50
0.000000
 41
1.052632
 51
0.000000
  7
STANDARD
  0
TEXT
  8
0
 10
-206.142654
 20
-183.050003
 40
4.500000
  1
10
 50
0.000000
 41
1.052632
 51
0.000000
  7
STANDARD
  0
TEXT
  8
0
 10
-186.142654
 20
-183.050003
 40
4.500000
  1
20
 50
0.000000
 41
1.052632
 51
0.000000
  7
STANDARD
  0
TEXT
  8
0
 10
-166.142654
 20
-183.050003
 40
4.500000
  1
40
 50
0.000000
 41
1.052632
 51
0.000000
  7
STANDARD
  0
TEXT
  8
0
 10
-146.142654
 20
-183.050003
 40
4.500000
  1
40
 50
0.000000
 41
1.052632
 51
0.000000
  7
STANDARD
  0
TEXT
  8
0
 10
-126.142654
 20
-183.050003
 40
4.500000
  1
40
 50
0.000000
 41
1.052632
 51
0.000000
  7
STANDARD
  0
TEXT
  8
0
 10
-106.142654
 20
-183.050003
 40
4.500000
  1
90
 50
0.000000
 41
1.052632
 51
0.000000
  7
STANDARD
  0
TEXT
  8
0
 10
-86.142654
 20
-183.050003
 40
4.500000
  1
90
 50
0.000000
 41
1.052632
 51
0.000000
  7
STANDARD
  0
TEXT
  8
0
 10
-66.142654
 20
-183.050003
 40
4.500000
  1
90
 50
0.000000
 41
1.052632
 51
0.000000
  7
STANDARD
  0
TEXT
  8
0
 10
-46.142658
 20
-183.050003
 40
4.500000
  1
90
 50
0.000000
 41
1.052632
 51
0.000000
  7
STANDARD
  0
TEXT
  8
0
 10
-223.892654
 20
-183.050003
 40
4.500000
  1
0
 50
0.000000
 41
1.052632
 51
0.000000
  7
STANDARD
  0
TEXT
  8
0
 10
-223.892654
 20
-173.050003
 40
4.500000
  1
0
 50
0.000000
 41
1.052632
 51
0.000000
  7
STANDARD
  0
TEXT
  8
0
 10
-48.392658
 20
-173.050003
 40
4.500000
  1
100
 50
0.000000
 41
1.052632
 51
0.000000
  7
STANDARD
  0
TEXT
  8
0
 10
-66.142654
 20
-173.050003
 40
4.500000
  1
75
 50
0.000000
 41
1.052632
 51
0.000000
  7
STANDARD
  0
TEXT
  8
0
 10
-86.142654
 20
-173.050003
 40
4.500000
  1
50
 50
0.000000
 41
1.052632
 51
0.000000
  7
STANDARD
  0
TEXT
  8
0
 10
-106.142654
 20
-173.050003
 40
4.500000
  1
25
 50
0.000000
 41
1.052632
 51
0.000000
  7
STANDARD
  0
TEXT
  8
0
 10
-126.142654
 20
-173.050003
 40
4.500000
  1
50
 50
0.000000
 41
1.052632
 51
0.000000
  7
STANDARD
  0
TEXT
  8
0
 10
-146.142654
 20
-173.050003
 40
4.500000
  1
25
 50
0.000000
 41
1.052632
 51
0.000000
  7
STANDARD
  0
TEXT
  8
0
 10
-163.892654
 20
-173.050003
 40
4.500000
  1
0
 50
0.000000
 41
1.052632
 51
0.000000
  7
STANDARD
  0
TEXT
  8
0
 10
-183.892654
 20
-173.050003
 40
4.500000
  1
0
 50
0.000000
 41
1.052632
 51
0.000000
  7
STANDARD
  0
TEXT
  8
0
 10
-203.892654
 20
-173.050003
 40
4.500000
  1
0
 50
0.000000
 41
1.052632
 51
0.000000
  7
STANDARD
  0
TEXT
  8
0
 62
     3
 10
21.357140
 20
112.699997
 40
4.500000
  1
STRETCH LINE A
 50
0.000000
 41
1.052632
 51
0.000000
  7
STANDARD
  0
TEXT
  8
0
 62
     3
 10
-5.892660
 20
126.199997
 40
4.500000
  1
STRETCH LINE B
 50
0.000000
 41
1.052632
 51
0.000000
  7
STANDARD
  0
TEXT
  8
0
 62
     2
 10
91.915833
 20
-89.000000
 40
3.200000
  1
STROKE=75-200
 50
0.000000
 41
1.052632
 51
0.000000
  7
STANDARD
  0
LINE
  8
0
 62
     2
 10
78.499985
 20
-90.000000
 11
133.265839
 21
-90.000000
  0
LINE
  8
0
 62
     2
 10
39.999996
 20
-90.000000
 11
78.499985
 21
-90.000000
  0
LINE
  8
0
 62
     2
 10
39.999996
 20
-90.000000
 11
42.897774
 21
-89.223541
  0
LINE
  8
0
 62
     2
 10
39.999996
 20
-90.000000
 11
42.897774
 21
-90.776459
  0
LINE
  8
0
 62
     2
 10
78.499985
 20
-90.000000
 11
75.602211
 21
-90.776459
  0
LINE
  8
0
 62
     2
 10
78.499985
 20
-90.000000
 11
75.602211
 21
-89.223541
  0
LINE
  8
0
 62
     2
 10
39.999996
 20
-59.499969
 11
39.999996
 21
-91.500000
  0
LINE
  8
0
 62
     2
 10
78.499985
 20
-52.500000
 11
78.499985
 21
-91.500000
  0
ENDSEC
  0
EOF
