  0
SECTION
  2
HEADER
  0
ENDSEC
  0
SECTION
  2
TABLES
  0
TABLE
  2
LTYPE
 70
     4
  0
LTYPE
  2
CONTINUOUS
 70
    64
  3
Solid line
 72
    65
 73
     0
 40
0.000000
  0
LTYPE
  2
DASHED
 70
    64
  3
__ __ __ __ __ __ __ __ __ __ __ __ __ __ __
 72
    65
 73
     2
 40
3.500000
 49
2.000000
 49
-1.500000
  0
LTYPE
  2
CENTER
 70
    64
  3
____ _ ____ _ ____ _ ____ _ ____ _ ____ _ ____
 72
    65
 73
     4
 40
17.500000
 49
13.000000
 49
-1.500000
 49
1.500000
 49
-1.500000
  0
LTYPE
  2
PHANTOM
 70
    64
  3
_____ _ _ _____ _ _ _____ _ _ _____ _ _ ____  
 72
    65
 73
     6
 40
15.500000
 49
8.000000
 49
-1.500000
 49
1.500000
 49
-1.500000
 49
1.500000
 49
-1.500000
  0
LTYPE
  2
DASHED1
 70
    64
  3
__ __ __ __ __ __ __ __ __ __ __ __ __ __ __
 72
    65
 73
     2
 40
1.500000
 49
1.000000
 49
-0.500000
  0
LTYPE
  2
DASHED2
 70
    64
  3
__ __ __ __ __ __ __ __ __ __ __ __ __ __ __
 72
    65
 73
     2
 40
3.500000
 49
2.500000
 49
-1.000000
  0
LTYPE
  2
DASHED3
 70
    64
  3
__ __ __ __ __ __ __ __ __ __ __ __ __ __ __
 72
    65
 73
     2
 40
6.000000
 49
4.000000
 49
-2.000000
  0
LTYPE
  2
DASHED4
 70
    64
  3
__ __ __ __ __ __ __ __ __ __ __ __ __ __ __
 72
    65
 73
     2
 40
12.000000
 49
10.000000
 49
-2.000000
  0
LTYPE
  2
DASHED5
 70
    64
  3
__ __ __ __ __ __ __ __ __ __ __ __ __ __ __
 72
    65
 73
     2
 40
17.000000
 49
15.000000
 49
-2.000000
  0
LTYPE
  2
DASHED6
 70
    64
  3
__ __ __ __ __ __ __ __ __ __ __ __ __ __ __
 72
    65
 73
     2
 40
29.000000
 49
27.000000
 49
-2.000000
  0
LTYPE
  2
PHANTOM1
 70
    64
  3
_____ _ _ _____ _ _ _____ _ _ _____ _ _ ____  
 72
    65
 73
     6
 40
31.000000
 49
25.000000
 49
-1.500000
 49
1.000000
 49
-1.000000
 49
1.000000
 49
-1.500000
  0
LTYPE
  2
PHANTOM2
 70
    64
  3
_____ _ _ _____ _ _ _____ _ _ _____ _ _ ____  
 72
    65
 73
     6
 40
36.000000
 49
27.000000
 49
-1.500000
 49
2.500000
 49
-1.000000
 49
2.500000
 49
-1.500000
  0
LTYPE
  2
PHANTOM3
 70
    64
  3
_____ _ _ _____ _ _ _____ _ _ _____ _ _ ____  
 72
    65
 73
     6
 40
78.000000
 49
64.000000
 49
-2.000000
 49
4.000000
 49
-2.000000
 49
4.000000
 49
-2.000000
  0
LTYPE
  2
CENTER1
 70
    64
  3
____ _ ____ _ ____ _ ____ _ ____ _ ____ _ ____
 72
    65
 73
     4
 40
19.000000
 49
14.000000
 49
-1.000000
 49
3.000000
 49
-1.000000
  0
LTYPE
  2
CENTER2
 70
    64
  3
____ _ ____ _ ____ _ ____ _ ____ _ ____ _ ____
 72
    65
 73
     4
 40
28.500000
 49
25.000000
 49
-1.000000
 49
1.500000
 49
-1.000000
  0
LTYPE
  2
CENTER3
 70
    64
  3
____ _ ____ _ ____ _ ____ _ ____ _ ____ _ ____
 72
    65
 73
     4
 40
31.500000
 49
27.000000
 49
-1.000000
 49
2.500000
 49
-1.000000
  0
LTYPE
  2
CENTER4
 70
    64
  3
____ _ ____ _ ____ _ ____ _ ____ _ ____ _ ____
 72
    65
 73
     4
 40
50.000000
 49
45.000000
 49
-1.000000
 49
3.000000
 49
-1.000000
  0
LTYPE
  2
CENTER5
 70
    64
  3
____ _ ____ _ ____ _ ____ _ ____ _ ____ _ ____
 72
    65
 73
     4
 40
100.000000
 49
92.000000
 49
-2.000000
 49
4.000000
 49
-2.000000
  0
LTYPE
  2
SBK1
 70
    64
  3
______ _ _ _ ______ _ _ _ ______ _ _ _ _____  
 72
    65
 73
     8
 40
60.500000
 49
45.000000
 49
-2.000000
 49
2.500000
 49
-2.000000
 49
2.500000
 49
-2.000000
 49
2.500000
 49
-2.000000
  0
LTYPE
  2
SBK2
 70
    64
  3
______ _ _ _ ______ _ _ _ ______ _ _ _ _____  
 72
    65
 73
     8
 40
84.000000
 49
64.000000
 49
-2.000000
 49
4.000000
 49
-2.000000
 49
4.000000
 49
-2.000000
 49
4.000000
 49
-2.000000
  0
LTYPE
  2
STCH
 70
    64
  3
__ __ __ __ __ __ __ __ __ __ __ __ __ __ __
 72
    65
 73
     2
 40
3.000000
 49
1.000000
 49
-2.000000
  0
LTYPE
  2
MTCH
 70
    64
  3
_____ _ _ _____ _ _ _____ _ _ _____ _ _ ____  
 72
    65
 73
     6
 40
80.000000
 49
66.000000
 49
-2.000000
 49
4.000000
 49
-2.000000
 49
4.000000
 49
-2.000000
  0
ENDTAB
  0
TABLE
  2
LAYER
 70
     1
  0
LAYER
  2
0
 70
     0
 62
     7
  6
CONTINUOUS
  0
ENDTAB
  0
TABLE
  2
STYLE
 70
     1
  0
STYLE
  2
STANDARD
 70
     0
 40
0.000000
 41
1.000000
 50
0.000000
 71
     0
 42
0.200000
  3
txt
  4
BIGFONT
  0
ENDTAB
  0
TABLE
  2
VIEW
 70
     0
  0
ENDTAB
  0
ENDSEC
  0
SECTION
  2
BLOCKS
  0
ENDSEC
  0
SECTION
  2
ENTITIES
  0
LINE
  8
0
 10
-30.000000
 20
2.000000
 11
-26.000004
 21
2.000000
  0
LINE
  8
0
  6
CENTER
 62
     2
 10
-47.718578
 20
-35.000000
 11
-23.692799
 21
-35.000000
  0
LINE
  8
0
  6
CENTER
 62
     2
 10
-47.457428
 20
55.000000
 11
-23.648640
 21
55.000000
  0
LINE
  8
0
 10
-30.000000
 20
-25.000000
 11
-26.000004
 21
-25.000000
  0
LINE
  8
0
 10
-44.000000
 20
71.000000
 11
-31.000004
 21
71.000000
  0
LINE
  8
0
 10
-44.000000
 20
-51.000000
 11
-31.000004
 21
-51.000000
  0
LINE
  8
0
 10
-30.000000
 20
-50.000000
 11
-30.000000
 21
70.000000
  0
LINE
  8
0
 10
-45.000000
 20
70.000000
 11
-45.000000
 21
-50.000000
  0
LINE
  8
0
 10
-30.000000
 20
-45.000000
 11
-26.000004
 21
-45.000000
  0
LINE
  8
0
 10
-30.000000
 20
6.127014
 11
-28.500004
 21
6.127014
  0
LINE
  8
0
 10
-28.500000
 20
13.872997
 11
-28.500000
 21
6.127014
  0
LINE
  8
0
 10
-28.500002
 20
6.127019
 11
-30.000010
 21
11.936527
  0
LINE
  8
0
 10
-28.500013
 20
13.873060
 11
-30.000031
 21
8.063518
  0
LINE
  8
0
 10
-44.999981
 20
-49.999996
 11
-43.999981
 21
-50.999992
  0
LINE
  8
0
 10
-31.000006
 20
-51.000008
 11
-30.000002
 21
-50.000004
  0
LINE
  8
0
 10
-43.999977
 20
70.999977
 11
-44.999973
 21
69.999985
  0
LINE
  8
0
 10
-31.000004
 20
70.999992
 11
-30.000011
 21
69.999992
  0
LINE
  8
0
 10
-25.499989
 20
71.999992
 11
37.500023
 21
71.999992
  0
LINE
  8
0
 10
38.000031
 20
70.000000
 11
-25.999996
 21
70.000000
  0
LINE
  8
0
 10
38.000031
 20
53.650017
 11
-25.999996
 21
53.650017
  0
LINE
  8
0
 10
38.000031
 20
48.350021
 11
-25.999996
 21
48.350021
  0
LINE
  8
0
 10
38.000031
 20
26.999992
 11
-25.999996
 21
26.999992
  0
LINE
  8
0
 10
38.000031
 20
26.000004
 11
-25.999996
 21
26.000004
  0
LINE
  8
0
 10
38.000031
 20
20.699997
 11
-25.999996
 21
20.699997
  0
LINE
  8
0
 10
38.000031
 20
17.500000
 11
-25.999996
 21
17.500000
  0
LINE
  8
0
 10
-25.499851
 20
71.999855
 11
-25.999855
 21
71.499832
  0
LINE
  8
0
 10
37.500103
 20
72.000046
 11
38.000111
 21
71.500046
  0
LINE
  8
0
 10
-30.000000
 20
18.000000
 11
-26.000004
 21
18.000000
  0
LINE
  8
0
 10
-30.000000
 20
13.873051
 11
-28.500004
 21
13.873051
  0
LINE
  8
0
  6
DASHED
 62
     2
 10
70.000015
 20
-25.500000
 11
70.000015
 21
-44.500000
  0
LINE
  8
0
  6
DASHED
 62
     2
 10
38.000008
 20
-25.000000
 11
69.500015
 21
-25.000000
  0
LINE
  8
0
  6
DASHED
 62
     2
 10
38.000008
 20
-45.000000
 11
69.500015
 21
-45.000000
  0
LINE
  8
0
  6
DASHED
 62
     2
 10
69.500000
 20
-25.000008
 11
70.000000
 21
-25.500008
  0
LINE
  8
0
  6
DASHED
 62
     2
 10
70.000008
 20
-44.499992
 11
69.500008
 21
-44.999989
  0
LINE
  8
0
  6
DASHED
 62
     2
 10
69.500008
 20
-25.000000
 11
69.500008
 21
-45.000000
  0
LINE
  8
0
  6
DASHED
 62
     2
 10
70.000015
 20
64.500008
 11
70.000015
 21
45.500000
  0
LINE
  8
0
  6
DASHED
 62
     2
 10
38.000008
 20
65.000000
 11
69.500015
 21
65.000000
  0
LINE
  8
0
  6
DASHED
 62
     2
 10
38.000008
 20
45.000000
 11
69.500015
 21
45.000000
  0
LINE
  8
0
  6
DASHED
 62
     2
 10
69.500008
 20
64.999992
 11
70.000000
 21
64.500000
  0
LINE
  8
0
  6
DASHED
 62
     2
 10
70.000015
 20
45.500008
 11
69.500023
 21
45.000008
  0
LINE
  8
0
  6
DASHED
 62
     2
 10
69.500008
 20
65.000000
 11
69.500008
 21
45.000000
  0
LINE
  8
0
 10
-30.000000
 20
65.000000
 11
-26.000004
 21
65.000000
  0
LINE
  8
0
 10
-30.000000
 20
45.000000
 11
-26.000004
 21
45.000000
  0
LINE
  8
0
  6
CENTER
 62
     2
 10
-18.999985
 20
43.500004
 11
-18.999985
 21
28.500004
  0
LINE
  8
0
  6
CENTER
 62
     2
 10
-26.499985
 20
36.000004
 11
-11.499985
 21
36.000004
  0
LINE
  8
0
  6
CENTER
 62
     2
 10
11.000015
 20
43.500004
 11
11.000015
 21
28.500004
  0
LINE
  8
0
  6
CENTER
 62
     2
 10
3.500015
 20
36.000004
 11
18.500015
 21
36.000004
  0
LINE
  8
0
  6
CENTER
 62
     2
 10
40.900597
 20
10.000000
 11
-47.452362
 21
10.000000
  0
LINE
  8
0
 10
-25.999996
 20
71.499985
 11
-25.999996
 21
-51.499985
  0
LINE
  8
0
 10
-25.499966
 20
-51.999992
 11
37.500000
 21
-51.999992
  0
LINE
  8
0
 10
38.000008
 20
2.500000
 11
-25.999996
 21
2.500000
  0
LINE
  8
0
 10
38.000008
 20
-0.699986
 11
-25.999996
 21
-0.699986
  0
LINE
  8
0
 10
38.000008
 20
-5.999973
 11
-25.999996
 21
-5.999973
  0
LINE
  8
0
 10
38.000000
 20
-6.999947
 11
-25.999996
 21
-6.999947
  0
LINE
  8
0
 10
38.000008
 20
-50.000000
 11
-25.999996
 21
-50.000000
  0
LINE
  8
0
  6
CENTER
 62
     2
 10
10.999996
 20
-8.500017
 11
10.999996
 21
-23.500015
  0
LINE
  8
0
  6
CENTER
 62
     2
 10
4.130924
 20
-16.000017
 11
18.499996
 21
-16.000017
  0
LINE
  8
0
  6
CENTER
 62
     2
 10
-19.000004
 20
-8.500017
 11
-19.000004
 21
-23.500015
  0
LINE
  8
0
  6
CENTER
 62
     2
 10
-26.500004
 20
-16.000017
 11
-11.500008
 21
-16.000017
  0
LINE
  8
0
  6
CENTER
 62
     2
 10
-2.000015
 20
-23.423363
 11
-2.000015
 21
-37.691734
  0
LINE
  8
0
  6
CENTER
 62
     2
 10
25.000000
 20
-23.823723
 11
25.000000
 21
-38.201164
  0
LINE
  8
0
  6
DASHED
 62
     2
 10
7.794720
 20
-47.845264
 11
7.431224
 21
-52.000011
  0
LINE
  8
0
  6
DASHED
 62
     2
 10
8.899994
 20
-47.845261
 11
8.899994
 21
-51.999992
  0
LINE
  8
0
  6
DASHED
 62
     2
 10
17.100002
 20
-47.845261
 11
17.100002
 21
-51.999992
  0
LINE
  8
0
  6
DASHED
 62
     2
 10
18.205376
 20
-47.845257
 11
18.568857
 21
-51.999947
  0
LINE
  8
0
  6
CENTER
 62
     2
 10
18.729523
 20
-30.000015
 11
32.022720
 21
-30.000015
  0
LINE
  8
0
 10
38.000153
 20
-51.500099
 11
37.500149
 21
-52.000103
  0
LINE
  8
0
 10
-25.999929
 20
-51.499908
 11
-25.499895
 21
-51.999916
  0
LINE
  8
0
  6
DASHED
 62
     2
 10
-7.205301
 20
-47.845268
 11
-7.568788
 21
-51.999908
  0
LINE
  8
0
  6
DASHED
 62
     2
 10
-6.100006
 20
-47.845261
 11
-6.100006
 21
-51.999992
  0
LINE
  8
0
  6
CENTER
 62
     2
 10
-8.000008
 20
-30.000015
 11
4.000004
 21
-30.000015
  0
LINE
  8
0
  6
DASHED
 62
     2
 10
2.100002
 20
-47.845261
 11
2.100002
 21
-51.999992
  0
LINE
  8
0
  6
DASHED
 62
     2
 10
3.205318
 20
-47.845264
 11
3.568806
 21
-52.000042
  0
LINE
  8
0
  6
CENTER
 62
     2
 10
-2.000000
 20
-46.444008
 11
-2.000000
 21
-53.828999
  0
LINE
  8
0
 10
37.999985
 20
71.500031
 11
37.999985
 21
-51.499985
  0
LINE
  8
0
  6
PHANTOM
 62
     3
 10
0.500000
 20
96.624992
 11
0.500000
 21
-22.577499
  0
LINE
  8
0
  6
PHANTOM
 62
     3
 10
5.000004
 20
-22.577499
 11
5.000004
 21
-62.000015
  0
LINE
  8
0
  6
PHANTOM
 62
     3
 10
0.500000
 20
-22.577499
 11
5.000004
 21
-22.577499
  0
LINE
  8
0
  6
PHANTOM
 62
     3
 10
6.750004
 20
-24.715000
 11
6.750004
 21
-62.000015
  0
LINE
  8
0
  6
PHANTOM
 62
     3
 10
6.750004
 20
-24.715000
 11
21.875000
 21
-24.715000
  0
LINE
  8
0
  6
PHANTOM
 62
     3
 10
21.875000
 20
85.374992
 11
21.875000
 21
-24.715000
  0
LINE
  8
0
  6
CENTER
 62
     2
 10
13.000000
 20
-46.444008
 11
13.000000
 21
-53.828999
  0
LINE
  8
0
  6
CENTER
 62
     2
 10
-104.655991
 20
10.000000
 11
-165.025284
 21
10.000000
  0
LINE
  8
0
 10
-108.999985
 20
17.500000
 11
-109.500000
 21
17.500000
  0
LINE
  8
0
 10
-109.499870
 20
17.499992
 11
-109.999878
 21
16.999979
  0
LINE
  8
0
 10
-109.499863
 20
20.700209
 11
-109.999847
 21
21.200195
  0
LINE
  8
0
 10
-108.999985
 20
20.699997
 11
-109.500000
 21
20.699997
  0
LINE
  8
0
 10
-108.999939
 20
17.500011
 11
-108.999939
 21
10.000000
  0
LINE
  8
0
 10
-110.000000
 20
-51.999992
 11
-159.999924
 21
-51.999992
  0
LINE
  8
0
 10
-110.000000
 20
71.999992
 11
-159.999924
 21
71.999992
  0
LINE
  8
0
 10
-162.000000
 20
70.000023
 11
-162.000000
 21
54.150002
  0
LINE
  8
0
 10
-107.999969
 20
70.000023
 11
-107.999969
 21
53.650017
  0
LINE
  8
0
 10
-108.999985
 20
2.500000
 11
-109.500000
 21
2.500000
  0
LINE
  8
0
 10
-109.499779
 20
2.500140
 11
-109.999771
 21
3.000129
  0
LINE
  8
0
 10
-109.499809
 20
-0.700191
 11
-109.999832
 21
-1.200218
  0
LINE
  8
0
 10
-108.999985
 20
-0.699997
 11
-109.500000
 21
-0.699997
  0
LINE
  8
0
 10
-108.999939
 20
-5.999963
 11
-108.999939
 21
-0.699986
  0
LINE
  8
0
 10
-108.999939
 20
2.500011
 11
-108.999939
 21
10.000000
  0
LINE
  8
0
 10
-108.000038
 20
-7.000051
 11
-109.000038
 21
-6.000042
  0
LINE
  8
0
 10
-160.999939
 20
17.500000
 11
-160.499924
 21
17.500000
  0
LINE
  8
0
 10
-160.500031
 20
17.499989
 11
-160.000046
 21
17.000002
  0
LINE
  8
0
 10
-160.500122
 20
20.700054
 11
-160.000107
 21
21.200064
  0
LINE
  8
0
 10
-160.999939
 20
20.699997
 11
-160.499924
 21
20.699997
  0
LINE
  8
0
 10
-160.999939
 20
25.999996
 11
-160.999939
 21
20.700008
  0
LINE
  8
0
 10
-160.999939
 20
17.500011
 11
-160.999939
 21
10.000000
  0
LINE
  8
0
 10
-161.999924
 20
26.999958
 11
-160.999939
 21
25.999981
  0
LINE
  8
0
 10
-160.999939
 20
2.500000
 11
-160.499924
 21
2.500000
  0
LINE
  8
0
 10
-160.500092
 20
2.500111
 11
-160.000046
 21
3.000154
  0
LINE
  8
0
 10
-160.500107
 20
-0.700100
 11
-160.000107
 21
-1.200093
  0
LINE
  8
0
 10
-160.999939
 20
-0.699997
 11
-160.499924
 21
-0.699997
  0
LINE
  8
0
 10
-160.999939
 20
-5.999985
 11
-160.999939
 21
-0.699986
  0
LINE
  8
0
 10
-160.999939
 20
2.500011
 11
-160.999939
 21
10.000000
  0
LINE
  8
0
 10
-162.000000
 20
-7.000053
 11
-160.999954
 21
-6.000010
  0
LINE
  8
0
 10
-107.999969
 20
-6.999992
 11
-107.999969
 21
-50.000000
  0
LINE
  8
0
 10
-162.000000
 20
-6.999992
 11
-162.000000
 21
-27.849991
  0
LINE
  8
0
 10
-108.000000
 20
-50.000000
 11
-110.000015
 21
-52.000023
  0
LINE
  8
0
 10
-159.999878
 20
-51.999969
 11
-161.999893
 21
-49.999962
  0
LINE
  8
0
 10
-107.999855
 20
69.999924
 11
-109.999878
 21
71.999947
  0
LINE
  8
0
 10
-159.999893
 20
71.999939
 11
-161.999863
 21
69.999962
  0
LINE
  8
0
 10
-107.999924
 20
48.350021
 11
-110.000000
 21
48.350021
  0
LINE
  8
0
 10
-107.999924
 20
53.650009
 11
-110.000000
 21
53.650009
  0
LINE
  8
0
 10
-160.000000
 20
-27.850014
 11
-162.000000
 21
-27.850014
  0
LINE
  8
0
 10
-160.000000
 20
-34.149998
 11
-162.000000
 21
-34.149998
  0
LINE
  8
0
 10
-162.000000
 20
-34.150009
 11
-162.000000
 21
-50.000000
  0
LINE
  8
0
 10
-160.000000
 20
47.850014
 11
-162.000000
 21
47.850014
  0
LINE
  8
0
 10
-160.000000
 20
54.150002
 11
-162.000000
 21
54.150002
  0
LINE
  8
0
 10
-162.000000
 20
47.850014
 11
-162.000000
 21
26.999992
  0
LINE
  8
0
 10
-108.999939
 20
26.000019
 11
-108.999939
 21
20.700008
  0
LINE
  8
0
 10
-107.999939
 20
26.999990
 11
-108.999985
 21
25.999945
  0
LINE
  8
0
 10
-107.999969
 20
48.350021
 11
-107.999969
 21
26.999992
  0
LINE
  8
0
 10
-159.000015
 20
71.000000
 11
-110.999771
 21
71.000000
  0
LINE
  8
0
 10
-159.000015
 20
-51.000000
 11
-111.000076
 21
-51.000000
  0
LINE
  8
0
 10
-158.999908
 20
70.999924
 11
-159.999908
 21
69.999916
  0
LINE
  8
0
 10
-110.999916
 20
71.000099
 11
-109.999908
 21
70.000099
  0
LINE
  8
0
 10
-159.999939
 20
-49.999924
 11
-158.999939
 21
-50.999924
  0
LINE
  8
0
 10
-110.000008
 20
-49.999977
 11
-111.000008
 21
-50.999981
  0
LINE
  8
0
  6
CENTER
 62
     2
 10
-118.000000
 20
-48.579903
 11
-118.000000
 21
-37.112000
  0
LINE
  8
0
  6
CENTER
 62
     2
 10
-112.574448
 20
63.000000
 11
-123.375595
 21
63.000000
  0
LINE
  8
0
  6
CENTER
 62
     2
 10
-152.000000
 20
-48.579903
 11
-152.000000
 21
-37.112000
  0
LINE
  8
0
  6
CENTER
 62
     2
 10
-112.574448
 20
-43.000000
 11
-123.375595
 21
-43.000000
  0
LINE
  8
0
 10
-110.000000
 20
70.000000
 11
-110.000000
 21
-50.000000
  0
LINE
  8
0
 10
-160.000000
 20
70.000000
 11
-160.000000
 21
-50.000000
  0
LINE
  8
0
  6
CENTER
 62
     2
 10
-135.000000
 20
77.358528
 11
-135.000000
 21
-57.295418
  0
LINE
  8
0
 10
-135.000061
 20
-32.113213
 11
-137.500046
 21
-33.556595
  0
LINE
  8
0
 10
-137.500000
 20
-33.556629
 11
-137.500000
 21
-36.443375
  0
LINE
  8
0
 10
-135.000031
 20
-37.886780
 11
-137.500046
 21
-36.443386
  0
LINE
  8
0
 10
-132.500046
 20
-36.443317
 11
-135.000046
 21
-37.886707
  0
LINE
  8
0
 10
-132.500000
 20
-33.556629
 11
-132.500000
 21
-36.443375
  0
LINE
  8
0
 10
-135.000015
 20
-32.113297
 11
-132.500031
 21
-33.556679
  0
LINE
  8
0
 10
-135.000061
 20
57.886837
 11
-137.500046
 21
56.443455
  0
LINE
  8
0
 10
-137.500000
 20
56.443375
 11
-137.500000
 21
53.556633
  0
LINE
  8
0
 10
-135.000000
 20
52.113235
 11
-137.500000
 21
53.556622
  0
LINE
  8
0
 10
-132.500015
 20
53.556656
 11
-135.000015
 21
52.113281
  0
LINE
  8
0
 10
-132.500000
 20
56.443375
 11
-132.500000
 21
53.556633
  0
LINE
  8
0
 10
-134.999985
 20
57.886745
 11
-132.500000
 21
56.443375
  0
LINE
  8
0
 10
-135.000046
 20
12.886807
 11
-137.500046
 21
11.443419
  0
LINE
  8
0
 10
-137.500000
 20
11.443373
 11
-137.500000
 21
8.556627
  0
LINE
  8
0
 10
-135.000015
 20
7.113234
 11
-137.500031
 21
8.556623
  0
LINE
  8
0
 10
-132.500046
 20
8.556670
 11
-135.000031
 21
7.113289
  0
LINE
  8
0
 10
-132.500000
 20
11.443373
 11
-132.500000
 21
8.556627
  0
LINE
  8
0
 10
-135.000031
 20
12.886742
 11
-132.500031
 21
11.443359
  0
LINE
  8
0
  6
CENTER
 62
     2
 10
-146.574448
 20
-43.000000
 11
-157.375595
 21
-43.000000
  0
LINE
  8
0
  6
CENTER
 62
     2
 10
-146.574448
 20
63.000000
 11
-157.375595
 21
63.000000
  0
LINE
  8
0
  6
CENTER
 62
     2
 10
-144.587357
 20
55.000000
 11
-125.593414
 21
55.000000
  0
LINE
  8
0
  6
CENTER
 62
     2
 10
-144.587357
 20
-35.000000
 11
-125.593414
 21
-35.000000
  0
LINE
  8
0
  6
CENTER
 62
     2
 10
-152.000000
 20
68.168777
 11
-152.000000
 21
57.614799
  0
LINE
  8
0
  6
CENTER
 62
     2
 10
-118.000000
 20
68.168777
 11
-118.000000
 21
57.434395
  0
LINE
  8
0
 10
104.000015
 20
17.500000
 11
104.500015
 21
17.500000
  0
LINE
  8
0
 10
104.499992
 20
17.499983
 11
104.999985
 21
16.999990
  0
LINE
  8
0
 10
105.000015
 20
17.000004
 11
106.600006
 21
17.000004
  0
LINE
  8
0
 10
105.000015
 20
21.200008
 11
106.600006
 21
21.200008
  0
LINE
  8
0
 10
104.499863
 20
20.700171
 11
104.999863
 21
21.200172
  0
LINE
  8
0
 10
104.000015
 20
20.699997
 11
104.500015
 21
20.699997
  0
LINE
  8
0
 10
104.000000
 20
17.500011
 11
104.000000
 21
10.000000
  0
LINE
  8
0
 10
105.000000
 20
-51.999992
 11
155.000000
 21
-51.999992
  0
LINE
  8
0
 10
105.000000
 20
71.999992
 11
155.000000
 21
71.999992
  0
LINE
  8
0
  6
CENTER
 62
     2
 10
115.113678
 20
55.000000
 11
144.676239
 21
55.000000
  0
LINE
  8
0
  6
CENTER
 62
     2
 10
115.153839
 20
-35.000000
 11
144.443527
 21
-35.000000
  0
LINE
  8
0
 10
104.000015
 20
2.500000
 11
104.500015
 21
2.500000
  0
LINE
  8
0
 10
104.499947
 20
2.500045
 11
104.999947
 21
3.000046
  0
LINE
  8
0
 10
105.000015
 20
3.000002
 11
106.600006
 21
3.000002
  0
LINE
  8
0
 10
105.000015
 20
-1.200005
 11
106.600006
 21
-1.200005
  0
LINE
  8
0
 10
104.499886
 20
-0.700078
 11
104.999878
 21
-1.200067
  0
LINE
  8
0
 10
104.000015
 20
-0.699997
 11
104.500015
 21
-0.699997
  0
LINE
  8
0
 10
104.000000
 20
-5.999963
 11
104.000000
 21
-0.699986
  0
LINE
  8
0
 10
104.000000
 20
2.500011
 11
104.000000
 21
10.000000
  0
LINE
  8
0
 10
102.999992
 20
-7.000045
 11
104.000015
 21
-6.000022
  0
LINE
  8
0
 10
155.999985
 20
17.500000
 11
155.499985
 21
17.500000
  0
LINE
  8
0
 10
155.500092
 20
17.499929
 11
155.000076
 21
16.999914
  0
LINE
  8
0
 10
155.000000
 20
17.000004
 11
153.399994
 21
17.000004
  0
LINE
  8
0
 10
155.000000
 20
21.200008
 11
153.399994
 21
21.200008
  0
LINE
  8
0
 10
155.500183
 20
20.700157
 11
155.000183
 21
21.200165
  0
LINE
  8
0
 10
155.999985
 20
20.699997
 11
155.499985
 21
20.699997
  0
LINE
  8
0
 10
156.000000
 20
25.999996
 11
156.000000
 21
20.700008
  0
LINE
  8
0
 10
156.000000
 20
17.500011
 11
156.000000
 21
10.000000
  0
LINE
  8
0
 10
157.000000
 20
26.999975
 11
155.999985
 21
25.999966
  0
LINE
  8
0
 10
155.999985
 20
2.500000
 11
155.499985
 21
2.500000
  0
LINE
  8
0
 10
155.500137
 20
2.500126
 11
155.000153
 21
3.000113
  0
LINE
  8
0
 10
155.000000
 20
3.000002
 11
153.399994
 21
3.000002
  0
LINE
  8
0
 10
155.000000
 20
-1.200005
 11
153.399994
 21
-1.200005
  0
LINE
  8
0
 10
155.500168
 20
-0.700137
 11
155.000168
 21
-1.200127
  0
LINE
  8
0
 10
155.999985
 20
-0.699997
 11
155.499985
 21
-0.699997
  0
LINE
  8
0
 10
156.000000
 20
-5.999985
 11
156.000000
 21
-0.699986
  0
LINE
  8
0
 10
156.000000
 20
2.500011
 11
156.000000
 21
10.000000
  0
LINE
  8
0
 10
157.000031
 20
-7.000045
 11
156.000015
 21
-6.000029
  0
LINE
  8
0
 10
103.000000
 20
-6.999992
 11
103.000000
 21
-50.000000
  0
LINE
  8
0
 10
157.000000
 20
-6.999992
 11
157.000000
 21
-27.849991
  0
LINE
  8
0
 10
102.999969
 20
-50.000031
 11
104.999977
 21
-52.000046
  0
LINE
  8
0
 10
155.000000
 20
-51.999973
 11
156.999985
 21
-49.999977
  0
LINE
  8
0
 10
103.000023
 20
69.999969
 11
105.000015
 21
71.999962
  0
LINE
  8
0
 10
154.999878
 20
71.999954
 11
156.999878
 21
69.999947
  0
LINE
  8
0
 10
154.000000
 20
-27.850014
 11
157.000000
 21
-27.850014
  0
LINE
  8
0
 10
154.000000
 20
-34.149998
 11
157.000000
 21
-34.149998
  0
LINE
  8
0
 10
148.500000
 20
-25.850002
 11
154.000000
 21
-25.850002
  0
LINE
  8
0
 10
148.500000
 20
-36.149990
 11
154.000000
 21
-36.149990
  0
LINE
  8
0
 10
148.500000
 20
-25.850002
 11
148.500000
 21
-36.149990
  0
LINE
  8
0
 10
154.000000
 20
-25.850002
 11
154.000000
 21
-27.849991
  0
LINE
  8
0
 10
157.000000
 20
-34.150009
 11
157.000000
 21
-50.000000
  0
LINE
  8
0
 10
154.000000
 20
-34.149986
 11
154.000000
 21
-36.149990
  0
LINE
  8
0
 10
104.000000
 20
26.000019
 11
104.000000
 21
20.700008
  0
LINE
  8
0
 10
103.000008
 20
26.999998
 11
104.000031
 21
25.999975
  0
LINE
  8
0
  6
CENTER
 62
     2
 10
110.000000
 20
68.000000
 11
110.000000
 21
58.000000
  0
LINE
  8
0
  6
CENTER
 62
     2
 10
105.000000
 20
63.000000
 11
114.999985
 21
63.000000
  0
LINE
  8
0
 10
128.500000
 20
72.000015
 11
128.500000
 21
66.401764
  0
LINE
  8
0
 10
131.500000
 20
72.000015
 11
131.500000
 21
66.401764
  0
LINE
  8
0
 10
131.500000
 20
-52.000004
 11
131.500000
 21
-46.401760
  0
LINE
  8
0
 10
128.500000
 20
-52.000004
 11
128.500000
 21
-46.401760
  0
LINE
  8
0
 10
105.000000
 20
53.650017
 11
105.000000
 21
48.350021
  0
LINE
  8
0
 10
155.000000
 20
54.150002
 11
155.000000
 21
47.850014
  0
LINE
  8
0
 10
105.000000
 20
21.200008
 11
105.000000
 21
17.000004
  0
LINE
  8
0
 10
105.000000
 20
2.999998
 11
105.000000
 21
-1.200005
  0
LINE
  8
0
 10
155.000000
 20
2.999998
 11
155.000000
 21
-1.200005
  0
LINE
  8
0
 10
155.000000
 20
-27.850014
 11
155.000000
 21
-34.149998
  0
LINE
  8
0
 10
155.000000
 20
21.200008
 11
155.000000
 21
17.000004
  0
LINE
  8
0
 10
106.000000
 20
55.150009
 11
106.000000
 21
53.650017
  0
LINE
  8
0
 10
103.000000
 20
53.650017
 11
106.000000
 21
53.650017
  0
LINE
  8
0
 10
103.000000
 20
70.000023
 11
103.000000
 21
53.650017
  0
LINE
  8
0
 10
110.500000
 20
55.150009
 11
110.500000
 21
46.850006
  0
LINE
  8
0
 10
106.000000
 20
48.350021
 11
106.000000
 21
46.850006
  0
LINE
  8
0
 10
103.000000
 20
48.350021
 11
106.000000
 21
48.350021
  0
LINE
  8
0
 10
103.000000
 20
48.350021
 11
103.000000
 21
26.999992
  0
LINE
  8
0
 10
157.000000
 20
70.000023
 11
157.000000
 21
54.150002
  0
LINE
  8
0
 10
154.000000
 20
54.150002
 11
157.000000
 21
54.150002
  0
LINE
  8
0
 10
154.000000
 20
54.150002
 11
154.000000
 21
56.149971
  0
LINE
  8
0
 10
148.500000
 20
56.149994
 11
154.000000
 21
56.149994
  0
LINE
  8
0
 10
148.500000
 20
45.850021
 11
148.500000
 21
56.149971
  0
LINE
  8
0
 10
148.500000
 20
45.850006
 11
154.000000
 21
45.850006
  0
LINE
  8
0
 10
154.000000
 20
45.850021
 11
154.000000
 21
47.850014
  0
LINE
  8
0
 10
154.000000
 20
47.850014
 11
157.000000
 21
47.850014
  0
LINE
  8
0
 10
157.000000
 20
47.850014
 11
157.000000
 21
26.999992
  0
LINE
  8
0
  6
DASHED
 62
     2
 10
117.205132
 20
-47.845261
 11
117.568619
 21
-52.000034
  0
LINE
  8
0
  6
DASHED
 62
     2
 10
116.100006
 20
-47.845261
 11
116.100006
 21
-52.000004
  0
LINE
  8
0
  6
DASHED
 62
     2
 10
107.899994
 20
-47.845261
 11
107.899994
 21
-52.000004
  0
LINE
  8
0
  6
DASHED
 62
     2
 10
106.794838
 20
-47.845268
 11
106.431343
 21
-51.999973
  0
LINE
  8
0
  6
CENTER
 62
     2
 10
101.713425
 20
10.000000
 11
158.634415
 21
10.000000
  0
LINE
  8
0
  6
CENTER
 62
     2
 10
130.000000
 20
74.803787
 11
130.000000
 21
-55.175598
  0
LINE
  8
0
  6
CENTER
 62
     2
 10
150.000000
 20
68.000000
 11
150.000000
 21
58.000000
  0
LINE
  8
0
  6
CENTER
 62
     2
 10
155.000000
 20
63.000000
 11
145.000015
 21
63.000000
  0
LINE
  8
0
  6
CENTER
 62
     2
 10
110.000000
 20
-48.000000
 11
110.000000
 21
-38.000000
  0
LINE
  8
0
  6
CENTER
 62
     2
 10
105.000000
 20
-43.000000
 11
114.999985
 21
-43.000000
  0
LINE
  8
0
  6
CENTER
 62
     2
 10
150.000000
 20
-48.000000
 11
150.000000
 21
-38.000000
  0
LINE
  8
0
  6
CENTER
 62
     2
 10
155.000000
 20
-43.000000
 11
145.000015
 21
-43.000000
  0
LINE
  8
0
  6
CENTER
 62
     2
 10
112.000000
 20
-26.925919
 11
112.000000
 21
-32.969883
  0
LINE
  8
0
  6
CENTER
 62
     2
 10
109.009995
 20
-30.000000
 11
114.994141
 21
-30.000000
  0
LINE
  8
0
  6
CENTER
 62
     2
 10
106.000000
 20
51.000008
 11
113.007965
 21
51.000008
  0
LINE
  8
0
  6
CENTER
 62
     2
 10
145.482330
 20
51.000000
 11
154.000000
 21
51.000000
  0
LINE
  8
0
  6
CENTER
 62
     2
 10
145.259903
 20
-30.999996
 11
154.000000
 21
-30.999996
  0
LINE
  8
0
  6
CENTER
 62
     2
 10
112.000000
 20
-46.538620
 11
112.000000
 21
-54.503143
  0
LINE
  8
0
 10
106.000000
 20
55.150009
 11
110.500000
 21
55.150009
  0
LINE
  8
0
 10
106.000000
 20
46.850006
 11
110.500000
 21
46.850006
  0
LINE
  8
0
 10
-194.250000
 20
132.600006
 11
194.800003
 21
132.600006
  0
LINE
  8
0
 10
194.800003
 20
132.600006
 11
194.800003
 21
-133.500000
  0
LINE
  8
0
 10
-194.250000
 20
132.600006
 11
-194.250000
 21
-133.500000
  0
LINE
  8
0
 10
-194.250000
 20
-133.500000
 11
194.800003
 21
-133.500000
  0
LINE
  8
0
 10
109.800003
 20
-118.500000
 11
109.800003
 21
-133.500000
  0
LINE
  8
0
 10
109.800003
 20
-118.500000
 11
194.800003
 21
-118.500000
  0
LINE
  8
0
 10
109.800003
 20
132.600006
 11
109.800003
 21
117.600006
  0
LINE
  8
0
 10
109.800003
 20
117.600006
 11
194.800003
 21
117.600006
  0
LINE
  8
0
 10
-194.250000
 20
117.600006
 11
-84.250000
 21
117.600006
  0
LINE
  8
0
 10
-84.250000
 20
132.600006
 11
-84.250000
 21
117.600006
  0
LINE
  8
0
 10
-184.250000
 20
-123.500000
 11
-39.250000
 21
-123.500000
  0
LINE
  8
0
 10
-184.250000
 20
-115.500000
 11
-39.250000
 21
-115.500000
  0
LINE
  8
0
 10
-184.250000
 20
-107.500000
 11
-39.250000
 21
-107.500000
  0
LINE
  8
0
 10
-159.250000
 20
-123.500000
 11
-159.250000
 21
-92.500000
  0
LINE
  8
0
 10
-135.250000
 20
-123.500000
 11
-135.250000
 21
-92.500000
  0
LINE
  8
0
 10
-147.250000
 20
-123.500000
 11
-147.250000
 21
-92.500000
  0
LINE
  8
0
 10
-123.250000
 20
-123.500000
 11
-123.250000
 21
-92.500000
  0
LINE
  8
0
 10
-111.250000
 20
-123.500000
 11
-111.250000
 21
-92.500000
  0
LINE
  8
0
 10
-99.250000
 20
-123.500000
 11
-99.250000
 21
-92.500000
  0
LINE
  8
0
 10
-159.250046
 20
-107.500015
 11
-161.929535
 21
-97.500023
  0
LINE
  8
0
 10
-184.250000
 20
-97.500000
 11
-161.929489
 21
-97.500000
  0
LINE
  8
0
 10
-184.250000
 20
-92.500000
 11
-39.250000
 21
-92.500000
  0
LINE
  8
0
 10
-87.250000
 20
-123.500000
 11
-87.250000
 21
-92.500000
  0
LINE
  8
0
 10
-75.250000
 20
-123.500000
 11
-75.250000
 21
-92.500000
  0
LINE
  8
0
 10
-63.250000
 20
-123.500000
 11
-63.250000
 21
-92.500000
  0
LINE
  8
0
 10
-51.250000
 20
-123.500000
 11
-51.250000
 21
-92.500000
  0
LINE
  8
0
 10
-39.250000
 20
-123.500000
 11
-39.250000
 21
-92.500000
  0
LINE
  8
0
 10
-184.250000
 20
-123.500000
 11
-184.250000
 21
-92.500000
  0
ARC
  8
0
 10
-35.500000
 20
10.000000
 40
8.000003
 50
331.044952
 51
28.955101
  0
CIRCLE
  8
0
 10
-18.999985
 20
36.000004
 40
5.500000
  0
CIRCLE
  8
0
 10
11.000019
 20
36.000004
 40
5.500000
  0
CIRCLE
  8
0
  6
DASHED
 62
     2
 10
11.000019
 20
36.000004
 40
4.000000
  0
CIRCLE
  8
0
  6
DASHED
 62
     2
 10
-18.999985
 20
36.000004
 40
4.000000
  0
CIRCLE
  8
0
 10
10.999996
 20
-16.000017
 40
5.500000
  0
CIRCLE
  8
0
 10
-19.000004
 20
-16.000017
 40
5.500000
  0
CIRCLE
  8
0
  6
DASHED
 62
     2
 10
-19.000004
 20
-16.000017
 40
4.000000
  0
CIRCLE
  8
0
  6
DASHED
 62
     2
 10
10.999996
 20
-16.000017
 40
4.000000
  0
CIRCLE
  8
0
 10
-18.999985
 20
36.000004
 40
3.400000
  0
CIRCLE
  8
0
 10
11.000015
 20
36.000004
 40
3.400000
  0
CIRCLE
  8
0
 10
-18.999985
 20
-16.000004
 40
3.400000
  0
CIRCLE
  8
0
 10
11.000015
 20
-16.000004
 40
3.400000
  0
CIRCLE
  8
0
 62
     2
 10
-2.000015
 20
-30.000015
 40
4.865000
  0
CIRCLE
  8
0
 62
     2
 10
25.000000
 20
-30.000015
 40
4.865000
  0
CIRCLE
  8
0
 10
-2.000015
 20
-30.000015
 40
4.285000
  0
CIRCLE
  8
0
 10
25.000000
 20
-30.000015
 40
4.285000
  0
CIRCLE
  8
0
 10
-135.000000
 20
55.000000
 40
4.600000
  0
CIRCLE
  8
0
 10
-135.000000
 20
55.000000
 40
7.000000
  0
CIRCLE
  8
0
 10
-135.000000
 20
10.000000
 40
7.000000
  0
CIRCLE
  8
0
 10
-135.000000
 20
10.000000
 40
4.600000
  0
CIRCLE
  8
0
 10
-135.000000
 20
10.000000
 40
7.500000
  0
CIRCLE
  8
0
 10
-135.000000
 20
-35.000000
 40
7.500000
  0
CIRCLE
  8
0
 10
-135.000000
 20
55.000000
 40
7.500000
  0
CIRCLE
  8
0
 62
     2
 10
-118.000000
 20
63.000000
 40
4.000000
  0
CIRCLE
  8
0
 10
-118.000000
 20
63.000000
 40
3.375000
  0
CIRCLE
  8
0
 62
     2
 10
-118.000000
 20
-43.000000
 40
4.000000
  0
CIRCLE
  8
0
 10
-118.000000
 20
-43.000000
 40
3.375000
  0
CIRCLE
  8
0
 62
     2
 10
-152.000000
 20
63.000000
 40
4.000000
  0
CIRCLE
  8
0
 10
-152.000000
 20
63.000000
 40
3.375000
  0
CIRCLE
  8
0
 62
     2
 10
-152.000000
 20
-43.000000
 40
4.000000
  0
CIRCLE
  8
0
 10
-152.000000
 20
-43.000000
 40
3.375000
  0
CIRCLE
  8
0
 10
-135.000000
 20
-35.000000
 40
7.000000
  0
CIRCLE
  8
0
 10
-135.000000
 20
-35.000000
 40
4.600000
  0
CIRCLE
  8
0
 10
112.000000
 20
-30.000000
 40
1.500000
  0
CIRCLE
  8
0
 10
150.000000
 20
-43.000000
 40
3.375000
  0
ARC
  8
0
 10
106.600006
 20
19.100018
 40
2.100000
 50
270.000000
 51
90.000000
  0
ARC
  8
0
 10
106.600006
 20
0.899986
 40
2.100000
 50
270.000000
 51
90.000000
  0
ARC
  8
0
 10
153.399994
 20
19.100018
 40
2.100000
 50
90.000000
 51
270.000000
  0
ARC
  8
0
 10
153.399994
 20
0.899986
 40
2.100000
 50
90.000000
 51
270.000000
  0
CIRCLE
  8
0
 62
     2
 10
110.000000
 20
63.000000
 40
4.000000
  0
CIRCLE
  8
0
 10
130.000000
 20
55.000000
 40
11.500002
  0
CIRCLE
  8
0
 10
130.000000
 20
-35.000000
 40
11.500002
  0
CIRCLE
  8
0
 10
110.000000
 20
63.000000
 40
3.375000
  0
CIRCLE
  8
0
 10
130.000000
 20
10.000000
 40
14.500000
  0
CIRCLE
  8
0
 10
130.000000
 20
55.000000
 40
10.000000
  0
CIRCLE
  8
0
 10
130.000000
 20
-35.000000
 40
10.000000
  0
CIRCLE
  8
0
 62
     2
 10
150.000000
 20
63.000000
 40
4.000000
  0
CIRCLE
  8
0
 10
150.000000
 20
63.000000
 40
3.375000
  0
CIRCLE
  8
0
 62
     2
 10
110.000000
 20
-43.000000
 40
4.000000
  0
CIRCLE
  8
0
 10
110.000000
 20
-43.000000
 40
3.375000
  0
CIRCLE
  8
0
 62
     2
 10
150.000000
 20
-43.000000
 40
4.000000
  0
CIRCLE
  8
0
 10
130.000000
 20
10.000000
 40
21.000000
  0
TEXT
  8
0
 10
133.907150
 20
122.050003
 40
4.500000
  1
Ver. 1.0
 50
0.000000
 41
1.052631
 51
0.000000
  7
STANDARD
  0
TEXT
  8
0
 10
113.700279
 20
-130.669998
 40
6.300000
  1
KOGANEI CORP.
 50
0.000000
 41
1.052632
 51
0.000000
  7
STANDARD
  0
TEXT
  8
0
 10
-191.392654
 20
122.050003
 40
4.500000
  1
JIG CYLINDER WITH GUIDE
 50
0.000000
 41
1.052632
 51
0.000000
  7
STANDARD
  0
TEXT
  8
0
 10
-186.892654
 20
104.550003
 40
4.500000
  1
MODEL:SGDAY40*ST(10)
 50
0.000000
 41
1.052632
 51
0.000000
  7
STANDARD
  0
TEXT
  8
0
 10
-159.892654
 20
97.550003
 40
4.500000
  1
SGDAFY40*ST(10)
 50
0.000000
 41
1.052632
 51
0.000000
  7
STANDARD
  0
TEXT
  8
0
 10
-181.557144
 20
-96.879997
 40
3.200000
  1
STROKE
 50
0.000000
 41
1.052631
 51
0.000000
  7
STANDARD
  0
TEXT
  8
0
 10
-173.557144
 20
-113.379997
 40
3.200000
  1
A
 50
0.000000
 41
1.052631
 51
0.000000
  7
STANDARD
  0
TEXT
  8
0
 10
-184.496872
 20
-101.019997
 40
3.200000
  1
STRETCH
 50
0.000000
 41
1.052631
 51
0.000000
  7
STANDARD
  0
TEXT
  8
0
 10
-184.496872
 20
-105.820000
 40
3.200000
  1
  PLACE
 50
0.000000
 41
1.052631
 51
0.000000
  7
STANDARD
  0
TEXT
  8
0
 10
-156.657150
 20
-101.879997
 40
3.200000
  1
10
 50
0.000000
 41
1.052631
 51
0.000000
  7
STANDARD
  0
TEXT
  8
0
 10
-144.657150
 20
-101.879997
 40
3.200000
  1
20
 50
0.000000
 41
1.052631
 51
0.000000
  7
STANDARD
  0
TEXT
  8
0
 10
-132.657150
 20
-101.879997
 40
3.200000
  1
30
 50
0.000000
 41
1.052631
 51
0.000000
  7
STANDARD
  0
TEXT
  8
0
 10
-120.657158
 20
-101.879997
 40
3.200000
  1
50
 50
0.000000
 41
1.052631
 51
0.000000
  7
STANDARD
  0
TEXT
  8
0
 10
-108.657158
 20
-101.879997
 40
3.200000
  1
75
 50
0.000000
 41
1.052631
 51
0.000000
  7
STANDARD
  0
TEXT
  8
0
 10
-51.857143
 20
-91.379997
 40
3.200000
  1
(mm)
 50
0.000000
 41
1.052631
 51
0.000000
  7
STANDARD
  0
TEXT
  8
0
 10
-131.157135
 20
-91.379997
 40
3.200000
  1
STRETCH LIST
 50
0.000000
 41
1.052631
 51
0.000000
  7
STANDARD
  0
TEXT
  8
0
 10
-173.557007
 20
-121.379997
 40
3.200000
  1
B
 50
0.000000
 41
1.052632
 51
0.000000
  7
STANDARD
  0
TEXT
  8
0
 10
-98.257156
 20
-101.879997
 40
3.200000
  1
100
 50
0.000000
 41
1.052631
 51
0.000000
  7
STANDARD
  0
TEXT
  8
0
 10
-86.257156
 20
-101.879997
 40
3.200000
  1
125
 50
0.000000
 41
1.052631
 51
0.000000
  7
STANDARD
  0
TEXT
  8
0
 10
-74.257156
 20
-101.879997
 40
3.200000
  1
150
 50
0.000000
 41
1.052631
 51
0.000000
  7
STANDARD
  0
TEXT
  8
0
 10
-62.257156
 20
-101.879997
 40
3.200000
  1
175
 50
0.000000
 41
1.052631
 51
0.000000
  7
STANDARD
  0
TEXT
  8
0
 10
-50.257156
 20
-101.879997
 40
3.200000
  1
200
 50
0.000000
 41
1.052631
 51
0.000000
  7
STANDARD
  0
TEXT
  8
0
 10
-155.057007
 20
-113.379997
 40
3.200000
  1
0
 50
0.000000
 41
1.052632
 51
0.000000
  7
STANDARD
  0
TEXT
  8
0
 10
-143.057007
 20
-113.379997
 40
3.200000
  1
0
 50
0.000000
 41
1.052632
 51
0.000000
  7
STANDARD
  0
TEXT
  8
0
 10
-131.057007
 20
-113.379997
 40
3.200000
  1
0
 50
0.000000
 41
1.052632
 51
0.000000
  7
STANDARD
  0
TEXT
  8
0
 10
-119.056999
 20
-113.379997
 40
3.200000
  1
0
 50
0.000000
 41
1.052632
 51
0.000000
  7
STANDARD
  0
TEXT
  8
0
 10
-108.656998
 20
-113.379997
 40
3.200000
  1
25
 50
0.000000
 41
1.052632
 51
0.000000
  7
STANDARD
  0
TEXT
  8
0
 10
-96.656998
 20
-113.379997
 40
3.200000
  1
50
 50
0.000000
 41
1.052632
 51
0.000000
  7
STANDARD
  0
TEXT
  8
0
 10
-84.656998
 20
-113.379997
 40
3.200000
  1
25
 50
0.000000
 41
1.052632
 51
0.000000
  7
STANDARD
  0
TEXT
  8
0
 10
-72.656998
 20
-113.379997
 40
3.200000
  1
50
 50
0.000000
 41
1.052632
 51
0.000000
  7
STANDARD
  0
TEXT
  8
0
 10
-60.657001
 20
-113.379997
 40
3.200000
  1
75
 50
0.000000
 41
1.052632
 51
0.000000
  7
STANDARD
  0
TEXT
  8
0
 10
-50.257000
 20
-113.379997
 40
3.200000
  1
100
 50
0.000000
 41
1.052632
 51
0.000000
  7
STANDARD
  0
TEXT
  8
0
 10
-155.057007
 20
-121.379997
 40
3.200000
  1
0
 50
0.000000
 41
1.052632
 51
0.000000
  7
STANDARD
  0
TEXT
  8
0
 10
-144.656998
 20
-121.379997
 40
3.200000
  1
10
 50
0.000000
 41
1.052632
 51
0.000000
  7
STANDARD
  0
TEXT
  8
0
 10
-132.656998
 20
-121.379997
 40
3.200000
  1
20
 50
0.000000
 41
1.052632
 51
0.000000
  7
STANDARD
  0
TEXT
  8
0
 10
-120.656998
 20
-121.379997
 40
3.200000
  1
40
 50
0.000000
 41
1.052632
 51
0.000000
  7
STANDARD
  0
TEXT
  8
0
 10
-108.656998
 20
-121.379997
 40
3.200000
  1
40
 50
0.000000
 41
1.052632
 51
0.000000
  7
STANDARD
  0
TEXT
  8
0
 10
-96.656998
 20
-121.379997
 40
3.200000
  1
40
 50
0.000000
 41
1.052632
 51
0.000000
  7
STANDARD
  0
TEXT
  8
0
 10
-84.656998
 20
-121.379997
 40
3.200000
  1
90
 50
0.000000
 41
1.052632
 51
0.000000
  7
STANDARD
  0
TEXT
  8
0
 10
-72.656998
 20
-121.379997
 40
3.200000
  1
90
 50
0.000000
 41
1.052632
 51
0.000000
  7
STANDARD
  0
TEXT
  8
0
 10
-60.657001
 20
-121.379997
 40
3.200000
  1
90
 50
0.000000
 41
1.052632
 51
0.000000
  7
STANDARD
  0
TEXT
  8
0
 10
-48.657001
 20
-121.379997
 40
3.200000
  1
90
 50
0.000000
 41
1.052632
 51
0.000000
  7
STANDARD
  0
TEXT
  8
0
 62
     3
 10
10.992857
 20
90.720009
 40
3.200000
  1
STRETCH LINE A
 50
0.000000
 41
1.052631
 51
0.000000
  7
STANDARD
  0
TEXT
  8
0
 62
     3
 10
-10.807000
 20
99.920006
 40
3.200000
  1
STRETCH LINE B
 50
0.000000
 41
1.052632
 51
0.000000
  7
STANDARD
  0
TEXT
  8
0
 62
     2
 10
72.578308
 20
-70.999992
 40
3.200000
  1
STROKE=75-200
 50
0.000000
 41
1.052632
 51
0.000000
  7
STANDARD
  0
LINE
  8
0
 62
     2
 10
70.000015
 20
-71.999992
 11
113.928314
 21
-71.999992
  0
LINE
  8
0
 62
     2
 10
37.999985
 20
-71.999992
 11
70.000015
 21
-71.999992
  0
LINE
  8
0
 62
     2
 10
37.999985
 20
-71.999992
 11
40.897762
 21
-71.223534
  0
LINE
  8
0
 62
     2
 10
37.999985
 20
-71.999992
 11
40.897762
 21
-72.776451
  0
LINE
  8
0
 62
     2
 10
70.000015
 20
-71.999992
 11
67.102242
 21
-72.776451
  0
LINE
  8
0
 62
     2
 10
70.000015
 20
-71.999992
 11
67.102242
 21
-71.223534
  0
LINE
  8
0
 62
     2
 10
37.999985
 20
-51.499985
 11
37.999985
 21
-73.499992
  0
LINE
  8
0
 62
     2
 10
70.000015
 20
-44.500000
 11
70.000015
 21
-73.499992
  0
ENDSEC
  0
EOF
