  0
SECTION
  2
HEADER
  0
ENDSEC
  0
SECTION
  2
TABLES
  0
TABLE
  2
LTYPE
 70
     4
  0
LTYPE
  2
CONTINUOUS
 70
    64
  3
Solid line
 72
    65
 73
     0
 40
0.000000
  0
LTYPE
  2
DASHED
 70
    64
  3
__ __ __ __ __ __ __ __ __ __ __ __ __ __ __
 72
    65
 73
     2
 40
3.500000
 49
2.000000
 49
-1.500000
  0
LTYPE
  2
CENTER
 70
    64
  3
____ _ ____ _ ____ _ ____ _ ____ _ ____ _ ____
 72
    65
 73
     4
 40
17.500000
 49
13.000000
 49
-1.500000
 49
1.500000
 49
-1.500000
  0
LTYPE
  2
PHANTOM
 70
    64
  3
_____ _ _ _____ _ _ _____ _ _ _____ _ _ ____  
 72
    65
 73
     6
 40
15.500000
 49
8.000000
 49
-1.500000
 49
1.500000
 49
-1.500000
 49
1.500000
 49
-1.500000
  0
LTYPE
  2
DASHED1
 70
    64
  3
__ __ __ __ __ __ __ __ __ __ __ __ __ __ __
 72
    65
 73
     2
 40
1.500000
 49
1.000000
 49
-0.500000
  0
LTYPE
  2
DASHED2
 70
    64
  3
__ __ __ __ __ __ __ __ __ __ __ __ __ __ __
 72
    65
 73
     2
 40
3.500000
 49
2.500000
 49
-1.000000
  0
LTYPE
  2
DASHED3
 70
    64
  3
__ __ __ __ __ __ __ __ __ __ __ __ __ __ __
 72
    65
 73
     2
 40
6.000000
 49
4.000000
 49
-2.000000
  0
LTYPE
  2
DASHED4
 70
    64
  3
__ __ __ __ __ __ __ __ __ __ __ __ __ __ __
 72
    65
 73
     2
 40
12.000000
 49
10.000000
 49
-2.000000
  0
LTYPE
  2
DASHED5
 70
    64
  3
__ __ __ __ __ __ __ __ __ __ __ __ __ __ __
 72
    65
 73
     2
 40
17.000000
 49
15.000000
 49
-2.000000
  0
LTYPE
  2
DASHED6
 70
    64
  3
__ __ __ __ __ __ __ __ __ __ __ __ __ __ __
 72
    65
 73
     2
 40
29.000000
 49
27.000000
 49
-2.000000
  0
LTYPE
  2
PHANTOM1
 70
    64
  3
_____ _ _ _____ _ _ _____ _ _ _____ _ _ ____  
 72
    65
 73
     6
 40
31.000000
 49
25.000000
 49
-1.500000
 49
1.000000
 49
-1.000000
 49
1.000000
 49
-1.500000
  0
LTYPE
  2
PHANTOM2
 70
    64
  3
_____ _ _ _____ _ _ _____ _ _ _____ _ _ ____  
 72
    65
 73
     6
 40
36.000000
 49
27.000000
 49
-1.500000
 49
2.500000
 49
-1.000000
 49
2.500000
 49
-1.500000
  0
LTYPE
  2
PHANTOM3
 70
    64
  3
_____ _ _ _____ _ _ _____ _ _ _____ _ _ ____  
 72
    65
 73
     6
 40
78.000000
 49
64.000000
 49
-2.000000
 49
4.000000
 49
-2.000000
 49
4.000000
 49
-2.000000
  0
LTYPE
  2
CENTER1
 70
    64
  3
____ _ ____ _ ____ _ ____ _ ____ _ ____ _ ____
 72
    65
 73
     4
 40
19.000000
 49
14.000000
 49
-1.000000
 49
3.000000
 49
-1.000000
  0
LTYPE
  2
CENTER2
 70
    64
  3
____ _ ____ _ ____ _ ____ _ ____ _ ____ _ ____
 72
    65
 73
     4
 40
28.500000
 49
25.000000
 49
-1.000000
 49
1.500000
 49
-1.000000
  0
LTYPE
  2
CENTER3
 70
    64
  3
____ _ ____ _ ____ _ ____ _ ____ _ ____ _ ____
 72
    65
 73
     4
 40
31.500000
 49
27.000000
 49
-1.000000
 49
2.500000
 49
-1.000000
  0
LTYPE
  2
CENTER4
 70
    64
  3
____ _ ____ _ ____ _ ____ _ ____ _ ____ _ ____
 72
    65
 73
     4
 40
50.000000
 49
45.000000
 49
-1.000000
 49
3.000000
 49
-1.000000
  0
LTYPE
  2
CENTER5
 70
    64
  3
____ _ ____ _ ____ _ ____ _ ____ _ ____ _ ____
 72
    65
 73
     4
 40
100.000000
 49
92.000000
 49
-2.000000
 49
4.000000
 49
-2.000000
  0
LTYPE
  2
SBK1
 70
    64
  3
______ _ _ _ ______ _ _ _ ______ _ _ _ _____  
 72
    65
 73
     8
 40
60.500000
 49
45.000000
 49
-2.000000
 49
2.500000
 49
-2.000000
 49
2.500000
 49
-2.000000
 49
2.500000
 49
-2.000000
  0
LTYPE
  2
SBK2
 70
    64
  3
______ _ _ _ ______ _ _ _ ______ _ _ _ _____  
 72
    65
 73
     8
 40
84.000000
 49
64.000000
 49
-2.000000
 49
4.000000
 49
-2.000000
 49
4.000000
 49
-2.000000
 49
4.000000
 49
-2.000000
  0
LTYPE
  2
STCH
 70
    64
  3
__ __ __ __ __ __ __ __ __ __ __ __ __ __ __
 72
    65
 73
     2
 40
3.000000
 49
1.000000
 49
-2.000000
  0
LTYPE
  2
MTCH
 70
    64
  3
_____ _ _ _____ _ _ _____ _ _ _____ _ _ ____  
 72
    65
 73
     6
 40
80.000000
 49
66.000000
 49
-2.000000
 49
4.000000
 49
-2.000000
 49
4.000000
 49
-2.000000
  0
ENDTAB
  0
TABLE
  2
LAYER
 70
     1
  0
LAYER
  2
0
 70
     0
 62
     7
  6
CONTINUOUS
  0
ENDTAB
  0
TABLE
  2
STYLE
 70
     1
  0
STYLE
  2
STANDARD
 70
     0
 40
0.000000
 41
1.000000
 50
0.000000
 71
     0
 42
0.200000
  3
txt
  4
BIGFONT
  0
ENDTAB
  0
TABLE
  2
VIEW
 70
     0
  0
ENDTAB
  0
ENDSEC
  0
SECTION
  2
BLOCKS
  0
ENDSEC
  0
SECTION
  2
ENTITIES
  0
LINE
  8
0
 10
-34.999996
 20
17.999996
 11
-31.000000
 21
17.999996
  0
LINE
  8
0
 10
-34.999996
 20
1.999997
 11
-31.000000
 21
1.999997
  0
LINE
  8
0
  6
CENTER
 62
     2
 10
-53.005177
 20
-30.000000
 11
-27.749996
 21
-30.000000
  0
LINE
  8
0
 10
-49.000031
 20
-46.000000
 11
-35.999966
 21
-46.000000
  0
LINE
  8
0
 10
-34.999996
 20
-45.000004
 11
-34.999996
 21
65.000046
  0
LINE
  8
0
 10
-48.999996
 20
66.000000
 11
-36.000000
 21
66.000000
  0
LINE
  8
0
 10
-49.999996
 20
65.000000
 11
-49.999996
 21
-45.000004
  0
LINE
  8
0
  6
CENTER
 62
     2
 10
-53.005177
 20
49.999996
 11
-27.314209
 21
49.999996
  0
LINE
  8
0
 10
-34.999996
 20
6.127015
 11
-33.500000
 21
6.127015
  0
LINE
  8
0
 10
-33.499996
 20
6.127015
 11
-33.499996
 21
13.872972
  0
LINE
  8
0
 10
-33.499966
 20
6.127034
 11
-34.999996
 21
11.936621
  0
LINE
  8
0
 10
-33.499992
 20
13.872867
 11
-34.999969
 21
8.063480
  0
LINE
  8
0
 10
-48.999947
 20
65.999916
 11
-49.999947
 21
64.999916
  0
LINE
  8
0
 10
-35.999969
 20
66.000061
 11
-34.999943
 21
65.000023
  0
LINE
  8
0
 10
-50.000053
 20
-45.000053
 11
-49.000057
 21
-46.000061
  0
LINE
  8
0
 10
-35.000050
 20
-45.000011
 11
-36.000023
 21
-46.000000
  0
LINE
  8
0
 10
-31.000019
 20
40.349987
 11
29.000034
 21
40.349987
  0
LINE
  8
0
 10
-31.000015
 20
45.649975
 11
29.000034
 21
45.649975
  0
LINE
  8
0
 10
-30.012974
 20
66.999992
 11
28.013020
 21
66.999992
  0
LINE
  8
0
 10
-31.000019
 20
22.500019
 11
29.000034
 21
22.500019
  0
LINE
  8
0
 10
-31.000019
 20
20.700005
 11
29.000034
 21
20.700005
  0
LINE
  8
0
 10
-31.000019
 20
17.499996
 11
29.000034
 21
17.499996
  0
LINE
  8
0
 10
28.013000
 20
67.000046
 11
29.000000
 21
66.013046
  0
LINE
  8
0
 10
-30.012856
 20
66.999863
 11
-30.999844
 21
66.012878
  0
LINE
  8
0
  6
CENTER
 62
     2
 10
-17.216908
 20
31.999989
 11
-31.000000
 21
31.999989
  0
LINE
  8
0
 10
-34.999996
 20
13.872872
 11
-33.500000
 21
13.872872
  0
LINE
  8
0
 10
-31.000000
 20
64.999947
 11
29.000050
 21
64.999947
  0
LINE
  8
0
  6
DASHED
 62
     2
 10
29.000050
 20
-19.999996
 11
64.500046
 21
-19.999996
  0
LINE
  8
0
  6
DASHED
 62
     2
 10
29.000050
 20
-40.000004
 11
64.500046
 21
-40.000004
  0
LINE
  8
0
  6
DASHED
 62
     2
 10
65.000046
 20
-20.499989
 11
65.000046
 21
-39.500008
  0
LINE
  8
0
  6
DASHED
 62
     2
 10
64.500046
 20
-20.000004
 11
65.000053
 21
-20.500002
  0
LINE
  8
0
  6
DASHED
 62
     2
 10
65.000038
 20
-39.499985
 11
64.500038
 21
-39.999985
  0
LINE
  8
0
  6
DASHED
 62
     2
 10
64.500031
 20
-19.999996
 11
64.500031
 21
-40.000004
  0
LINE
  8
0
  6
DASHED
 62
     2
 10
29.000050
 20
59.999996
 11
64.500046
 21
59.999996
  0
LINE
  8
0
  6
DASHED
 62
     2
 10
29.000050
 20
39.999989
 11
64.500046
 21
39.999989
  0
LINE
  8
0
  6
DASHED
 62
     2
 10
65.000046
 20
59.500004
 11
65.000046
 21
40.499989
  0
LINE
  8
0
  6
DASHED
 62
     2
 10
64.500015
 20
59.999969
 11
65.000015
 21
59.499973
  0
LINE
  8
0
  6
DASHED
 62
     2
 10
65.000053
 20
40.499992
 11
64.500053
 21
39.999996
  0
LINE
  8
0
  6
DASHED
 62
     2
 10
64.500031
 20
59.999996
 11
64.500031
 21
39.999996
  0
LINE
  8
0
 10
-34.999996
 20
-40.000015
 11
-31.000000
 21
-40.000015
  0
LINE
  8
0
 10
-34.999996
 20
-20.000015
 11
-31.000000
 21
-20.000015
  0
LINE
  8
0
 10
-34.999996
 20
59.999989
 11
-31.000000
 21
59.999989
  0
LINE
  8
0
 10
-34.999996
 20
39.999989
 11
-31.000000
 21
39.999989
  0
LINE
  8
0
  6
CENTER
 62
     2
 10
33.230015
 20
9.999997
 11
-52.744492
 21
9.999997
  0
LINE
  8
0
 10
-30.012974
 20
-47.000019
 11
28.013020
 21
-47.000019
  0
LINE
  8
0
 10
-31.000004
 20
-4.500016
 11
29.000019
 21
-4.500016
  0
LINE
  8
0
 10
-31.000004
 20
-2.500047
 11
29.000019
 21
-2.500047
  0
LINE
  8
0
 10
-31.000004
 20
-0.700009
 11
29.000019
 21
-0.700009
  0
LINE
  8
0
 10
-31.000004
 20
2.499997
 11
29.000019
 21
2.499997
  0
LINE
  8
0
 10
-31.000000
 20
66.012947
 11
-31.000000
 21
-45.986965
  0
LINE
  8
0
 10
28.013063
 20
-47.000065
 11
29.000069
 21
-46.013065
  0
LINE
  8
0
 10
-30.012959
 20
-46.999947
 11
-30.999947
 21
-46.012966
  0
LINE
  8
0
  6
CENTER
 62
     2
 10
-24.000008
 20
-4.385007
 11
-24.000008
 21
-18.907871
  0
LINE
  8
0
  6
CENTER
 62
     2
 10
-16.950386
 20
-11.999995
 11
-31.000000
 21
-11.999995
  0
LINE
  8
0
  6
CENTER
 62
     2
 10
5.999981
 20
-4.385007
 11
5.999981
 21
-18.907871
  0
LINE
  8
0
  6
DASHED
 62
     2
 10
-6.999996
 20
-45.999977
 11
-15.000019
 21
-45.999977
  0
LINE
  8
0
  6
DASHED
 62
     2
 10
-16.000034
 20
-47.000000
 11
-15.000030
 21
-45.999996
  0
LINE
  8
0
  6
DASHED
 62
     2
 10
-15.000027
 20
-46.000000
 11
-15.000027
 21
-43.103374
  0
LINE
  8
0
  6
DASHED
 62
     2
 10
-15.999926
 20
-47.000038
 11
-15.795710
 21
-43.103371
  0
LINE
  8
0
  6
DASHED
 62
     2
 10
-6.999992
 20
-46.000000
 11
-6.999992
 21
-43.103374
  0
LINE
  8
0
  6
DASHED
 62
     2
 10
-5.999878
 20
-46.999977
 11
-6.204092
 21
-43.103374
  0
LINE
  8
0
  6
DASHED
 62
     2
 10
-6.000082
 20
-47.000088
 11
-7.000094
 21
-46.000076
  0
LINE
  8
0
  6
CENTER
 62
     2
 10
-8.000011
 20
-32.148163
 11
-8.000011
 21
-18.309631
  0
LINE
  8
0
  6
CENTER
 62
     2
 10
-1.433281
 20
-25.000004
 11
-14.528099
 21
-25.000004
  0
LINE
  8
0
  6
CENTER
 62
     2
 10
23.800220
 20
-25.000004
 11
10.398586
 21
-25.000004
  0
LINE
  8
0
  6
CENTER
 62
     2
 10
17.000011
 20
-32.021507
 11
17.000011
 21
-18.655201
  0
LINE
  8
0
  6
CENTER
 62
     2
 10
13.830658
 20
-12.000016
 11
-0.901512
 21
-12.000016
  0
LINE
  8
0
  6
CENTER
 62
     2
 10
4.000011
 20
-41.840424
 11
4.000011
 21
-49.366589
  0
LINE
  8
0
  6
DASHED
 62
     2
 10
-0.999959
 20
-47.000011
 11
-0.795745
 21
-43.103378
  0
LINE
  8
0
  6
DASHED
 62
     2
 10
-0.000004
 20
-46.000000
 11
-0.000004
 21
-43.103374
  0
LINE
  8
0
  6
DASHED
 62
     2
 10
8.000011
 20
-45.999977
 11
-0.000004
 21
-45.999977
  0
LINE
  8
0
  6
DASHED
 62
     2
 10
-1.000020
 20
-46.999996
 11
-0.000010
 21
-45.999989
  0
LINE
  8
0
  6
DASHED
 62
     2
 10
8.999918
 20
-47.000095
 11
7.999923
 21
-46.000099
  0
LINE
  8
0
  6
DASHED
 62
     2
 10
8.000019
 20
-46.000000
 11
8.000019
 21
-43.103374
  0
LINE
  8
0
  6
DASHED
 62
     2
 10
9.000127
 20
-47.000008
 11
8.795912
 21
-43.103378
  0
LINE
  8
0
  6
CENTER
 62
     2
 10
-11.000019
 20
-48.239468
 11
-11.000019
 21
-41.707481
  0
LINE
  8
0
 10
-31.000004
 20
-45.000004
 11
29.000019
 21
-45.000004
  0
LINE
  8
0
 10
29.000011
 20
66.013008
 11
29.000011
 21
-46.013012
  0
LINE
  8
0
  6
CENTER
 62
     2
 10
6.000023
 20
39.357243
 11
6.000023
 21
24.989899
  0
LINE
  8
0
  6
CENTER
 62
     2
 10
-23.999985
 20
39.510708
 11
-23.999985
 21
25.120602
  0
LINE
  8
0
  6
CENTER
 62
     2
 10
-1.008396
 20
31.999989
 11
13.608952
 21
31.999989
  0
LINE
  8
0
  6
PHANTOM
 62
     3
 10
-3.999996
 20
86.999992
 11
-3.999996
 21
-17.180004
  0
LINE
  8
0
  6
PHANTOM
 62
     3
 10
15.000004
 20
76.999992
 11
15.000004
 21
-19.080006
  0
LINE
  8
0
  6
PHANTOM
 62
     3
 10
-3.999996
 20
-17.180004
 11
0.000008
 21
-17.180004
  0
LINE
  8
0
  6
PHANTOM
 62
     3
 10
9.000008
 20
-19.080006
 11
9.000008
 21
-35.180004
  0
LINE
  8
0
  6
PHANTOM
 62
     3
 10
0.000008
 20
-17.180004
 11
0.000008
 21
-32.180004
  0
LINE
  8
0
  6
PHANTOM
 62
     3
 10
9.000008
 20
-19.080006
 11
15.000004
 21
-19.080006
  0
LINE
  8
0
  6
PHANTOM
 62
     3
 10
-1.999992
 20
-35.180004
 11
9.000008
 21
-35.180004
  0
LINE
  8
0
  6
PHANTOM
 62
     3
 10
-1.999992
 20
-35.180004
 11
-1.999992
 21
-54.000019
  0
LINE
  8
0
  6
PHANTOM
 62
     3
 10
-4.499996
 20
-32.180004
 11
0.000008
 21
-32.180004
  0
LINE
  8
0
  6
PHANTOM
 62
     3
 10
-4.499996
 20
-32.180004
 11
-4.499996
 21
-54.000019
  0
LINE
  8
0
 10
-121.000000
 20
64.999908
 11
-121.000000
 21
45.649971
  0
LINE
  8
0
  6
CENTER
 62
     2
 10
-119.180481
 20
9.999992
 11
-171.042480
 21
9.999992
  0
LINE
  8
0
 10
-122.999992
 20
22.500019
 11
-121.000000
 21
24.500010
  0
LINE
  8
0
 10
-123.000046
 20
-2.500071
 11
-121.087349
 21
-4.412753
  0
LINE
  8
0
 10
-121.000015
 20
45.649971
 11
-123.000000
 21
45.649971
  0
LINE
  8
0
 10
-121.000015
 20
40.349983
 11
-123.000000
 21
40.349983
  0
LINE
  8
0
 10
-121.000000
 20
40.349983
 11
-121.000000
 21
24.499920
  0
LINE
  8
0
 10
-166.999969
 20
22.500038
 11
-168.999939
 21
24.500006
  0
LINE
  8
0
 10
-167.000076
 20
-2.500015
 11
-168.912766
 21
-4.412697
  0
LINE
  8
0
 10
-168.999985
 20
64.999886
 11
-168.999985
 21
45.649971
  0
LINE
  8
0
 10
-168.999985
 20
40.349983
 11
-168.999985
 21
24.499920
  0
LINE
  8
0
 10
-168.999985
 20
-45.000092
 11
-168.999985
 21
-25.649986
  0
LINE
  8
0
 10
-168.999985
 20
-20.350000
 11
-168.999985
 21
-4.500086
  0
LINE
  8
0
 10
-123.000015
 20
66.999985
 11
-167.000046
 21
66.999985
  0
LINE
  8
0
 10
-122.999985
 20
-47.000000
 11
-167.000015
 21
-47.000000
  0
LINE
  8
0
 10
-169.000000
 20
-45.000031
 11
-167.000000
 21
-47.000034
  0
LINE
  8
0
 10
-168.999969
 20
64.999878
 11
-166.999969
 21
66.999863
  0
LINE
  8
0
 10
-121.000015
 20
-45.000019
 11
-123.000008
 21
-47.000015
  0
LINE
  8
0
 10
-121.000114
 20
64.999908
 11
-123.000130
 21
66.999924
  0
LINE
  8
0
 10
-121.000000
 20
-45.000092
 11
-121.000000
 21
-4.500086
  0
LINE
  8
0
 10
-169.000015
 20
45.649971
 11
-167.000000
 21
45.649971
  0
LINE
  8
0
 10
-169.000015
 20
40.349983
 11
-167.000000
 21
40.349983
  0
LINE
  8
0
 10
-169.000015
 20
-25.649986
 11
-167.000000
 21
-25.649986
  0
LINE
  8
0
 10
-169.000015
 20
-20.350000
 11
-167.000000
 21
-20.350000
  0
LINE
  8
0
 10
-166.000000
 20
65.999992
 11
-124.000015
 21
65.999992
  0
LINE
  8
0
 10
-166.000000
 20
-46.000008
 11
-124.000015
 21
-46.000008
  0
LINE
  8
0
 10
-165.999985
 20
65.999954
 11
-166.999985
 21
64.999954
  0
LINE
  8
0
 10
-123.999908
 20
66.000107
 11
-122.999901
 21
65.000092
  0
LINE
  8
0
 10
-167.000000
 20
-44.999996
 11
-166.000000
 21
-46.000000
  0
LINE
  8
0
 10
-123.000031
 20
-44.999966
 11
-124.000031
 21
-45.999969
  0
LINE
  8
0
  6
CENTER
 62
     2
 10
-131.000000
 20
-43.579910
 11
-131.000000
 21
-32.112007
  0
LINE
  8
0
  6
CENTER
 62
     2
 10
-153.574448
 20
57.999992
 11
-164.375610
 21
57.999992
  0
LINE
  8
0
  6
CENTER
 62
     2
 10
-159.000015
 20
-43.579910
 11
-159.000015
 21
-32.112007
  0
LINE
  8
0
  6
CENTER
 62
     2
 10
-153.574448
 20
-38.000008
 11
-164.375610
 21
-38.000008
  0
LINE
  8
0
 10
-145.000061
 20
-27.113224
 11
-147.500061
 21
-28.556602
  0
LINE
  8
0
 10
-147.500000
 20
-28.556629
 11
-147.500000
 21
-31.443386
  0
LINE
  8
0
 10
-145.000031
 20
-32.886810
 11
-147.500015
 21
-31.443445
  0
LINE
  8
0
 10
-142.500031
 20
-31.443344
 11
-145.000031
 21
-32.886719
  0
LINE
  8
0
 10
-142.500000
 20
-28.556633
 11
-142.500000
 21
-31.443386
  0
LINE
  8
0
 10
-145.000061
 20
-27.113289
 11
-142.500061
 21
-28.556664
  0
LINE
  8
0
 10
-147.500000
 20
51.443375
 11
-147.500000
 21
48.556618
  0
LINE
  8
0
 10
-145.000015
 20
47.113228
 11
-147.500015
 21
48.556599
  0
LINE
  8
0
 10
-142.500031
 20
48.556698
 11
-145.000031
 21
47.113323
  0
LINE
  8
0
 10
-142.500000
 20
51.443367
 11
-142.500000
 21
48.556618
  0
LINE
  8
0
 10
-145.000015
 20
52.886745
 11
-142.500031
 21
51.443363
  0
LINE
  8
0
 10
-145.000031
 20
52.886772
 11
-147.500031
 21
51.443401
  0
LINE
  8
0
 10
-147.500000
 20
11.443371
 11
-147.500000
 21
8.556614
  0
LINE
  8
0
 10
-145.000000
 20
7.113210
 11
-147.500000
 21
8.556581
  0
LINE
  8
0
 10
-142.500046
 20
8.556665
 11
-145.000031
 21
7.113297
  0
LINE
  8
0
 10
-142.500000
 20
11.443367
 11
-142.500000
 21
8.556614
  0
LINE
  8
0
 10
-145.000015
 20
12.886714
 11
-142.500046
 21
11.443352
  0
LINE
  8
0
 10
-145.000015
 20
12.886803
 11
-147.500046
 21
11.443417
  0
LINE
  8
0
 10
-167.000000
 20
64.999992
 11
-167.000000
 21
-45.000008
  0
LINE
  8
0
 10
-123.000000
 20
64.999992
 11
-123.000000
 21
-45.000008
  0
LINE
  8
0
  6
CENTER
 62
     2
 10
-145.000000
 20
71.249992
 11
-145.000000
 21
-51.449715
  0
LINE
  8
0
  6
CENTER
 62
     2
 10
-159.000015
 20
63.259895
 11
-159.000015
 21
52.598404
  0
LINE
  8
0
  6
CENTER
 62
     2
 10
-131.000000
 20
63.428230
 11
-131.000000
 21
52.486183
  0
LINE
  8
0
  6
CENTER
 62
     2
 10
-136.387970
 20
57.999992
 11
-125.614258
 21
57.999992
  0
LINE
  8
0
  6
CENTER
 62
     2
 10
-153.726898
 20
49.999992
 11
-135.995178
 21
49.999992
  0
LINE
  8
0
  6
CENTER
 62
     2
 10
-153.957397
 20
-30.000008
 11
-135.953888
 21
-30.000008
  0
LINE
  8
0
  6
CENTER
 62
     2
 10
-136.381088
 20
-38.000008
 11
-125.273849
 21
-38.000008
  0
LINE
  8
0
 10
111.000000
 20
64.999992
 11
111.000000
 21
45.649994
  0
LINE
  8
0
  6
CENTER
 62
     2
 10
106.770004
 20
9.999992
 11
163.229980
 21
9.999992
  0
LINE
  8
0
 10
113.000015
 20
17.499992
 11
113.500000
 21
17.499992
  0
LINE
  8
0
 10
113.499985
 20
17.499943
 11
113.999977
 21
16.999954
  0
LINE
  8
0
 10
114.000015
 20
16.999985
 11
115.600006
 21
16.999985
  0
LINE
  8
0
 10
114.000015
 20
21.199989
 11
115.600006
 21
21.199989
  0
LINE
  8
0
 10
113.499847
 20
20.700142
 11
113.999863
 21
21.200151
  0
LINE
  8
0
 10
113.000015
 20
20.699978
 11
113.500000
 21
20.699978
  0
LINE
  8
0
 10
113.000008
 20
22.500029
 11
111.000023
 21
24.500004
  0
LINE
  8
0
 10
113.000015
 20
2.499992
 11
113.500000
 21
2.499992
  0
LINE
  8
0
 10
113.499954
 20
2.500050
 11
113.999954
 21
3.000059
  0
LINE
  8
0
 10
114.000015
 20
3.000000
 11
115.600006
 21
3.000000
  0
LINE
  8
0
 10
114.000015
 20
-1.200001
 11
115.600006
 21
-1.200001
  0
LINE
  8
0
 10
113.499931
 20
-0.700068
 11
113.999947
 21
-1.200083
  0
LINE
  8
0
 10
113.000015
 20
-0.700014
 11
113.500000
 21
-0.700014
  0
LINE
  8
0
 10
113.000015
 20
22.500031
 11
113.000015
 21
-2.500008
  0
LINE
  8
0
 10
112.999992
 20
-2.500048
 11
111.087296
 21
-4.412736
  0
LINE
  8
0
 10
118.500015
 20
47.150002
 11
118.500015
 21
38.849998
  0
LINE
  8
0
 10
114.000015
 20
47.150002
 11
114.000015
 21
45.649994
  0
LINE
  8
0
 10
111.000000
 20
45.649994
 11
114.000015
 21
45.649994
  0
LINE
  8
0
 10
111.000000
 20
40.349991
 11
114.000015
 21
40.349991
  0
LINE
  8
0
 10
111.000000
 20
40.349991
 11
111.000000
 21
24.499985
  0
LINE
  8
0
 10
114.000015
 20
40.349991
 11
114.000015
 21
38.849998
  0
LINE
  8
0
 10
157.000000
 20
17.499992
 11
156.500000
 21
17.499992
  0
LINE
  8
0
 10
156.500061
 20
17.499928
 11
156.000076
 21
16.999935
  0
LINE
  8
0
 10
155.999985
 20
16.999985
 11
154.399994
 21
16.999985
  0
LINE
  8
0
 10
156.000000
 20
21.199989
 11
154.399994
 21
21.199989
  0
LINE
  8
0
 10
156.500107
 20
20.700094
 11
156.000092
 21
21.200104
  0
LINE
  8
0
 10
157.000000
 20
20.699978
 11
156.500000
 21
20.699978
  0
LINE
  8
0
 10
157.000015
 20
22.500029
 11
159.000000
 21
24.500015
  0
LINE
  8
0
 10
157.000000
 20
2.499992
 11
156.500000
 21
2.499992
  0
LINE
  8
0
 10
156.500015
 20
2.500010
 11
156.000015
 21
3.000012
  0
LINE
  8
0
 10
155.999985
 20
3.000000
 11
154.399994
 21
3.000000
  0
LINE
  8
0
 10
155.999985
 20
-1.200001
 11
154.399994
 21
-1.200001
  0
LINE
  8
0
 10
156.500076
 20
-0.700095
 11
156.000076
 21
-1.200096
  0
LINE
  8
0
 10
157.000000
 20
-0.700014
 11
156.500000
 21
-0.700014
  0
LINE
  8
0
 10
157.000000
 20
22.500069
 11
157.000000
 21
-2.500029
  0
LINE
  8
0
 10
157.000076
 20
-2.499986
 11
158.912781
 21
-4.412670
  0
LINE
  8
0
 10
158.999985
 20
64.999992
 11
158.999985
 21
45.649994
  0
LINE
  8
0
 10
158.999985
 20
40.349991
 11
158.999985
 21
24.499985
  0
LINE
  8
0
 10
158.999985
 20
-45.000008
 11
158.999985
 21
-25.650009
  0
LINE
  8
0
 10
158.999985
 20
-20.350000
 11
158.999985
 21
-4.500021
  0
LINE
  8
0
 10
113.000015
 20
66.999985
 11
157.000000
 21
66.999985
  0
LINE
  8
0
 10
112.999985
 20
-47.000023
 11
156.999985
 21
-47.000023
  0
LINE
  8
0
 10
158.999969
 20
-44.999989
 11
156.999985
 21
-46.999977
  0
LINE
  8
0
 10
159.000076
 20
65.000031
 11
157.000076
 21
67.000015
  0
LINE
  8
0
 10
111.000031
 20
-44.999985
 11
113.000023
 21
-46.999977
  0
LINE
  8
0
 10
111.000031
 20
64.999954
 11
113.000069
 21
66.999985
  0
LINE
  8
0
 10
111.000000
 20
-45.000008
 11
111.000000
 21
-4.499998
  0
LINE
  8
0
  6
CENTER
 62
     2
 10
121.600800
 20
-30.000008
 11
148.419373
 21
-30.000008
  0
LINE
  8
0
  6
CENTER
 62
     2
 10
135.000000
 20
71.230003
 11
135.000000
 21
-51.230019
  0
LINE
  8
0
  6
CENTER
 62
     2
 10
146.636581
 20
-40.000008
 11
158.115021
 21
-40.000008
  0
LINE
  8
0
  6
CENTER
 62
     2
 10
152.000000
 20
-34.813736
 11
152.000000
 21
-45.360840
  0
LINE
  8
0
  6
CENTER
 62
     2
 10
146.635391
 20
59.999992
 11
158.115005
 21
59.999992
  0
LINE
  8
0
 62
     2
 10
152.000000
 20
66.114998
 11
152.000000
 21
53.884995
  0
LINE
  8
0
  6
CENTER
 62
     2
 10
112.402328
 20
59.999992
 11
123.452240
 21
59.999992
  0
LINE
  8
0
  6
CENTER
 62
     2
 10
118.000015
 20
66.114998
 11
118.000015
 21
54.502243
  0
LINE
  8
0
  6
CENTER
 62
     2
 10
114.957397
 20
-25.000008
 11
120.853500
 21
-25.000008
  0
LINE
  8
0
  6
CENTER
 62
     2
 10
121.312744
 20
49.999992
 11
148.912201
 21
49.999992
  0
LINE
  8
0
  6
CENTER
 62
     2
 10
118.000015
 20
-49.114998
 11
118.000015
 21
-34.415733
  0
LINE
  8
0
 10
151.500000
 20
47.150002
 11
151.500000
 21
38.849998
  0
LINE
  8
0
 10
156.000000
 20
40.349991
 11
156.000000
 21
38.849998
  0
LINE
  8
0
 10
158.999985
 20
40.349991
 11
155.999985
 21
40.349991
  0
LINE
  8
0
 10
158.999985
 20
45.649994
 11
155.999985
 21
45.649994
  0
LINE
  8
0
 10
156.000000
 20
47.150002
 11
156.000000
 21
45.649994
  0
LINE
  8
0
 10
158.999985
 20
-25.650009
 11
155.999985
 21
-25.650009
  0
LINE
  8
0
 10
156.000000
 20
-27.150017
 11
156.000000
 21
-25.650009
  0
LINE
  8
0
 10
151.500000
 20
-27.150017
 11
151.500000
 21
-18.850016
  0
LINE
  8
0
 10
156.000000
 20
-20.350000
 11
156.000000
 21
-18.850016
  0
LINE
  8
0
 10
158.999985
 20
-20.350000
 11
155.999985
 21
-20.350000
  0
LINE
  8
0
  6
DASHED
 62
     2
 10
112.999992
 20
-47.000011
 11
113.204201
 21
-43.103378
  0
LINE
  8
0
  6
DASHED
 62
     2
 10
114.000015
 20
-46.000000
 11
114.000015
 21
-43.103378
  0
LINE
  8
0
  6
DASHED
 62
     2
 10
122.000000
 20
-45.999977
 11
114.000015
 21
-45.999977
  0
LINE
  8
0
  6
DASHED
 62
     2
 10
112.999977
 20
-46.999962
 11
113.999969
 21
-45.999969
  0
LINE
  8
0
  6
DASHED
 62
     2
 10
122.999886
 20
-47.000137
 11
121.999893
 21
-46.000145
  0
LINE
  8
0
  6
DASHED
 62
     2
 10
122.000000
 20
-46.000000
 11
122.000000
 21
-43.103378
  0
LINE
  8
0
  6
DASHED
 62
     2
 10
123.000023
 20
-47.000011
 11
122.795807
 21
-43.103390
  0
LINE
  8
0
  6
CENTER
 62
     2
 10
152.000000
 20
66.187065
 11
152.000000
 21
54.610573
  0
LINE
  8
0
 10
133.500000
 20
-41.401764
 11
133.500000
 21
-47.000023
  0
LINE
  8
0
 10
136.500000
 20
-41.401764
 11
136.500000
 21
-47.000023
  0
LINE
  8
0
 10
136.500000
 20
61.401756
 11
136.500000
 21
67.000008
  0
LINE
  8
0
 10
133.500000
 20
61.401756
 11
133.500000
 21
67.000008
  0
LINE
  8
0
  6
CENTER
 62
     2
 10
114.000015
 20
43.000000
 11
120.893143
 21
43.000000
  0
LINE
  8
0
  6
CENTER
 62
     2
 10
155.999985
 20
43.000000
 11
148.942337
 21
43.000000
  0
LINE
  8
0
  6
CENTER
 62
     2
 10
155.999985
 20
-23.000015
 11
148.748901
 21
-23.000015
  0
LINE
  8
0
  6
CENTER
 62
     2
 10
118.000015
 20
-27.689457
 11
118.000015
 21
-22.262951
  0
LINE
  8
0
 10
157.000000
 20
45.649994
 11
157.000000
 21
40.349991
  0
LINE
  8
0
 10
113.000000
 20
45.649994
 11
113.000000
 21
40.641716
  0
LINE
  8
0
 10
157.000000
 20
-20.350000
 11
157.000000
 21
-25.650009
  0
LINE
  8
0
  6
CENTER
 62
     2
 10
123.353348
 20
-40.000008
 11
112.607224
 21
-40.000008
  0
LINE
  8
0
 10
114.000015
 20
47.150002
 11
118.500015
 21
47.150002
  0
LINE
  8
0
 10
114.000015
 20
38.849998
 11
118.500015
 21
38.849998
  0
LINE
  8
0
 10
155.999985
 20
47.150002
 11
151.500000
 21
47.150002
  0
LINE
  8
0
 10
155.999985
 20
38.849998
 11
151.500000
 21
38.849998
  0
LINE
  8
0
 10
155.999985
 20
-18.850016
 11
151.500000
 21
-18.850016
  0
LINE
  8
0
 10
155.999985
 20
-27.150017
 11
151.500000
 21
-27.150017
  0
LINE
  8
0
 10
-194.250000
 20
132.600006
 11
194.800003
 21
132.600006
  0
LINE
  8
0
 10
194.800003
 20
132.600006
 11
194.800003
 21
-133.500000
  0
LINE
  8
0
 10
-194.250000
 20
132.600006
 11
-194.250000
 21
-133.500000
  0
LINE
  8
0
 10
-194.250000
 20
-133.500000
 11
194.800003
 21
-133.500000
  0
LINE
  8
0
 10
109.800003
 20
-118.500000
 11
109.800003
 21
-133.500000
  0
LINE
  8
0
 10
109.800003
 20
-118.500000
 11
194.800003
 21
-118.500000
  0
LINE
  8
0
 10
109.800003
 20
132.600006
 11
109.800003
 21
117.600006
  0
LINE
  8
0
 10
109.800003
 20
117.600006
 11
194.800003
 21
117.600006
  0
LINE
  8
0
 10
-194.250000
 20
117.600006
 11
-84.250000
 21
117.600006
  0
LINE
  8
0
 10
-84.250000
 20
132.600006
 11
-84.250000
 21
117.600006
  0
LINE
  8
0
 10
-184.250000
 20
-123.500000
 11
-39.250000
 21
-123.500000
  0
LINE
  8
0
 10
-184.250000
 20
-115.500000
 11
-39.250000
 21
-115.500000
  0
LINE
  8
0
 10
-184.250000
 20
-107.500000
 11
-39.250000
 21
-107.500000
  0
LINE
  8
0
 10
-159.250000
 20
-123.500000
 11
-159.250000
 21
-92.500000
  0
LINE
  8
0
 10
-135.250000
 20
-123.500000
 11
-135.250000
 21
-92.500000
  0
LINE
  8
0
 10
-147.250000
 20
-123.500000
 11
-147.250000
 21
-92.500000
  0
LINE
  8
0
 10
-123.250000
 20
-123.500000
 11
-123.250000
 21
-92.500000
  0
LINE
  8
0
 10
-111.250000
 20
-123.500000
 11
-111.250000
 21
-92.500000
  0
LINE
  8
0
 10
-99.250000
 20
-123.500000
 11
-99.250000
 21
-92.500000
  0
LINE
  8
0
 10
-159.250046
 20
-107.500015
 11
-161.929535
 21
-97.500023
  0
LINE
  8
0
 10
-184.250000
 20
-97.500000
 11
-161.929489
 21
-97.500000
  0
LINE
  8
0
 10
-184.250000
 20
-92.500000
 11
-39.250000
 21
-92.500000
  0
LINE
  8
0
 10
-87.250000
 20
-123.500000
 11
-87.250000
 21
-92.500000
  0
LINE
  8
0
 10
-75.250000
 20
-123.500000
 11
-75.250000
 21
-92.500000
  0
LINE
  8
0
 10
-63.250000
 20
-123.500000
 11
-63.250000
 21
-92.500000
  0
LINE
  8
0
 10
-51.250000
 20
-123.500000
 11
-51.250000
 21
-92.500000
  0
LINE
  8
0
 10
-39.250000
 20
-123.500000
 11
-39.250000
 21
-92.500000
  0
LINE
  8
0
 10
-184.250000
 20
-123.500000
 11
-184.250000
 21
-92.500000
  0
ARC
  8
0
 10
-40.499996
 20
9.999997
 40
7.999995
 50
331.045044
 51
28.954950
  0
CIRCLE
  8
0
 10
-23.999985
 20
31.999989
 40
5.500000
  0
CIRCLE
  8
0
 10
6.000023
 20
31.999989
 40
5.500000
  0
CIRCLE
  8
0
 10
-24.000008
 20
-11.999995
 40
5.500000
  0
CIRCLE
  8
0
 10
5.999981
 20
-12.000016
 40
5.500000
  0
CIRCLE
  8
0
  6
DASHED
 62
     2
 10
-23.999985
 20
31.999989
 40
4.000000
  0
CIRCLE
  8
0
 10
-23.999985
 20
31.999989
 40
3.400000
  0
CIRCLE
  8
0
  6
DASHED
 62
     2
 10
6.000023
 20
31.999989
 40
4.000000
  0
CIRCLE
  8
0
 10
6.000023
 20
31.999989
 40
3.400000
  0
CIRCLE
  8
0
  6
DASHED
 62
     2
 10
-23.999985
 20
-11.999995
 40
4.000000
  0
CIRCLE
  8
0
 10
-23.999985
 20
-11.999995
 40
3.400000
  0
CIRCLE
  8
0
  6
DASHED
 62
     2
 10
6.000023
 20
-11.999995
 40
4.000000
  0
CIRCLE
  8
0
 10
6.000023
 20
-11.999995
 40
3.400000
  0
CIRCLE
  8
0
 62
     2
 10
-8.000011
 20
-25.000004
 40
4.865000
  0
CIRCLE
  8
0
 62
     2
 10
17.000011
 20
-25.000004
 40
4.865000
  0
CIRCLE
  8
0
 10
17.000011
 20
-25.000004
 40
4.285000
  0
CIRCLE
  8
0
 10
-8.000011
 20
-25.000004
 40
4.285000
  0
CIRCLE
  8
0
 10
-145.000000
 20
9.999992
 40
7.000000
  0
CIRCLE
  8
0
 10
-145.000000
 20
49.999992
 40
4.600000
  0
CIRCLE
  8
0
 10
-145.000000
 20
9.999992
 40
4.600000
  0
CIRCLE
  8
0
 10
-145.000000
 20
49.999992
 40
7.000000
  0
CIRCLE
  8
0
 10
-145.000000
 20
9.999992
 40
7.500000
  0
CIRCLE
  8
0
 10
-145.000000
 20
-30.000008
 40
7.500000
  0
CIRCLE
  8
0
 10
-145.000000
 20
49.999992
 40
7.500000
  0
CIRCLE
  8
0
 62
     2
 10
-131.000000
 20
57.999992
 40
4.000000
  0
CIRCLE
  8
0
 10
-131.000000
 20
57.999992
 40
3.375000
  0
CIRCLE
  8
0
 62
     2
 10
-131.000000
 20
-38.000008
 40
4.000000
  0
CIRCLE
  8
0
 10
-131.000000
 20
-38.000008
 40
3.375000
  0
CIRCLE
  8
0
 62
     2
 10
-159.000015
 20
57.999992
 40
4.000000
  0
CIRCLE
  8
0
 10
-159.000015
 20
57.999992
 40
3.375000
  0
CIRCLE
  8
0
 62
     2
 10
-159.000015
 20
-38.000008
 40
4.000000
  0
CIRCLE
  8
0
 10
-159.000015
 20
-38.000008
 40
3.375000
  0
CIRCLE
  8
0
 10
-145.000000
 20
-30.000008
 40
7.000000
  0
CIRCLE
  8
0
 10
-145.000000
 20
-30.000008
 40
4.600000
  0
CIRCLE
  8
0
 62
     2
 10
118.000000
 20
-40.000008
 40
4.000000
  0
CIRCLE
  8
0
 10
135.000000
 20
9.999992
 40
10.500000
  0
ARC
  8
0
 10
115.600006
 20
19.099987
 40
2.100000
 50
270.000000
 51
90.000000
  0
ARC
  8
0
 10
115.600006
 20
0.900000
 40
2.100000
 50
270.000000
 51
90.000000
  0
ARC
  8
0
 10
154.399994
 20
19.099987
 40
2.100000
 50
90.000000
 51
270.000000
  0
ARC
  8
0
 10
154.399994
 20
0.900000
 40
2.100000
 50
90.000000
 51
270.000000
  0
CIRCLE
  8
0
 10
135.000000
 20
-30.000008
 40
11.500001
  0
CIRCLE
  8
0
 62
     2
 10
152.000000
 20
-40.000008
 40
4.000000
  0
CIRCLE
  8
0
 62
     2
 10
152.000000
 20
59.999992
 40
4.000000
  0
CIRCLE
  8
0
 62
     2
 10
118.000015
 20
59.999992
 40
4.000000
  0
CIRCLE
  8
0
 10
135.000000
 20
49.999992
 40
11.500001
  0
CIRCLE
  8
0
 10
135.000000
 20
9.999992
 40
17.000000
  0
CIRCLE
  8
0
 10
118.000015
 20
-25.000008
 40
1.500000
  0
CIRCLE
  8
0
 10
135.000000
 20
-30.000008
 40
10.000000
  0
CIRCLE
  8
0
 10
135.000000
 20
49.999992
 40
10.000000
  0
CIRCLE
  8
0
 10
118.000015
 20
59.999992
 40
3.375000
  0
CIRCLE
  8
0
 10
151.999985
 20
59.999992
 40
3.375000
  0
CIRCLE
  8
0
 10
118.000015
 20
-40.000008
 40
3.375000
  0
CIRCLE
  8
0
 10
151.999985
 20
-40.000008
 40
3.375000
  0
TEXT
  8
0
 10
133.907150
 20
122.050003
 40
4.500000
  1
Ver. 1.0
 50
0.000000
 41
1.052631
 51
0.000000
  7
STANDARD
  0
TEXT
  8
0
 10
113.700279
 20
-130.669998
 40
6.300000
  1
KOGANEI CORP.
 50
0.000000
 41
1.052632
 51
0.000000
  7
STANDARD
  0
TEXT
  8
0
 10
-191.392654
 20
122.050003
 40
4.500000
  1
JIG CYLINDER WITH GUIDE
 50
0.000000
 41
1.052632
 51
0.000000
  7
STANDARD
  0
TEXT
  8
0
 10
-186.892654
 20
104.550003
 40
4.500000
  1
MODEL:SGDAY32*ST(10)
 50
0.000000
 41
1.052632
 51
0.000000
  7
STANDARD
  0
TEXT
  8
0
 10
-159.892654
 20
97.550003
 40
4.500000
  1
SGDAFY32*ST(10)
 50
0.000000
 41
1.052632
 51
0.000000
  7
STANDARD
  0
TEXT
  8
0
 62
     3
 10
5.992861
 20
79.720009
 40
3.200000
  1
STRETCH LINE A
 50
0.000000
 41
1.052631
 51
0.000000
  7
STANDARD
  0
TEXT
  8
0
 62
     3
 10
-15.806997
 20
89.920006
 40
3.200000
  1
STRETCH LINE B
 50
0.000000
 41
1.052632
 51
0.000000
  7
STANDARD
  0
TEXT
  8
0
 10
-181.557144
 20
-96.879997
 40
3.200000
  1
STROKE
 50
0.000000
 41
1.052631
 51
0.000000
  7
STANDARD
  0
TEXT
  8
0
 10
-173.557144
 20
-113.379997
 40
3.200000
  1
A
 50
0.000000
 41
1.052631
 51
0.000000
  7
STANDARD
  0
TEXT
  8
0
 10
-184.496872
 20
-101.019997
 40
3.200000
  1
STRETCH
 50
0.000000
 41
1.052631
 51
0.000000
  7
STANDARD
  0
TEXT
  8
0
 10
-184.496872
 20
-105.820000
 40
3.200000
  1
  PLACE
 50
0.000000
 41
1.052631
 51
0.000000
  7
STANDARD
  0
TEXT
  8
0
 10
-156.657150
 20
-101.879997
 40
3.200000
  1
10
 50
0.000000
 41
1.052631
 51
0.000000
  7
STANDARD
  0
TEXT
  8
0
 10
-144.657150
 20
-101.879997
 40
3.200000
  1
20
 50
0.000000
 41
1.052631
 51
0.000000
  7
STANDARD
  0
TEXT
  8
0
 10
-132.657150
 20
-101.879997
 40
3.200000
  1
30
 50
0.000000
 41
1.052631
 51
0.000000
  7
STANDARD
  0
TEXT
  8
0
 10
-120.657158
 20
-101.879997
 40
3.200000
  1
50
 50
0.000000
 41
1.052631
 51
0.000000
  7
STANDARD
  0
TEXT
  8
0
 10
-108.657158
 20
-101.879997
 40
3.200000
  1
75
 50
0.000000
 41
1.052631
 51
0.000000
  7
STANDARD
  0
TEXT
  8
0
 10
-51.857143
 20
-91.379997
 40
3.200000
  1
(mm)
 50
0.000000
 41
1.052631
 51
0.000000
  7
STANDARD
  0
TEXT
  8
0
 10
-131.157135
 20
-91.379997
 40
3.200000
  1
STRETCH LIST
 50
0.000000
 41
1.052631
 51
0.000000
  7
STANDARD
  0
TEXT
  8
0
 10
-173.557007
 20
-121.379997
 40
3.200000
  1
B
 50
0.000000
 41
1.052632
 51
0.000000
  7
STANDARD
  0
TEXT
  8
0
 10
-98.257156
 20
-101.879997
 40
3.200000
  1
100
 50
0.000000
 41
1.052631
 51
0.000000
  7
STANDARD
  0
TEXT
  8
0
 10
-86.257156
 20
-101.879997
 40
3.200000
  1
125
 50
0.000000
 41
1.052631
 51
0.000000
  7
STANDARD
  0
TEXT
  8
0
 10
-74.257156
 20
-101.879997
 40
3.200000
  1
150
 50
0.000000
 41
1.052631
 51
0.000000
  7
STANDARD
  0
TEXT
  8
0
 10
-62.257156
 20
-101.879997
 40
3.200000
  1
175
 50
0.000000
 41
1.052631
 51
0.000000
  7
STANDARD
  0
TEXT
  8
0
 10
-50.257156
 20
-101.879997
 40
3.200000
  1
200
 50
0.000000
 41
1.052631
 51
0.000000
  7
STANDARD
  0
TEXT
  8
0
 10
-155.057007
 20
-113.379997
 40
3.200000
  1
0
 50
0.000000
 41
1.052632
 51
0.000000
  7
STANDARD
  0
TEXT
  8
0
 10
-143.057007
 20
-113.379997
 40
3.200000
  1
0
 50
0.000000
 41
1.052632
 51
0.000000
  7
STANDARD
  0
TEXT
  8
0
 10
-131.057007
 20
-113.379997
 40
3.200000
  1
0
 50
0.000000
 41
1.052632
 51
0.000000
  7
STANDARD
  0
TEXT
  8
0
 10
-119.056999
 20
-113.379997
 40
3.200000
  1
0
 50
0.000000
 41
1.052632
 51
0.000000
  7
STANDARD
  0
TEXT
  8
0
 10
-108.656998
 20
-113.379997
 40
3.200000
  1
25
 50
0.000000
 41
1.052632
 51
0.000000
  7
STANDARD
  0
TEXT
  8
0
 10
-96.656998
 20
-113.379997
 40
3.200000
  1
50
 50
0.000000
 41
1.052632
 51
0.000000
  7
STANDARD
  0
TEXT
  8
0
 10
-84.656998
 20
-113.379997
 40
3.200000
  1
25
 50
0.000000
 41
1.052632
 51
0.000000
  7
STANDARD
  0
TEXT
  8
0
 10
-72.656998
 20
-113.379997
 40
3.200000
  1
50
 50
0.000000
 41
1.052632
 51
0.000000
  7
STANDARD
  0
TEXT
  8
0
 10
-60.657001
 20
-113.379997
 40
3.200000
  1
75
 50
0.000000
 41
1.052632
 51
0.000000
  7
STANDARD
  0
TEXT
  8
0
 10
-50.257000
 20
-113.379997
 40
3.200000
  1
100
 50
0.000000
 41
1.052632
 51
0.000000
  7
STANDARD
  0
TEXT
  8
0
 10
-155.057007
 20
-121.379997
 40
3.200000
  1
0
 50
0.000000
 41
1.052632
 51
0.000000
  7
STANDARD
  0
TEXT
  8
0
 10
-144.656998
 20
-121.379997
 40
3.200000
  1
10
 50
0.000000
 41
1.052632
 51
0.000000
  7
STANDARD
  0
TEXT
  8
0
 10
-132.656998
 20
-121.379997
 40
3.200000
  1
20
 50
0.000000
 41
1.052632
 51
0.000000
  7
STANDARD
  0
TEXT
  8
0
 10
-120.656998
 20
-121.379997
 40
3.200000
  1
40
 50
0.000000
 41
1.052632
 51
0.000000
  7
STANDARD
  0
TEXT
  8
0
 10
-108.656998
 20
-121.379997
 40
3.200000
  1
40
 50
0.000000
 41
1.052632
 51
0.000000
  7
STANDARD
  0
TEXT
  8
0
 10
-96.656998
 20
-121.379997
 40
3.200000
  1
40
 50
0.000000
 41
1.052632
 51
0.000000
  7
STANDARD
  0
TEXT
  8
0
 10
-84.656998
 20
-121.379997
 40
3.200000
  1
90
 50
0.000000
 41
1.052632
 51
0.000000
  7
STANDARD
  0
TEXT
  8
0
 10
-72.656998
 20
-121.379997
 40
3.200000
  1
90
 50
0.000000
 41
1.052632
 51
0.000000
  7
STANDARD
  0
TEXT
  8
0
 10
-60.657001
 20
-121.379997
 40
3.200000
  1
90
 50
0.000000
 41
1.052632
 51
0.000000
  7
STANDARD
  0
TEXT
  8
0
 10
-48.657001
 20
-121.379997
 40
3.200000
  1
90
 50
0.000000
 41
1.052632
 51
0.000000
  7
STANDARD
  0
TEXT
  8
0
 62
     2
 10
66.492996
 20
-66.000015
 40
3.200000
  1
STROKE=75-200
 50
0.000000
 41
1.052632
 51
0.000000
  7
STANDARD
  0
LINE
  8
0
 62
     2
 10
65.000046
 20
-67.000015
 11
107.843002
 21
-67.000015
  0
LINE
  8
0
 62
     2
 10
29.000011
 20
-67.000015
 11
65.000046
 21
-67.000015
  0
LINE
  8
0
 62
     2
 10
29.000011
 20
-67.000015
 11
31.897789
 21
-66.223557
  0
LINE
  8
0
 62
     2
 10
29.000011
 20
-67.000015
 11
31.897789
 21
-67.776474
  0
LINE
  8
0
 62
     2
 10
65.000046
 20
-67.000015
 11
62.102268
 21
-67.776474
  0
LINE
  8
0
 62
     2
 10
65.000046
 20
-67.000015
 11
62.102268
 21
-66.223557
  0
LINE
  8
0
 62
     2
 10
29.000011
 20
-46.013012
 11
29.000011
 21
-68.500015
  0
LINE
  8
0
 62
     2
 10
65.000046
 20
-39.500008
 11
65.000046
 21
-68.500015
  0
ENDSEC
  0
EOF
