  0
SECTION
  2
HEADER
  0
ENDSEC
  0
SECTION
  2
TABLES
  0
TABLE
  2
LTYPE
 70
     4
  0
LTYPE
  2
CONTINUOUS
 70
    64
  3
Solid line
 72
    65
 73
     0
 40
0.000000
  0
LTYPE
  2
DASHED
 70
    64
  3
__ __ __ __ __ __ __ __ __ __ __ __ __ __ __
 72
    65
 73
     2
 40
3.500000
 49
2.000000
 49
-1.500000
  0
LTYPE
  2
CENTER
 70
    64
  3
____ _ ____ _ ____ _ ____ _ ____ _ ____ _ ____
 72
    65
 73
     4
 40
17.500000
 49
13.000000
 49
-1.500000
 49
1.500000
 49
-1.500000
  0
LTYPE
  2
PHANTOM
 70
    64
  3
_____ _ _ _____ _ _ _____ _ _ _____ _ _ ____  
 72
    65
 73
     6
 40
15.500000
 49
8.000000
 49
-1.500000
 49
1.500000
 49
-1.500000
 49
1.500000
 49
-1.500000
  0
LTYPE
  2
DASHED1
 70
    64
  3
__ __ __ __ __ __ __ __ __ __ __ __ __ __ __
 72
    65
 73
     2
 40
1.500000
 49
1.000000
 49
-0.500000
  0
LTYPE
  2
DASHED2
 70
    64
  3
__ __ __ __ __ __ __ __ __ __ __ __ __ __ __
 72
    65
 73
     2
 40
3.500000
 49
2.500000
 49
-1.000000
  0
LTYPE
  2
DASHED3
 70
    64
  3
__ __ __ __ __ __ __ __ __ __ __ __ __ __ __
 72
    65
 73
     2
 40
6.000000
 49
4.000000
 49
-2.000000
  0
LTYPE
  2
DASHED4
 70
    64
  3
__ __ __ __ __ __ __ __ __ __ __ __ __ __ __
 72
    65
 73
     2
 40
12.000000
 49
10.000000
 49
-2.000000
  0
LTYPE
  2
DASHED5
 70
    64
  3
__ __ __ __ __ __ __ __ __ __ __ __ __ __ __
 72
    65
 73
     2
 40
17.000000
 49
15.000000
 49
-2.000000
  0
LTYPE
  2
DASHED6
 70
    64
  3
__ __ __ __ __ __ __ __ __ __ __ __ __ __ __
 72
    65
 73
     2
 40
29.000000
 49
27.000000
 49
-2.000000
  0
LTYPE
  2
PHANTOM1
 70
    64
  3
_____ _ _ _____ _ _ _____ _ _ _____ _ _ ____  
 72
    65
 73
     6
 40
31.000000
 49
25.000000
 49
-1.500000
 49
1.000000
 49
-1.000000
 49
1.000000
 49
-1.500000
  0
LTYPE
  2
PHANTOM2
 70
    64
  3
_____ _ _ _____ _ _ _____ _ _ _____ _ _ ____  
 72
    65
 73
     6
 40
36.000000
 49
27.000000
 49
-1.500000
 49
2.500000
 49
-1.000000
 49
2.500000
 49
-1.500000
  0
LTYPE
  2
PHANTOM3
 70
    64
  3
_____ _ _ _____ _ _ _____ _ _ _____ _ _ ____  
 72
    65
 73
     6
 40
78.000000
 49
64.000000
 49
-2.000000
 49
4.000000
 49
-2.000000
 49
4.000000
 49
-2.000000
  0
LTYPE
  2
CENTER1
 70
    64
  3
____ _ ____ _ ____ _ ____ _ ____ _ ____ _ ____
 72
    65
 73
     4
 40
19.000000
 49
14.000000
 49
-1.000000
 49
3.000000
 49
-1.000000
  0
LTYPE
  2
CENTER2
 70
    64
  3
____ _ ____ _ ____ _ ____ _ ____ _ ____ _ ____
 72
    65
 73
     4
 40
28.500000
 49
25.000000
 49
-1.000000
 49
1.500000
 49
-1.000000
  0
LTYPE
  2
CENTER3
 70
    64
  3
____ _ ____ _ ____ _ ____ _ ____ _ ____ _ ____
 72
    65
 73
     4
 40
31.500000
 49
27.000000
 49
-1.000000
 49
2.500000
 49
-1.000000
  0
LTYPE
  2
CENTER4
 70
    64
  3
____ _ ____ _ ____ _ ____ _ ____ _ ____ _ ____
 72
    65
 73
     4
 40
50.000000
 49
45.000000
 49
-1.000000
 49
3.000000
 49
-1.000000
  0
LTYPE
  2
CENTER5
 70
    64
  3
____ _ ____ _ ____ _ ____ _ ____ _ ____ _ ____
 72
    65
 73
     4
 40
100.000000
 49
92.000000
 49
-2.000000
 49
4.000000
 49
-2.000000
  0
LTYPE
  2
SBK1
 70
    64
  3
______ _ _ _ ______ _ _ _ ______ _ _ _ _____  
 72
    65
 73
     8
 40
60.500000
 49
45.000000
 49
-2.000000
 49
2.500000
 49
-2.000000
 49
2.500000
 49
-2.000000
 49
2.500000
 49
-2.000000
  0
LTYPE
  2
SBK2
 70
    64
  3
______ _ _ _ ______ _ _ _ ______ _ _ _ _____  
 72
    65
 73
     8
 40
84.000000
 49
64.000000
 49
-2.000000
 49
4.000000
 49
-2.000000
 49
4.000000
 49
-2.000000
 49
4.000000
 49
-2.000000
  0
LTYPE
  2
STCH
 70
    64
  3
__ __ __ __ __ __ __ __ __ __ __ __ __ __ __
 72
    65
 73
     2
 40
3.000000
 49
1.000000
 49
-2.000000
  0
LTYPE
  2
MTCH
 70
    64
  3
_____ _ _ _____ _ _ _____ _ _ _____ _ _ ____  
 72
    65
 73
     6
 40
80.000000
 49
66.000000
 49
-2.000000
 49
4.000000
 49
-2.000000
 49
4.000000
 49
-2.000000
  0
ENDTAB
  0
TABLE
  2
LAYER
 70
     1
  0
LAYER
  2
0
 70
     0
 62
     7
  6
CONTINUOUS
  0
ENDTAB
  0
TABLE
  2
STYLE
 70
     1
  0
STYLE
  2
STANDARD
 70
     0
 40
0.000000
 41
1.000000
 50
0.000000
 71
     0
 42
0.200000
  3
txt
  4
BIGFONT
  0
ENDTAB
  0
TABLE
  2
VIEW
 70
     0
  0
ENDTAB
  0
ENDSEC
  0
SECTION
  2
BLOCKS
  0
ENDSEC
  0
SECTION
  2
ENTITIES
  0
LINE
  8
0
 10
32.000000
 20
51.500000
 11
32.000000
 21
-29.500000
  0
LINE
  8
0
 10
-28.000000
 20
16.000000
 11
-24.000000
 21
16.000000
  0
LINE
  8
0
 10
-28.000000
 20
50.000011
 11
-28.000000
 21
-28.000000
  0
LINE
  8
0
 10
-40.000000
 20
50.000004
 11
-40.000000
 21
-28.000000
  0
LINE
  8
0
 10
-23.500000
 20
52.000000
 11
31.500000
 21
52.000000
  0
LINE
  8
0
 10
-39.000000
 20
51.000008
 11
-29.000000
 21
51.000008
  0
LINE
  8
0
 10
-39.000000
 20
-29.000000
 11
-29.000000
 21
-29.000000
  0
LINE
  8
0
 10
-28.000000
 20
-10.999969
 11
-24.000000
 21
-10.999969
  0
LINE
  8
0
 10
-28.000000
 20
-25.000031
 11
-24.000000
 21
-25.000031
  0
LINE
  8
0
 10
-26.500000
 20
14.000008
 11
-26.500000
 21
8.000008
  0
LINE
  8
0
 10
-28.000000
 20
8.000008
 11
-26.500000
 21
8.000008
  0
LINE
  8
0
 10
-28.000010
 20
12.499851
 11
-26.500055
 21
7.999989
  0
LINE
  8
0
 10
-26.500013
 20
14.000071
 11
-28.000034
 21
9.500009
  0
LINE
  8
0
 10
-28.000000
 20
6.000000
 11
-24.000000
 21
6.000000
  0
LINE
  8
0
  6
CENTER
 62
     2
 10
-42.516109
 20
40.000000
 11
-21.431671
 21
40.000000
  0
LINE
  8
0
 10
-39.999958
 20
-27.999950
 11
-38.999950
 21
-28.999949
  0
LINE
  8
0
 10
-29.000029
 20
-29.000004
 11
-28.000027
 21
-28.000002
  0
LINE
  8
0
 10
-38.999966
 20
50.999973
 11
-39.999966
 21
49.999973
  0
LINE
  8
0
 10
-28.999998
 20
51.000000
 11
-28.000008
 21
50.000011
  0
LINE
  8
0
 10
-23.500032
 20
52.000031
 11
-24.000031
 21
51.500031
  0
LINE
  8
0
 10
31.499990
 20
52.000008
 11
31.999990
 21
51.500004
  0
LINE
  8
0
  6
CENTER
 62
     2
 10
-23.464264
 20
26.000000
 11
-11.884720
 21
26.000000
  0
LINE
  8
0
 10
-24.000000
 20
20.000000
 11
32.000000
 21
20.000000
  0
LINE
  8
0
 10
-24.000000
 20
18.408516
 11
32.000000
 21
18.408516
  0
LINE
  8
0
 10
-24.000000
 20
16.599998
 11
32.000000
 21
16.599998
  0
LINE
  8
0
 10
-24.000000
 20
13.400002
 11
32.000000
 21
13.400002
  0
LINE
  8
0
 10
-24.000000
 20
50.000015
 11
32.000000
 21
50.000015
  0
LINE
  8
0
 10
-28.000000
 20
14.000008
 11
-26.500000
 21
14.000008
  0
LINE
  8
0
  6
CENTER
 62
     2
 10
-42.809616
 20
-17.999977
 11
-21.431671
 21
-17.999977
  0
LINE
  8
0
  6
DASHED
 62
     2
 10
32.000000
 20
-10.999947
 11
54.500000
 21
-10.999947
  0
LINE
  8
0
  6
DASHED
 62
     2
 10
32.000000
 20
-25.000008
 11
54.500000
 21
-25.000008
  0
LINE
  8
0
  6
DASHED
 62
     2
 10
55.000000
 20
-11.499943
 11
55.000000
 21
-24.500008
  0
LINE
  8
0
  6
DASHED
 62
     2
 10
54.499985
 20
-10.999955
 11
54.999981
 21
-11.499949
  0
LINE
  8
0
  6
DASHED
 62
     2
 10
54.999996
 20
-24.500004
 11
54.499992
 21
-25.000004
  0
LINE
  8
0
  6
DASHED
 62
     2
 10
54.500000
 20
-10.999947
 11
54.500000
 21
-25.000008
  0
LINE
  8
0
  6
DASHED
 62
     2
 10
32.000000
 20
47.000031
 11
54.500000
 21
47.000031
  0
LINE
  8
0
  6
DASHED
 62
     2
 10
32.000000
 20
32.999969
 11
54.500000
 21
32.999969
  0
LINE
  8
0
  6
DASHED
 62
     2
 10
55.000000
 20
46.500034
 11
55.000000
 21
33.499969
  0
LINE
  8
0
  6
DASHED
 62
     2
 10
54.499981
 20
47.000004
 11
54.999977
 21
46.500011
  0
LINE
  8
0
  6
DASHED
 62
     2
 10
54.999996
 20
33.499969
 11
54.499996
 21
32.999962
  0
LINE
  8
0
  6
DASHED
 62
     2
 10
54.500000
 20
47.000031
 11
54.500000
 21
32.999969
  0
LINE
  8
0
 10
-28.000000
 20
47.000031
 11
-24.000000
 21
47.000031
  0
LINE
  8
0
 10
-28.000000
 20
32.999969
 11
-24.000000
 21
32.999969
  0
LINE
  8
0
  6
CENTER
 62
     2
 10
12.000000
 20
2.049103
 11
12.000000
 21
-9.876099
  0
LINE
  8
0
  6
CENTER
 62
     2
 10
-18.000000
 20
2.049103
 11
-18.000000
 21
-10.048920
  0
LINE
  8
0
  6
CENTER
 62
     2
 10
-23.464264
 20
-4.000000
 11
-11.884720
 21
-4.000000
  0
LINE
  8
0
 10
-24.000000
 20
51.500000
 11
-24.000000
 21
-29.500000
  0
LINE
  8
0
  6
CENTER
 62
     2
 10
-42.297558
 20
11.000000
 11
34.230499
 21
11.000000
  0
LINE
  8
0
 10
-23.499985
 20
-30.000000
 11
31.500000
 21
-30.000000
  0
LINE
  8
0
  6
CENTER
 62
     2
 10
6.065430
 20
-4.000000
 11
18.163452
 21
-4.000000
  0
LINE
  8
0
 10
-24.000000
 20
8.600006
 11
32.000000
 21
8.600006
  0
LINE
  8
0
 10
-24.000000
 20
5.399994
 11
32.000000
 21
5.399994
  0
LINE
  8
0
 10
-24.000000
 20
3.591492
 11
32.000000
 21
3.591492
  0
LINE
  8
0
 10
-24.000000
 20
2.000000
 11
32.000000
 21
2.000000
  0
LINE
  8
0
 10
-24.000000
 20
-29.000000
 11
32.000000
 21
-29.000000
  0
LINE
  8
0
  6
CENTER
 62
     2
 10
16.134235
 20
-16.000000
 11
28.118134
 21
-16.000000
  0
LINE
  8
0
 10
32.000011
 20
-29.500011
 11
31.500011
 21
-30.000011
  0
LINE
  8
0
 10
-23.999947
 20
-29.499931
 11
-23.499929
 21
-29.999935
  0
LINE
  8
0
  6
CENTER
 62
     2
 10
22.000000
 20
-9.690786
 11
22.000000
 21
-22.796940
  0
LINE
  8
0
  6
DASHED
 62
     2
 10
-7.283005
 20
-27.065567
 11
-7.283005
 21
-30.000000
  0
LINE
  8
0
  6
DASHED
 62
     2
 10
-7.726462
 20
-27.065571
 11
-7.863952
 21
-29.999990
  0
LINE
  8
0
  6
DASHED
 62
     2
 10
1.283005
 20
-27.065567
 11
1.283005
 21
-30.000000
  0
LINE
  8
0
  6
CENTER
 62
     2
 10
-9.424999
 20
-16.000000
 11
2.932785
 21
-16.000000
  0
LINE
  8
0
  6
DASHED
 62
     2
 10
1.726639
 20
-27.065565
 11
1.864128
 21
-29.999968
  0
LINE
  8
0
  6
DASHED
 62
     2
 10
7.716995
 20
-27.065567
 11
7.716995
 21
-30.000000
  0
LINE
  8
0
  6
DASHED
 62
     2
 10
7.273500
 20
-27.065569
 11
7.136010
 21
-30.000006
  0
LINE
  8
0
  6
DASHED
 62
     2
 10
16.726665
 20
-27.065567
 11
16.864157
 21
-29.999996
  0
LINE
  8
0
  6
DASHED
 62
     2
 10
16.283005
 20
-27.065567
 11
16.283005
 21
-30.000000
  0
LINE
  8
0
  6
CENTER
 62
     2
 10
-3.000000
 20
-10.005547
 11
-3.000000
 21
-22.488159
  0
LINE
  8
0
  6
CENTER
 62
     2
 10
-3.000000
 20
-25.554718
 11
-3.000000
 21
-30.914230
  0
LINE
  8
0
  6
CENTER
 62
     2
 10
-18.000000
 20
32.242153
 11
-18.000000
 21
19.726143
  0
LINE
  8
0
  6
CENTER
 62
     2
 10
12.000000
 20
32.118233
 11
12.000000
 21
19.726143
  0
LINE
  8
0
  6
CENTER
 62
     2
 10
5.640163
 20
26.000000
 11
18.280090
 21
26.000000
  0
LINE
  8
0
 10
-24.000000
 20
40.149994
 11
32.000000
 21
40.149994
  0
LINE
  8
0
 10
-24.000000
 20
35.850006
 11
32.000000
 21
35.850006
  0
LINE
  8
0
  6
PHANTOM
 62
     3
 10
3.500000
 20
67.000000
 11
3.500000
 21
-35.800003
  0
LINE
  8
0
  6
PHANTOM
 62
     3
 10
6.000000
 20
-11.400002
 11
19.000000
 21
-11.400002
  0
LINE
  8
0
  6
PHANTOM
 62
     3
 10
6.000000
 20
-11.400002
 11
6.000000
 21
-35.800003
  0
LINE
  8
0
  6
PHANTOM
 62
     3
 10
19.000000
 20
60.000000
 11
19.000000
 21
-11.400002
  0
LINE
  8
0
  6
CENTER
 62
     2
 10
12.000000
 20
-25.554718
 11
12.000000
 21
-30.914230
  0
LINE
  8
0
 10
-151.000000
 20
50.000000
 11
-151.000000
 21
40.649994
  0
LINE
  8
0
 10
-112.000000
 20
-30.000000
 11
-149.000000
 21
-30.000000
  0
LINE
  8
0
 10
-113.000000
 20
52.000000
 11
-149.000000
 21
52.000000
  0
LINE
  8
0
 10
-111.000000
 20
2.000015
 11
-111.000000
 21
-29.000000
  0
LINE
  8
0
 10
-151.000000
 20
35.350006
 11
-151.000000
 21
19.999985
  0
LINE
  8
0
 10
-112.999916
 20
52.000076
 11
-110.999916
 21
50.000072
  0
LINE
  8
0
 10
-149.000015
 20
-30.000013
 11
-151.000015
 21
-28.000010
  0
LINE
  8
0
 10
-148.999985
 20
52.000008
 11
-151.000000
 21
49.999996
  0
LINE
  8
0
 10
-111.000000
 20
50.000031
 11
-111.000000
 21
40.149994
  0
LINE
  8
0
 10
-113.000023
 20
3.129916
 11
-111.000046
 21
1.999953
  0
LINE
  8
0
 10
-113.000031
 20
18.870083
 11
-111.000046
 21
20.000053
  0
LINE
  8
0
 10
-149.000000
 20
18.869999
 11
-151.000000
 21
19.999968
  0
LINE
  8
0
 10
-149.000015
 20
3.130099
 11
-151.000031
 21
2.000120
  0
LINE
  8
0
 10
-149.000000
 20
40.649994
 11
-151.000000
 21
40.649994
  0
LINE
  8
0
 10
-149.000000
 20
35.350006
 11
-151.000000
 21
35.350006
  0
LINE
  8
0
 10
-111.000000
 20
35.850006
 11
-113.000000
 21
35.850006
  0
LINE
  8
0
 10
-111.000000
 20
40.149994
 11
-113.000000
 21
40.149994
  0
LINE
  8
0
 10
-111.000000
 20
35.850006
 11
-111.000000
 21
19.999977
  0
LINE
  8
0
 10
-149.000000
 20
-18.650002
 11
-151.000000
 21
-18.650002
  0
LINE
  8
0
 10
-149.000000
 20
-13.349998
 11
-151.000000
 21
-13.349998
  0
LINE
  8
0
 10
-151.000000
 20
-13.349998
 11
-151.000000
 21
2.000015
  0
LINE
  8
0
 10
-151.000000
 20
-28.000000
 11
-151.000000
 21
-18.650002
  0
LINE
  8
0
 10
-110.999985
 20
-29.000010
 11
-111.999985
 21
-30.000011
  0
LINE
  8
0
 10
-148.000000
 20
51.000000
 11
-114.000000
 21
51.000000
  0
LINE
  8
0
 10
-148.000000
 20
-29.000000
 11
-114.000000
 21
-29.000000
  0
LINE
  8
0
 10
-147.999954
 20
50.999977
 11
-148.999954
 21
49.999977
  0
LINE
  8
0
 10
-113.999939
 20
51.000092
 11
-112.999947
 21
50.000103
  0
LINE
  8
0
 10
-148.999969
 20
-27.999983
 11
-147.999969
 21
-28.999985
  0
LINE
  8
0
 10
-113.000000
 20
-27.999987
 11
-114.000000
 21
-28.999989
  0
LINE
  8
0
  6
CENTER
 62
     2
 10
-143.000000
 20
-26.553108
 11
-143.000000
 21
-17.512543
  0
LINE
  8
0
  6
CENTER
 62
     2
 10
-147.666290
 20
-22.000000
 11
-138.432892
 21
-22.000000
  0
LINE
  8
0
  6
CENTER
 62
     2
 10
-148.428070
 20
44.000000
 11
-137.033188
 21
44.000000
  0
LINE
  8
0
  6
CENTER
 62
     2
 10
-119.000000
 20
-26.603226
 11
-119.000000
 21
-17.512543
  0
LINE
  8
0
 10
-130.999969
 20
42.309334
 11
-132.999969
 21
41.154636
  0
LINE
  8
0
 10
-133.000000
 20
41.154701
 11
-133.000000
 21
38.845299
  0
LINE
  8
0
 10
-130.999985
 20
37.690605
 11
-132.999985
 21
38.845310
  0
LINE
  8
0
 10
-128.999954
 20
38.845222
 11
-130.999954
 21
37.690521
  0
LINE
  8
0
 10
-129.000000
 20
41.154701
 11
-129.000000
 21
38.845299
  0
LINE
  8
0
 10
-131.000000
 20
42.309422
 11
-129.000000
 21
41.154720
  0
LINE
  8
0
 10
-130.999985
 20
13.309407
 11
-128.999985
 21
12.154716
  0
LINE
  8
0
 10
-130.999969
 20
13.309372
 11
-132.999969
 21
12.154671
  0
LINE
  8
0
 10
-133.000000
 20
12.154701
 11
-133.000000
 21
9.845299
  0
LINE
  8
0
 10
-130.999969
 20
8.690619
 11
-132.999969
 21
9.845320
  0
LINE
  8
0
 10
-128.999985
 20
9.845243
 11
-130.999985
 21
8.690540
  0
LINE
  8
0
 10
-129.000000
 20
12.154701
 11
-129.000000
 21
9.845299
  0
LINE
  8
0
 10
-130.999969
 20
-15.690580
 11
-128.999969
 21
-16.845280
  0
LINE
  8
0
 10
-130.999985
 20
-15.690628
 11
-132.999985
 21
-16.845329
  0
LINE
  8
0
 10
-133.000000
 20
-16.845299
 11
-133.000000
 21
-19.154701
  0
LINE
  8
0
 10
-130.999969
 20
-20.309385
 11
-132.999985
 21
-19.154684
  0
LINE
  8
0
 10
-128.999969
 20
-19.154732
 11
-130.999969
 21
-20.309439
  0
LINE
  8
0
 10
-129.000000
 20
-16.845299
 11
-129.000000
 21
-19.154701
  0
LINE
  8
0
 10
-113.000000
 20
50.000004
 11
-113.000000
 21
-28.000000
  0
LINE
  8
0
 10
-149.000000
 20
50.000000
 11
-149.000000
 21
-28.000000
  0
LINE
  8
0
  6
CENTER
 62
     2
 10
-131.000000
 20
55.071976
 11
-131.000000
 21
-32.893639
  0
LINE
  8
0
  6
CENTER
 62
     2
 10
-152.247726
 20
11.000000
 11
-109.471771
 21
11.000000
  0
LINE
  8
0
  6
CENTER
 62
     2
 10
-143.000000
 20
48.874393
 11
-143.000000
 21
39.104095
  0
LINE
  8
0
  6
CENTER
 62
     2
 10
-119.000000
 20
48.805099
 11
-119.000000
 21
39.311974
  0
LINE
  8
0
  6
CENTER
 62
     2
 10
-123.769547
 20
44.000000
 11
-114.137833
 21
44.000000
  0
LINE
  8
0
 62
     2
 10
-138.390335
 20
40.000000
 11
-123.423080
 21
40.000000
  0
LINE
  8
0
  6
CENTER
 62
     2
 10
-123.103592
 20
-22.000000
 11
-114.716721
 21
-22.000000
  0
LINE
  8
0
  6
CENTER
 62
     2
 10
-138.251846
 20
-18.000000
 11
-123.707764
 21
-18.000000
  0
LINE
  8
0
  6
CENTER
 62
     2
 10
130.000000
 20
54.663757
 11
130.000000
 21
-33.309998
  0
LINE
  8
0
 10
111.000008
 20
-30.000000
 11
148.000000
 21
-30.000000
  0
LINE
  8
0
 10
112.000000
 20
52.000000
 11
148.000000
 21
52.000000
  0
LINE
  8
0
  6
CENTER
 62
     2
 10
120.314400
 20
40.000000
 11
139.419037
 21
40.000000
  0
LINE
  8
0
  6
CENTER
 62
     2
 10
112.913284
 20
47.000000
 11
121.356491
 21
47.000000
  0
LINE
  8
0
  6
CENTER
 62
     2
 10
108.461189
 20
11.000000
 11
151.137253
 21
11.000000
  0
LINE
  8
0
  6
CENTER
 62
     2
 10
119.866638
 20
-18.000000
 11
140.016052
 21
-18.000000
  0
LINE
  8
0
 10
111.999916
 20
52.000053
 11
109.999916
 21
50.000050
  0
LINE
  8
0
 10
148.000000
 20
-30.000004
 11
149.999985
 21
-28.000004
  0
LINE
  8
0
 10
148.000046
 20
52.000011
 11
150.000046
 21
50.000008
  0
LINE
  8
0
 10
113.298798
 20
17.100006
 11
114.898773
 21
17.100006
  0
LINE
  8
0
 10
112.298782
 20
16.600006
 11
112.798798
 21
16.600006
  0
LINE
  8
0
 10
112.798828
 20
16.600000
 11
113.298820
 21
17.099993
  0
LINE
  8
0
 10
112.298782
 20
13.399994
 11
112.798798
 21
13.399994
  0
LINE
  8
0
 10
112.798767
 20
13.399955
 11
113.298775
 21
12.899959
  0
LINE
  8
0
 10
113.298798
 20
12.899994
 11
114.898773
 21
12.899994
  0
LINE
  8
0
 10
112.298782
 20
5.399994
 11
112.798798
 21
5.399994
  0
LINE
  8
0
 10
112.798744
 20
5.399953
 11
113.298744
 21
4.899951
  0
LINE
  8
0
 10
113.298798
 20
4.899994
 11
114.898773
 21
4.899994
  0
LINE
  8
0
 10
113.298798
 20
9.100006
 11
114.898773
 21
9.100006
  0
LINE
  8
0
 10
112.798775
 20
8.600039
 11
113.298775
 21
9.100039
  0
LINE
  8
0
 10
112.298782
 20
8.600006
 11
112.798798
 21
8.600006
  0
LINE
  8
0
 10
147.201218
 20
16.599977
 11
146.701218
 21
17.099977
  0
LINE
  8
0
 10
146.701202
 20
17.100006
 11
145.101227
 21
17.100006
  0
LINE
  8
0
 10
146.701202
 20
12.899994
 11
145.101227
 21
12.899994
  0
LINE
  8
0
 10
147.201126
 20
13.399972
 11
146.701126
 21
12.899982
  0
LINE
  8
0
 10
147.201202
 20
5.400020
 11
146.701187
 21
4.899999
  0
LINE
  8
0
 10
146.701202
 20
4.899994
 11
145.101227
 21
4.899994
  0
LINE
  8
0
 10
146.701202
 20
9.100006
 11
145.101227
 21
9.100006
  0
LINE
  8
0
 10
147.201431
 20
8.600141
 11
146.701431
 21
9.100132
  0
LINE
  8
0
  6
CENTER
 62
     2
 10
117.000000
 20
-20.953461
 11
117.000000
 21
-29.060440
  0
LINE
  8
0
 10
110.000000
 20
50.000031
 11
110.000000
 21
40.149994
  0
LINE
  8
0
 10
112.298805
 20
3.298789
 11
110.000038
 21
2.000018
  0
LINE
  8
0
 10
112.298813
 20
18.701283
 11
110.000053
 21
20.000050
  0
LINE
  8
0
 10
112.298782
 20
18.701233
 11
112.298782
 21
16.600006
  0
LINE
  8
0
 10
112.298782
 20
13.399994
 11
112.298782
 21
8.600006
  0
LINE
  8
0
 10
112.298782
 20
5.399994
 11
112.298782
 21
3.298782
  0
LINE
  8
0
 10
147.701279
 20
18.701244
 11
150.000031
 21
20.000006
  0
LINE
  8
0
 10
147.701233
 20
18.701233
 11
147.701233
 21
16.600006
  0
LINE
  8
0
 10
147.701218
 20
16.600006
 11
147.201202
 21
16.600006
  0
LINE
  8
0
 10
147.701218
 20
13.399994
 11
147.201202
 21
13.399994
  0
LINE
  8
0
 10
147.701233
 20
13.399994
 11
147.701233
 21
8.600006
  0
LINE
  8
0
 10
147.701218
 20
8.600006
 11
147.201202
 21
8.600006
  0
LINE
  8
0
 10
147.701218
 20
5.399994
 11
147.201202
 21
5.399994
  0
LINE
  8
0
 10
147.701233
 20
5.399994
 11
147.701233
 21
3.298782
  0
LINE
  8
0
 10
147.701294
 20
3.298824
 11
150.000046
 21
2.000061
  0
LINE
  8
0
  6
CENTER
 62
     2
 10
112.626694
 20
-25.000000
 11
121.069893
 21
-25.000000
  0
LINE
  8
0
  6
CENTER
 62
     2
 10
139.010468
 20
47.000000
 11
147.069885
 21
47.000000
  0
LINE
  8
0
  6
CENTER
 62
     2
 10
117.000000
 20
42.953461
 11
117.000000
 21
51.418503
  0
LINE
  8
0
  6
CENTER
 62
     2
 10
143.000000
 20
42.953461
 11
143.000000
 21
51.060440
  0
LINE
  8
0
 10
150.000000
 20
50.000000
 11
150.000000
 21
40.649994
  0
LINE
  8
0
 10
147.000000
 20
42.149994
 11
147.000000
 21
40.649994
  0
LINE
  8
0
 10
142.500000
 20
42.149994
 11
147.000000
 21
42.149994
  0
LINE
  8
0
 10
147.000000
 20
40.649994
 11
150.000000
 21
40.649994
  0
LINE
  8
0
 10
142.500000
 20
42.149994
 11
142.500000
 21
33.850006
  0
LINE
  8
0
 10
142.500000
 20
33.850006
 11
147.000000
 21
33.850006
  0
LINE
  8
0
 10
147.000000
 20
35.350006
 11
147.000000
 21
33.850006
  0
LINE
  8
0
 10
147.000000
 20
35.350006
 11
150.000000
 21
35.350006
  0
LINE
  8
0
 10
150.000000
 20
35.350006
 11
150.000000
 21
19.999985
  0
LINE
  8
0
 10
150.000000
 20
-13.350006
 11
150.000000
 21
2.000015
  0
LINE
  8
0
 10
147.000000
 20
-13.350006
 11
150.000000
 21
-13.350006
  0
LINE
  8
0
 10
147.000000
 20
-13.350006
 11
147.000000
 21
-11.850006
  0
LINE
  8
0
 10
142.500000
 20
-11.850006
 11
147.000000
 21
-11.850006
  0
LINE
  8
0
 10
142.500000
 20
-20.149994
 11
147.000000
 21
-20.149994
  0
LINE
  8
0
 10
147.000000
 20
-20.149994
 11
147.000000
 21
-18.649994
  0
LINE
  8
0
 10
147.000000
 20
-18.649994
 11
150.000000
 21
-18.649994
  0
LINE
  8
0
 10
150.000000
 20
-28.000000
 11
150.000000
 21
-18.649994
  0
LINE
  8
0
 10
110.000000
 20
40.149994
 11
113.000000
 21
40.149994
  0
LINE
  8
0
 10
110.000000
 20
35.850006
 11
113.000000
 21
35.850006
  0
LINE
  8
0
 10
113.000000
 20
35.850006
 11
113.000000
 21
34.350006
  0
LINE
  8
0
 10
117.000000
 20
41.649994
 11
117.000000
 21
34.350006
  0
LINE
  8
0
 10
113.000000
 20
41.649994
 11
117.000000
 21
41.649994
  0
LINE
  8
0
 10
113.000000
 20
34.350006
 11
117.000000
 21
34.350006
  0
LINE
  8
0
 10
110.000000
 20
35.850006
 11
110.000000
 21
19.999969
  0
LINE
  8
0
 10
113.000000
 20
40.149994
 11
113.000000
 21
41.649994
  0
LINE
  8
0
 10
110.000000
 20
-29.000000
 11
110.000000
 21
2.000031
  0
LINE
  8
0
 10
110.000023
 20
-29.000011
 11
111.000015
 21
-30.000006
  0
LINE
  8
0
  6
DASHED
 62
     2
 10
111.773636
 20
-27.065565
 11
111.636139
 21
-29.999977
  0
LINE
  8
0
  6
DASHED
 62
     2
 10
112.216995
 20
-27.065567
 11
112.216995
 21
-30.000000
  0
LINE
  8
0
  6
DASHED
 62
     2
 10
120.783005
 20
-27.065567
 11
120.783005
 21
-30.000000
  0
LINE
  8
0
  6
DASHED
 62
     2
 10
121.226776
 20
-27.065565
 11
121.364265
 21
-29.999960
  0
LINE
  8
0
 10
142.500000
 20
-11.850006
 11
142.500000
 21
-20.149994
  0
LINE
  8
0
  6
CENTER
 62
     2
 10
141.230408
 20
-16.000000
 11
144.160873
 21
-16.000000
  0
LINE
  8
0
  6
CENTER
 62
     2
 10
141.230408
 20
38.000000
 11
144.554001
 21
38.000000
  0
LINE
  8
0
 10
137.984360
 20
39.500000
 11
142.500000
 21
39.500000
  0
LINE
  8
0
 10
137.193756
 20
36.500000
 11
142.500000
 21
36.500000
  0
LINE
  8
0
 10
137.193756
 20
-14.500000
 11
142.500000
 21
-14.500000
  0
LINE
  8
0
 10
137.984360
 20
-17.500000
 11
142.500000
 21
-17.500000
  0
LINE
  8
0
  6
CENTER
 62
     2
 10
118.000000
 20
-14.143341
 11
118.000000
 21
-17.956879
  0
LINE
  8
0
  6
CENTER
 62
     2
 10
116.500000
 20
-25.759411
 11
116.500000
 21
-30.884735
  0
LINE
  8
0
  6
CENTER
 62
     2
 10
116.108849
 20
-16.000000
 11
119.960510
 21
-16.000000
  0
LINE
  8
0
  6
CENTER
 62
     2
 10
143.000000
 20
-20.953461
 11
143.000000
 21
-29.060440
  0
LINE
  8
0
  6
CENTER
 62
     2
 10
138.626694
 20
-25.000000
 11
147.069885
 21
-25.000000
  0
LINE
  8
0
  6
CENTER
 62
     2
 10
113.000000
 20
38.000000
 11
118.350121
 21
38.000000
  0
LINE
  8
0
 10
148.000000
 20
40.649994
 11
148.000000
 21
35.350006
  0
LINE
  8
0
 10
112.000000
 20
40.149994
 11
112.000000
 21
35.850006
  0
LINE
  8
0
 10
112.000000
 20
18.870079
 11
112.000000
 21
3.129980
  0
LINE
  8
0
 10
148.000000
 20
18.870022
 11
148.000000
 21
3.130068
  0
LINE
  8
0
 10
148.000000
 20
-13.350006
 11
148.000000
 21
-18.649994
  0
LINE
  8
0
 10
-194.250000
 20
132.600006
 11
194.800003
 21
132.600006
  0
LINE
  8
0
 10
194.800003
 20
132.600006
 11
194.800003
 21
-133.500000
  0
LINE
  8
0
 10
-194.250000
 20
132.600006
 11
-194.250000
 21
-133.500000
  0
LINE
  8
0
 10
-194.250000
 20
-133.500000
 11
194.800003
 21
-133.500000
  0
LINE
  8
0
 10
109.800003
 20
-118.500000
 11
109.800003
 21
-133.500000
  0
LINE
  8
0
 10
109.800003
 20
-118.500000
 11
194.800003
 21
-118.500000
  0
LINE
  8
0
 10
109.800003
 20
132.600006
 11
109.800003
 21
117.600006
  0
LINE
  8
0
 10
109.800003
 20
117.600006
 11
194.800003
 21
117.600006
  0
LINE
  8
0
 10
-194.250000
 20
117.600006
 11
-84.250000
 21
117.600006
  0
LINE
  8
0
 10
-84.250000
 20
132.600006
 11
-84.250000
 21
117.600006
  0
LINE
  8
0
 10
-184.250000
 20
-123.500000
 11
-39.250000
 21
-123.500000
  0
LINE
  8
0
 10
-184.250000
 20
-115.500000
 11
-39.250000
 21
-115.500000
  0
LINE
  8
0
 10
-184.250000
 20
-107.500000
 11
-39.250000
 21
-107.500000
  0
LINE
  8
0
 10
-159.250000
 20
-123.500000
 11
-159.250000
 21
-92.500000
  0
LINE
  8
0
 10
-135.250000
 20
-123.500000
 11
-135.250000
 21
-92.500000
  0
LINE
  8
0
 10
-147.250000
 20
-123.500000
 11
-147.250000
 21
-92.500000
  0
LINE
  8
0
 10
-123.250000
 20
-123.500000
 11
-123.250000
 21
-92.500000
  0
LINE
  8
0
 10
-111.250000
 20
-123.500000
 11
-111.250000
 21
-92.500000
  0
LINE
  8
0
 10
-99.250000
 20
-123.500000
 11
-99.250000
 21
-92.500000
  0
LINE
  8
0
 10
-159.250046
 20
-107.500015
 11
-161.929535
 21
-97.500023
  0
LINE
  8
0
 10
-184.250000
 20
-97.500000
 11
-161.929489
 21
-97.500000
  0
LINE
  8
0
 10
-184.250000
 20
-92.500000
 11
-39.250000
 21
-92.500000
  0
LINE
  8
0
 10
-87.250000
 20
-123.500000
 11
-87.250000
 21
-92.500000
  0
LINE
  8
0
 10
-75.250000
 20
-123.500000
 11
-75.250000
 21
-92.500000
  0
LINE
  8
0
 10
-63.250000
 20
-123.500000
 11
-63.250000
 21
-92.500000
  0
LINE
  8
0
 10
-51.250000
 20
-123.500000
 11
-51.250000
 21
-92.500000
  0
LINE
  8
0
 10
-39.250000
 20
-123.500000
 11
-39.250000
 21
-92.500000
  0
LINE
  8
0
 10
-184.250000
 20
-123.500000
 11
-184.250000
 21
-92.500000
  0
CIRCLE
  8
0
 10
22.000000
 20
-16.000000
 40
4.283005
  0
CIRCLE
  8
0
 10
-3.000000
 20
-16.000000
 40
4.283005
  0
CIRCLE
  8
0
 62
     2
 10
22.000000
 20
-15.999985
 40
4.863995
  0
CIRCLE
  8
0
 62
     2
 10
-3.000000
 20
-15.999985
 40
4.863995
  0
ARC
  8
0
 10
-30.500000
 20
11.000008
 40
5.000000
 50
323.130096
 51
36.869896
  0
CIRCLE
  8
0
  6
DASHED
 62
     2
 10
12.000000
 20
26.000000
 40
3.000000
  0
CIRCLE
  8
0
 10
12.000000
 20
26.000000
 40
2.600000
  0
CIRCLE
  8
0
  6
DASHED
 62
     2
 10
-18.000000
 20
26.000000
 40
3.000000
  0
CIRCLE
  8
0
 10
-18.000000
 20
26.000000
 40
2.600000
  0
CIRCLE
  8
0
 10
-18.000000
 20
26.000000
 40
4.750000
  0
CIRCLE
  8
0
 10
12.000000
 20
26.000000
 40
4.750000
  0
CIRCLE
  8
0
  6
DASHED
 62
     2
 10
12.000000
 20
-4.000000
 40
3.000000
  0
CIRCLE
  8
0
 10
12.000000
 20
-4.000000
 40
2.600000
  0
CIRCLE
  8
0
  6
DASHED
 62
     2
 10
-18.000000
 20
-4.000000
 40
3.000000
  0
CIRCLE
  8
0
 10
-18.000000
 20
-4.000000
 40
2.600000
  0
CIRCLE
  8
0
 10
-18.000000
 20
-4.000000
 40
4.750000
  0
CIRCLE
  8
0
 10
12.000000
 20
-4.000000
 40
4.750000
  0
CIRCLE
  8
0
 10
-131.000000
 20
-18.000000
 40
5.250000
  0
CIRCLE
  8
0
 10
-131.000000
 20
11.000000
 40
5.250000
  0
CIRCLE
  8
0
 10
-131.000000
 20
-18.000000
 40
3.400000
  0
CIRCLE
  8
0
 10
-131.000000
 20
11.000000
 40
3.400000
  0
CIRCLE
  8
0
 10
-131.000000
 20
40.000000
 40
5.750000
  0
CIRCLE
  8
0
 10
-131.000000
 20
11.000000
 40
5.750000
  0
CIRCLE
  8
0
 62
     2
 10
-143.000000
 20
-22.000000
 40
3.000000
  0
CIRCLE
  8
0
 10
-143.000000
 20
-22.000000
 40
2.500000
  0
CIRCLE
  8
0
 10
-131.000000
 20
-18.000000
 40
5.750000
  0
CIRCLE
  8
0
 10
-143.000000
 20
44.000000
 40
2.500000
  0
CIRCLE
  8
0
 62
     2
 10
-143.000000
 20
44.000000
 40
3.000000
  0
CIRCLE
  8
0
 10
-119.000000
 20
-22.000000
 40
2.500000
  0
CIRCLE
  8
0
 62
     2
 10
-119.000000
 20
-22.000000
 40
3.000000
  0
CIRCLE
  8
0
 10
-119.000000
 20
44.000000
 40
2.500000
  0
CIRCLE
  8
0
 62
     2
 10
-119.000000
 20
44.000000
 40
3.000000
  0
CIRCLE
  8
0
 10
-131.000000
 20
40.000000
 40
5.250000
  0
CIRCLE
  8
0
 10
-131.000000
 20
40.000000
 40
3.400000
  0
CIRCLE
  8
0
 10
130.000000
 20
-18.000000
 40
7.000000
  0
CIRCLE
  8
0
 10
130.000000
 20
40.000000
 40
7.000000
  0
CIRCLE
  8
0
 10
130.000000
 20
40.000000
 40
8.000000
  0
CIRCLE
  8
0
 10
130.000000
 20
-18.000000
 40
8.000000
  0
ARC
  8
0
 10
114.898773
 20
15.000000
 40
2.100000
 50
270.000000
 51
90.000000
  0
ARC
  8
0
 10
114.898773
 20
7.000000
 40
2.100000
 50
270.000000
 51
90.000000
  0
ARC
  8
0
 10
145.101227
 20
15.000000
 40
2.100000
 50
90.000000
 51
270.000000
  0
ARC
  8
0
 10
145.101227
 20
7.000000
 40
2.100000
 50
90.000000
 51
270.000000
  0
CIRCLE
  8
0
 62
     2
 10
117.000000
 20
47.000000
 40
3.000000
  0
CIRCLE
  8
0
 10
117.000000
 20
47.000000
 40
2.500000
  0
CIRCLE
  8
0
 62
     2
 10
117.000000
 20
-25.000000
 40
3.000000
  0
CIRCLE
  8
0
 10
117.000000
 20
-25.000000
 40
2.500000
  0
CIRCLE
  8
0
 62
     2
 10
143.000000
 20
47.000000
 40
3.000000
  0
CIRCLE
  8
0
 10
143.000000
 20
47.000000
 40
2.500000
  0
CIRCLE
  8
0
 10
130.000000
 20
11.000000
 40
11.000000
  0
CIRCLE
  8
0
 10
118.000000
 20
-16.000000
 40
1.000000
  0
CIRCLE
  8
0
 62
     2
 10
143.000000
 20
-25.000000
 40
3.000000
  0
CIRCLE
  8
0
 10
143.000000
 20
-25.000000
 40
2.500000
  0
TEXT
  8
0
 10
133.907150
 20
122.050003
 40
4.500000
  1
Ver. 1.0
 50
0.000000
 41
1.052631
 51
0.000000
  7
STANDARD
  0
TEXT
  8
0
 10
113.700279
 20
-130.669998
 40
6.300000
  1
KOGANEI CORP.
 50
0.000000
 41
1.052632
 51
0.000000
  7
STANDARD
  0
TEXT
  8
0
 10
-191.392654
 20
122.050003
 40
4.500000
  1
JIG CYLINDER WITH GUIDE
 50
0.000000
 41
1.052632
 51
0.000000
  7
STANDARD
  0
TEXT
  8
0
 10
-186.892654
 20
104.550003
 40
4.500000
  1
MODEL:SGDAY20*ST(10)
 50
0.000000
 41
1.052632
 51
0.000000
  7
STANDARD
  0
TEXT
  8
0
 10
-159.892654
 20
97.550003
 40
4.500000
  1
SGDAFY20*ST(10)
 50
0.000000
 41
1.052632
 51
0.000000
  7
STANDARD
  0
TEXT
  8
0
 10
-181.557144
 20
-96.879997
 40
3.200000
  1
STROKE
 50
0.000000
 41
1.052631
 51
0.000000
  7
STANDARD
  0
TEXT
  8
0
 10
-173.557144
 20
-113.379997
 40
3.200000
  1
A
 50
0.000000
 41
1.052631
 51
0.000000
  7
STANDARD
  0
TEXT
  8
0
 10
-184.496872
 20
-101.019997
 40
3.200000
  1
STRETCH
 50
0.000000
 41
1.052631
 51
0.000000
  7
STANDARD
  0
TEXT
  8
0
 10
-184.496872
 20
-105.820000
 40
3.200000
  1
  PLACE
 50
0.000000
 41
1.052631
 51
0.000000
  7
STANDARD
  0
TEXT
  8
0
 10
-156.657150
 20
-101.879997
 40
3.200000
  1
10
 50
0.000000
 41
1.052631
 51
0.000000
  7
STANDARD
  0
TEXT
  8
0
 10
-144.657150
 20
-101.879997
 40
3.200000
  1
20
 50
0.000000
 41
1.052631
 51
0.000000
  7
STANDARD
  0
TEXT
  8
0
 10
-132.657150
 20
-101.879997
 40
3.200000
  1
30
 50
0.000000
 41
1.052631
 51
0.000000
  7
STANDARD
  0
TEXT
  8
0
 10
-120.657158
 20
-101.879997
 40
3.200000
  1
50
 50
0.000000
 41
1.052631
 51
0.000000
  7
STANDARD
  0
TEXT
  8
0
 10
-108.657158
 20
-101.879997
 40
3.200000
  1
75
 50
0.000000
 41
1.052631
 51
0.000000
  7
STANDARD
  0
TEXT
  8
0
 10
-51.857143
 20
-91.379997
 40
3.200000
  1
(mm)
 50
0.000000
 41
1.052631
 51
0.000000
  7
STANDARD
  0
TEXT
  8
0
 10
-131.157135
 20
-91.379997
 40
3.200000
  1
STRETCH LIST
 50
0.000000
 41
1.052631
 51
0.000000
  7
STANDARD
  0
TEXT
  8
0
 10
-173.557007
 20
-121.379997
 40
3.200000
  1
B
 50
0.000000
 41
1.052632
 51
0.000000
  7
STANDARD
  0
TEXT
  8
0
 10
-98.257156
 20
-101.879997
 40
3.200000
  1
100
 50
0.000000
 41
1.052631
 51
0.000000
  7
STANDARD
  0
TEXT
  8
0
 10
-86.257156
 20
-101.879997
 40
3.200000
  1
125
 50
0.000000
 41
1.052631
 51
0.000000
  7
STANDARD
  0
TEXT
  8
0
 10
-74.257156
 20
-101.879997
 40
3.200000
  1
150
 50
0.000000
 41
1.052631
 51
0.000000
  7
STANDARD
  0
TEXT
  8
0
 10
-62.257156
 20
-101.879997
 40
3.200000
  1
175
 50
0.000000
 41
1.052631
 51
0.000000
  7
STANDARD
  0
TEXT
  8
0
 10
-50.257156
 20
-101.879997
 40
3.200000
  1
200
 50
0.000000
 41
1.052631
 51
0.000000
  7
STANDARD
  0
TEXT
  8
0
 10
-155.057007
 20
-113.379997
 40
3.200000
  1
0
 50
0.000000
 41
1.052632
 51
0.000000
  7
STANDARD
  0
TEXT
  8
0
 10
-143.057007
 20
-113.379997
 40
3.200000
  1
0
 50
0.000000
 41
1.052632
 51
0.000000
  7
STANDARD
  0
TEXT
  8
0
 10
-131.057007
 20
-113.379997
 40
3.200000
  1
0
 50
0.000000
 41
1.052632
 51
0.000000
  7
STANDARD
  0
TEXT
  8
0
 10
-119.056999
 20
-113.379997
 40
3.200000
  1
0
 50
0.000000
 41
1.052632
 51
0.000000
  7
STANDARD
  0
TEXT
  8
0
 10
-108.656998
 20
-113.379997
 40
3.200000
  1
25
 50
0.000000
 41
1.052632
 51
0.000000
  7
STANDARD
  0
TEXT
  8
0
 10
-96.656998
 20
-113.379997
 40
3.200000
  1
50
 50
0.000000
 41
1.052632
 51
0.000000
  7
STANDARD
  0
TEXT
  8
0
 10
-84.656998
 20
-113.379997
 40
3.200000
  1
25
 50
0.000000
 41
1.052632
 51
0.000000
  7
STANDARD
  0
TEXT
  8
0
 10
-72.656998
 20
-113.379997
 40
3.200000
  1
50
 50
0.000000
 41
1.052632
 51
0.000000
  7
STANDARD
  0
TEXT
  8
0
 10
-60.657001
 20
-113.379997
 40
3.200000
  1
75
 50
0.000000
 41
1.052632
 51
0.000000
  7
STANDARD
  0
TEXT
  8
0
 10
-50.257000
 20
-113.379997
 40
3.200000
  1
100
 50
0.000000
 41
1.052632
 51
0.000000
  7
STANDARD
  0
TEXT
  8
0
 10
-155.057007
 20
-121.379997
 40
3.200000
  1
0
 50
0.000000
 41
1.052632
 51
0.000000
  7
STANDARD
  0
TEXT
  8
0
 10
-144.656998
 20
-121.379997
 40
3.200000
  1
10
 50
0.000000
 41
1.052632
 51
0.000000
  7
STANDARD
  0
TEXT
  8
0
 10
-132.656998
 20
-121.379997
 40
3.200000
  1
20
 50
0.000000
 41
1.052632
 51
0.000000
  7
STANDARD
  0
TEXT
  8
0
 10
-120.656998
 20
-121.379997
 40
3.200000
  1
40
 50
0.000000
 41
1.052632
 51
0.000000
  7
STANDARD
  0
TEXT
  8
0
 10
-108.656998
 20
-121.379997
 40
3.200000
  1
40
 50
0.000000
 41
1.052632
 51
0.000000
  7
STANDARD
  0
TEXT
  8
0
 10
-96.656998
 20
-121.379997
 40
3.200000
  1
40
 50
0.000000
 41
1.052632
 51
0.000000
  7
STANDARD
  0
TEXT
  8
0
 10
-84.656998
 20
-121.379997
 40
3.200000
  1
90
 50
0.000000
 41
1.052632
 51
0.000000
  7
STANDARD
  0
TEXT
  8
0
 10
-72.656998
 20
-121.379997
 40
3.200000
  1
90
 50
0.000000
 41
1.052632
 51
0.000000
  7
STANDARD
  0
TEXT
  8
0
 10
-60.657001
 20
-121.379997
 40
3.200000
  1
90
 50
0.000000
 41
1.052632
 51
0.000000
  7
STANDARD
  0
TEXT
  8
0
 10
-48.657001
 20
-121.379997
 40
3.200000
  1
90
 50
0.000000
 41
1.052632
 51
0.000000
  7
STANDARD
  0
TEXT
  8
0
 62
     3
 10
9.692858
 20
62.119999
 40
3.200000
  1
STRETCH LINE A
 50
0.000000
 41
1.052631
 51
0.000000
  7
STANDARD
  0
TEXT
  8
0
 62
     3
 10
-4.307000
 20
69.120003
 40
3.200000
  1
STRETCH LINE B
 50
0.000000
 41
1.052632
 51
0.000000
  7
STANDARD
  0
TEXT
  8
0
 62
     2
 10
59.511547
 20
-44.000000
 40
3.200000
  1
STROKE=75-200
 50
0.000000
 41
1.052632
 51
0.000000
  7
STANDARD
  0
LINE
  8
0
 62
     2
 10
55.000000
 20
-45.000000
 11
100.861549
 21
-45.000000
  0
LINE
  8
0
 62
     2
 10
32.000000
 20
-45.000000
 11
55.000000
 21
-45.000000
  0
LINE
  8
0
 62
     2
 10
32.000000
 20
-45.000000
 11
34.897778
 21
-44.223541
  0
LINE
  8
0
 62
     2
 10
32.000000
 20
-45.000000
 11
34.897778
 21
-45.776459
  0
LINE
  8
0
 62
     2
 10
55.000000
 20
-45.000000
 11
52.102222
 21
-45.776459
  0
LINE
  8
0
 62
     2
 10
55.000000
 20
-45.000000
 11
52.102222
 21
-44.223541
  0
LINE
  8
0
 62
     2
 10
32.000000
 20
-29.500000
 11
32.000000
 21
-46.500000
  0
LINE
  8
0
 62
     2
 10
55.000000
 20
-24.500008
 11
55.000000
 21
-46.500000
  0
ENDSEC
  0
EOF
