  0
SECTION
  2
HEADER
  0
ENDSEC
  0
SECTION
  2
TABLES
  0
TABLE
  2
LTYPE
 70
     4
  0
LTYPE
  2
CONTINUOUS
 70
    64
  3
Solid line
 72
    65
 73
     0
 40
0.000000
  0
LTYPE
  2
DASHED
 70
    64
  3
__ __ __ __ __ __ __ __ __ __ __ __ __ __ __
 72
    65
 73
     2
 40
3.500000
 49
2.000000
 49
-1.500000
  0
LTYPE
  2
CENTER
 70
    64
  3
____ _ ____ _ ____ _ ____ _ ____ _ ____ _ ____
 72
    65
 73
     4
 40
17.500000
 49
13.000000
 49
-1.500000
 49
1.500000
 49
-1.500000
  0
LTYPE
  2
PHANTOM
 70
    64
  3
_____ _ _ _____ _ _ _____ _ _ _____ _ _ ____  
 72
    65
 73
     6
 40
15.500000
 49
8.000000
 49
-1.500000
 49
1.500000
 49
-1.500000
 49
1.500000
 49
-1.500000
  0
LTYPE
  2
DASHED1
 70
    64
  3
__ __ __ __ __ __ __ __ __ __ __ __ __ __ __
 72
    65
 73
     2
 40
1.500000
 49
1.000000
 49
-0.500000
  0
LTYPE
  2
DASHED2
 70
    64
  3
__ __ __ __ __ __ __ __ __ __ __ __ __ __ __
 72
    65
 73
     2
 40
3.500000
 49
2.500000
 49
-1.000000
  0
LTYPE
  2
DASHED3
 70
    64
  3
__ __ __ __ __ __ __ __ __ __ __ __ __ __ __
 72
    65
 73
     2
 40
6.000000
 49
4.000000
 49
-2.000000
  0
LTYPE
  2
DASHED4
 70
    64
  3
__ __ __ __ __ __ __ __ __ __ __ __ __ __ __
 72
    65
 73
     2
 40
12.000000
 49
10.000000
 49
-2.000000
  0
LTYPE
  2
DASHED5
 70
    64
  3
__ __ __ __ __ __ __ __ __ __ __ __ __ __ __
 72
    65
 73
     2
 40
17.000000
 49
15.000000
 49
-2.000000
  0
LTYPE
  2
DASHED6
 70
    64
  3
__ __ __ __ __ __ __ __ __ __ __ __ __ __ __
 72
    65
 73
     2
 40
29.000000
 49
27.000000
 49
-2.000000
  0
LTYPE
  2
PHANTOM1
 70
    64
  3
_____ _ _ _____ _ _ _____ _ _ _____ _ _ ____  
 72
    65
 73
     6
 40
31.000000
 49
25.000000
 49
-1.500000
 49
1.000000
 49
-1.000000
 49
1.000000
 49
-1.500000
  0
LTYPE
  2
PHANTOM2
 70
    64
  3
_____ _ _ _____ _ _ _____ _ _ _____ _ _ ____  
 72
    65
 73
     6
 40
36.000000
 49
27.000000
 49
-1.500000
 49
2.500000
 49
-1.000000
 49
2.500000
 49
-1.500000
  0
LTYPE
  2
PHANTOM3
 70
    64
  3
_____ _ _ _____ _ _ _____ _ _ _____ _ _ ____  
 72
    65
 73
     6
 40
78.000000
 49
64.000000
 49
-2.000000
 49
4.000000
 49
-2.000000
 49
4.000000
 49
-2.000000
  0
LTYPE
  2
CENTER1
 70
    64
  3
____ _ ____ _ ____ _ ____ _ ____ _ ____ _ ____
 72
    65
 73
     4
 40
19.000000
 49
14.000000
 49
-1.000000
 49
3.000000
 49
-1.000000
  0
LTYPE
  2
CENTER2
 70
    64
  3
____ _ ____ _ ____ _ ____ _ ____ _ ____ _ ____
 72
    65
 73
     4
 40
28.500000
 49
25.000000
 49
-1.000000
 49
1.500000
 49
-1.000000
  0
LTYPE
  2
CENTER3
 70
    64
  3
____ _ ____ _ ____ _ ____ _ ____ _ ____ _ ____
 72
    65
 73
     4
 40
31.500000
 49
27.000000
 49
-1.000000
 49
2.500000
 49
-1.000000
  0
LTYPE
  2
CENTER4
 70
    64
  3
____ _ ____ _ ____ _ ____ _ ____ _ ____ _ ____
 72
    65
 73
     4
 40
50.000000
 49
45.000000
 49
-1.000000
 49
3.000000
 49
-1.000000
  0
LTYPE
  2
CENTER5
 70
    64
  3
____ _ ____ _ ____ _ ____ _ ____ _ ____ _ ____
 72
    65
 73
     4
 40
100.000000
 49
92.000000
 49
-2.000000
 49
4.000000
 49
-2.000000
  0
LTYPE
  2
SBK1
 70
    64
  3
______ _ _ _ ______ _ _ _ ______ _ _ _ _____  
 72
    65
 73
     8
 40
60.500000
 49
45.000000
 49
-2.000000
 49
2.500000
 49
-2.000000
 49
2.500000
 49
-2.000000
 49
2.500000
 49
-2.000000
  0
LTYPE
  2
SBK2
 70
    64
  3
______ _ _ _ ______ _ _ _ ______ _ _ _ _____  
 72
    65
 73
     8
 40
84.000000
 49
64.000000
 49
-2.000000
 49
4.000000
 49
-2.000000
 49
4.000000
 49
-2.000000
 49
4.000000
 49
-2.000000
  0
LTYPE
  2
STCH
 70
    64
  3
__ __ __ __ __ __ __ __ __ __ __ __ __ __ __
 72
    65
 73
     2
 40
3.000000
 49
1.000000
 49
-2.000000
  0
LTYPE
  2
MTCH
 70
    64
  3
_____ _ _ _____ _ _ _____ _ _ _____ _ _ ____  
 72
    65
 73
     6
 40
80.000000
 49
66.000000
 49
-2.000000
 49
4.000000
 49
-2.000000
 49
4.000000
 49
-2.000000
  0
ENDTAB
  0
TABLE
  2
LAYER
 70
     1
  0
LAYER
  2
0
 70
     0
 62
     7
  6
CONTINUOUS
  0
ENDTAB
  0
TABLE
  2
STYLE
 70
     1
  0
STYLE
  2
STANDARD
 70
     0
 40
0.000000
 41
1.000000
 50
0.000000
 71
     0
 42
0.200000
  3
txt
  4
BIGFONT
  0
ENDTAB
  0
TABLE
  2
VIEW
 70
     0
  0
ENDTAB
  0
ENDSEC
  0
SECTION
  2
BLOCKS
  0
ENDSEC
  0
SECTION
  2
ENTITIES
  0
LINE
  8
0
 10
-27.999996
 20
20.999996
 11
-23.999996
 21
20.999996
  0
LINE
  8
0
 10
-27.999996
 20
55.000008
 11
-27.999996
 21
-23.000004
  0
LINE
  8
0
 10
-39.999996
 20
55.000000
 11
-39.999996
 21
-23.000004
  0
LINE
  8
0
 10
-23.499996
 20
56.999996
 11
31.500004
 21
56.999996
  0
LINE
  8
0
 10
-38.999996
 20
56.000004
 11
-28.999996
 21
56.000004
  0
LINE
  8
0
 10
-38.999996
 20
-24.000004
 11
-28.999996
 21
-24.000004
  0
LINE
  8
0
 10
-26.499996
 20
19.000004
 11
-26.499996
 21
13.000005
  0
LINE
  8
0
 10
-27.999996
 20
13.000005
 11
-26.499996
 21
13.000005
  0
LINE
  8
0
 10
-28.000002
 20
17.499851
 11
-26.500048
 21
12.999987
  0
LINE
  8
0
 10
-26.500004
 20
19.000067
 11
-28.000025
 21
14.500006
  0
LINE
  8
0
 10
-27.999996
 20
10.999997
 11
-23.999996
 21
10.999997
  0
LINE
  8
0
  6
CENTER
 62
     2
 10
-42.516106
 20
44.999996
 11
-21.431667
 21
44.999996
  0
LINE
  8
0
 10
-39.999954
 20
-22.999956
 11
-38.999950
 21
-23.999954
  0
LINE
  8
0
 10
-29.000027
 20
-24.000002
 11
-28.000027
 21
-23.000002
  0
LINE
  8
0
 10
-38.999966
 20
55.999977
 11
-39.999966
 21
54.999973
  0
LINE
  8
0
 10
-28.999992
 20
55.999996
 11
-28.000006
 21
55.000008
  0
LINE
  8
0
 10
-23.500019
 20
57.000027
 11
-24.000019
 21
56.500023
  0
LINE
  8
0
 10
31.499994
 20
57.000000
 11
31.999996
 21
56.500000
  0
LINE
  8
0
  6
CENTER
 62
     2
 10
-23.464260
 20
30.999996
 11
-11.884716
 21
30.999996
  0
LINE
  8
0
 10
-23.999996
 20
24.999996
 11
32.000004
 21
24.999996
  0
LINE
  8
0
 10
-23.999996
 20
23.408512
 11
32.000004
 21
23.408512
  0
LINE
  8
0
 10
-23.999996
 20
21.599995
 11
32.000004
 21
21.599995
  0
LINE
  8
0
 10
-23.999996
 20
18.399998
 11
32.000004
 21
18.399998
  0
LINE
  8
0
 10
-23.999996
 20
55.000011
 11
32.000004
 21
55.000011
  0
LINE
  8
0
 10
-27.999996
 20
19.000004
 11
-26.499996
 21
19.000004
  0
LINE
  8
0
  6
CENTER
 62
     2
 10
-42.809612
 20
-12.999980
 11
-21.431667
 21
-12.999980
  0
LINE
  8
0
  6
DASHED
 62
     2
 10
32.000004
 20
-6.999949
 11
54.500004
 21
-6.999949
  0
LINE
  8
0
  6
DASHED
 62
     2
 10
32.000004
 20
-19.000011
 11
54.500004
 21
-19.000011
  0
LINE
  8
0
  6
DASHED
 62
     2
 10
55.000004
 20
-7.499965
 11
55.000004
 21
-18.500011
  0
LINE
  8
0
  6
DASHED
 62
     2
 10
54.499992
 20
-6.999954
 11
54.999989
 21
-7.499948
  0
LINE
  8
0
  6
DASHED
 62
     2
 10
54.999992
 20
-18.500000
 11
54.499989
 21
-19.000002
  0
LINE
  8
0
  6
DASHED
 62
     2
 10
54.500004
 20
-6.999949
 11
54.500004
 21
-19.000011
  0
LINE
  8
0
  6
DASHED
 62
     2
 10
32.000004
 20
51.000027
 11
54.500004
 21
51.000027
  0
LINE
  8
0
  6
DASHED
 62
     2
 10
32.000004
 20
38.999966
 11
54.500004
 21
38.999966
  0
LINE
  8
0
  6
DASHED
 62
     2
 10
55.000004
 20
50.500031
 11
55.000004
 21
39.499966
  0
LINE
  8
0
  6
DASHED
 62
     2
 10
54.499996
 20
51.000011
 11
54.999996
 21
50.500015
  0
LINE
  8
0
  6
DASHED
 62
     2
 10
54.999996
 20
39.499962
 11
54.499996
 21
38.999962
  0
LINE
  8
0
  6
DASHED
 62
     2
 10
54.500004
 20
51.000027
 11
54.500004
 21
38.999966
  0
LINE
  8
0
  6
CENTER
 62
     2
 10
12.000004
 20
7.049100
 11
12.000004
 21
-4.876101
  0
LINE
  8
0
  6
CENTER
 62
     2
 10
-17.999996
 20
7.049100
 11
-17.999996
 21
-5.048923
  0
LINE
  8
0
  6
CENTER
 62
     2
 10
-23.464260
 20
0.999997
 11
-11.884716
 21
0.999997
  0
LINE
  8
0
 10
-23.999996
 20
56.499996
 11
-23.999996
 21
-24.500004
  0
LINE
  8
0
 10
32.000004
 20
56.499996
 11
32.000004
 21
-24.500004
  0
LINE
  8
0
  6
CENTER
 62
     2
 10
-42.297554
 20
15.999997
 11
34.230503
 21
15.999997
  0
LINE
  8
0
 10
-23.499981
 20
-25.000004
 11
31.500004
 21
-25.000004
  0
LINE
  8
0
  6
CENTER
 62
     2
 10
6.065434
 20
0.999997
 11
18.163456
 21
0.999997
  0
LINE
  8
0
 10
-23.999996
 20
13.600003
 11
32.000004
 21
13.600003
  0
LINE
  8
0
 10
-23.999996
 20
10.399991
 11
32.000004
 21
10.399991
  0
LINE
  8
0
 10
-23.999996
 20
8.591489
 11
32.000004
 21
8.591489
  0
LINE
  8
0
 10
-23.999996
 20
6.999997
 11
32.000004
 21
6.999997
  0
LINE
  8
0
 10
-23.999996
 20
-24.000004
 11
32.000004
 21
-24.000004
  0
LINE
  8
0
  6
CENTER
 62
     2
 10
16.134239
 20
-11.000003
 11
28.173466
 21
-11.000003
  0
LINE
  8
0
 10
32.000015
 20
-24.500015
 11
31.500017
 21
-25.000017
  0
LINE
  8
0
 10
-23.999947
 20
-24.499929
 11
-23.499928
 21
-24.999933
  0
LINE
  8
0
  6
CENTER
 62
     2
 10
22.000004
 20
-4.690789
 11
22.000004
 21
-17.634834
  0
LINE
  8
0
  6
DASHED
 62
     2
 10
-7.283001
 20
-22.065571
 11
-7.283001
 21
-25.000004
  0
LINE
  8
0
  6
DASHED
 62
     2
 10
-7.726458
 20
-22.065571
 11
-7.863948
 21
-24.999994
  0
LINE
  8
0
  6
DASHED
 62
     2
 10
1.283009
 20
-22.065571
 11
1.283009
 21
-25.000004
  0
LINE
  8
0
  6
CENTER
 62
     2
 10
-9.424995
 20
-11.000003
 11
2.932789
 21
-11.000003
  0
LINE
  8
0
  6
DASHED
 62
     2
 10
1.726642
 20
-22.065571
 11
1.864132
 21
-24.999973
  0
LINE
  8
0
  6
DASHED
 62
     2
 10
7.716999
 20
-22.065571
 11
7.716999
 21
-25.000004
  0
LINE
  8
0
  6
DASHED
 62
     2
 10
7.273500
 20
-22.065571
 11
7.136010
 21
-25.000010
  0
LINE
  8
0
  6
DASHED
 62
     2
 10
16.726669
 20
-22.065571
 11
16.864161
 21
-24.999998
  0
LINE
  8
0
  6
DASHED
 62
     2
 10
16.283009
 20
-22.065571
 11
16.283009
 21
-25.000004
  0
LINE
  8
0
  6
CENTER
 62
     2
 10
-2.999996
 20
-5.005549
 11
-2.999996
 21
-17.285683
  0
LINE
  8
0
  6
CENTER
 62
     2
 10
-2.999996
 20
-20.554718
 11
-2.999996
 21
-25.914234
  0
LINE
  8
0
  6
CENTER
 62
     2
 10
-17.999996
 20
37.242149
 11
-17.999996
 21
24.726139
  0
LINE
  8
0
  6
CENTER
 62
     2
 10
12.000004
 20
37.118229
 11
12.000004
 21
24.726139
  0
LINE
  8
0
  6
CENTER
 62
     2
 10
5.640167
 20
30.999996
 11
18.280094
 21
30.999996
  0
LINE
  8
0
 10
-23.999996
 20
45.149990
 11
32.000004
 21
45.149990
  0
LINE
  8
0
 10
-23.999996
 20
40.850002
 11
32.000004
 21
40.850002
  0
LINE
  8
0
 10
-27.999996
 20
-19.000034
 11
-23.999996
 21
-19.000034
  0
LINE
  8
0
 10
-27.999996
 20
-6.999972
 11
-23.999996
 21
-6.999972
  0
LINE
  8
0
 10
-27.999996
 20
38.999966
 11
-23.999996
 21
38.999966
  0
LINE
  8
0
 10
-27.999996
 20
51.000027
 11
-23.999996
 21
51.000027
  0
LINE
  8
0
  6
PHANTOM
 62
     3
 10
3.500004
 20
72.000000
 11
3.500004
 21
-30.800007
  0
LINE
  8
0
  6
PHANTOM
 62
     3
 10
6.000004
 20
-6.400004
 11
19.000004
 21
-6.400004
  0
LINE
  8
0
  6
PHANTOM
 62
     3
 10
6.000004
 20
-6.400004
 11
6.000004
 21
-30.800007
  0
LINE
  8
0
  6
PHANTOM
 62
     3
 10
19.000004
 20
65.000000
 11
19.000004
 21
-6.400004
  0
LINE
  8
0
  6
CENTER
 62
     2
 10
12.000004
 20
-20.554718
 11
12.000004
 21
-25.914234
  0
LINE
  8
0
 10
-156.000000
 20
55.000000
 11
-156.000000
 21
45.649994
  0
LINE
  8
0
 10
-117.000000
 20
-25.000000
 11
-154.000000
 21
-25.000000
  0
LINE
  8
0
 10
-118.000000
 20
57.000000
 11
-154.000000
 21
57.000000
  0
LINE
  8
0
 10
-116.000000
 20
7.000015
 11
-116.000000
 21
-24.000000
  0
LINE
  8
0
 10
-156.000000
 20
40.350006
 11
-156.000000
 21
24.999985
  0
LINE
  8
0
 10
-117.999916
 20
57.000076
 11
-115.999916
 21
55.000072
  0
LINE
  8
0
 10
-154.000015
 20
-25.000013
 11
-156.000015
 21
-23.000010
  0
LINE
  8
0
 10
-153.999985
 20
57.000019
 11
-156.000000
 21
55.000000
  0
LINE
  8
0
 10
-116.000000
 20
55.000031
 11
-116.000000
 21
45.149994
  0
LINE
  8
0
 10
-118.000015
 20
8.129917
 11
-116.000038
 21
6.999955
  0
LINE
  8
0
 10
-118.000031
 20
23.870083
 11
-116.000046
 21
25.000055
  0
LINE
  8
0
 10
-154.000000
 20
23.869995
 11
-156.000000
 21
24.999962
  0
LINE
  8
0
 10
-154.000015
 20
8.130097
 11
-156.000031
 21
7.000119
  0
LINE
  8
0
 10
-154.000000
 20
45.649994
 11
-156.000000
 21
45.649994
  0
LINE
  8
0
 10
-154.000000
 20
40.350006
 11
-156.000000
 21
40.350006
  0
LINE
  8
0
 10
-116.000000
 20
40.850006
 11
-118.000000
 21
40.850006
  0
LINE
  8
0
 10
-116.000000
 20
45.149994
 11
-118.000000
 21
45.149994
  0
LINE
  8
0
 10
-116.000000
 20
40.850006
 11
-116.000000
 21
24.999977
  0
LINE
  8
0
 10
-154.000000
 20
-13.650002
 11
-156.000000
 21
-13.650002
  0
LINE
  8
0
 10
-154.000000
 20
-8.349998
 11
-156.000000
 21
-8.349998
  0
LINE
  8
0
 10
-156.000000
 20
-8.349998
 11
-156.000000
 21
7.000015
  0
LINE
  8
0
 10
-156.000000
 20
-23.000000
 11
-156.000000
 21
-13.650002
  0
LINE
  8
0
 10
-115.999985
 20
-24.000010
 11
-116.999985
 21
-25.000011
  0
LINE
  8
0
 10
-153.000000
 20
56.000000
 11
-119.000000
 21
56.000000
  0
LINE
  8
0
 10
-153.000000
 20
-24.000000
 11
-119.000000
 21
-24.000000
  0
LINE
  8
0
 10
-152.999954
 20
55.999985
 11
-153.999954
 21
54.999985
  0
LINE
  8
0
 10
-118.999939
 20
56.000092
 11
-117.999947
 21
55.000103
  0
LINE
  8
0
 10
-153.999969
 20
-22.999979
 11
-152.999969
 21
-23.999981
  0
LINE
  8
0
 10
-118.000008
 20
-22.999983
 11
-119.000008
 21
-23.999985
  0
LINE
  8
0
  6
CENTER
 62
     2
 10
-148.000000
 20
-21.553108
 11
-148.000000
 21
-12.512543
  0
LINE
  8
0
  6
CENTER
 62
     2
 10
-152.666290
 20
-17.000000
 11
-143.432892
 21
-17.000000
  0
LINE
  8
0
  6
CENTER
 62
     2
 10
-153.428070
 20
49.000000
 11
-142.033188
 21
49.000000
  0
LINE
  8
0
  6
CENTER
 62
     2
 10
-124.000000
 20
-21.603226
 11
-124.000000
 21
-12.512543
  0
LINE
  8
0
 10
-135.999969
 20
47.309338
 11
-137.999969
 21
46.154636
  0
LINE
  8
0
 10
-138.000000
 20
46.154701
 11
-138.000000
 21
43.845299
  0
LINE
  8
0
 10
-135.999985
 20
42.690609
 11
-137.999985
 21
43.845314
  0
LINE
  8
0
 10
-133.999954
 20
43.845222
 11
-135.999954
 21
42.690529
  0
LINE
  8
0
 10
-134.000000
 20
46.154701
 11
-134.000000
 21
43.845299
  0
LINE
  8
0
 10
-136.000000
 20
47.309422
 11
-134.000000
 21
46.154720
  0
LINE
  8
0
 10
-135.999985
 20
18.309406
 11
-133.999985
 21
17.154715
  0
LINE
  8
0
 10
-135.999969
 20
18.309366
 11
-137.999969
 21
17.154667
  0
LINE
  8
0
 10
-138.000000
 20
17.154701
 11
-138.000000
 21
14.845299
  0
LINE
  8
0
 10
-135.999969
 20
13.690615
 11
-137.999969
 21
14.845317
  0
LINE
  8
0
 10
-133.999985
 20
14.845240
 11
-135.999985
 21
13.690538
  0
LINE
  8
0
 10
-134.000000
 20
17.154701
 11
-134.000000
 21
14.845299
  0
LINE
  8
0
 10
-135.999969
 20
-10.690584
 11
-133.999969
 21
-11.845283
  0
LINE
  8
0
 10
-135.999985
 20
-10.690626
 11
-137.999985
 21
-11.845328
  0
LINE
  8
0
 10
-138.000000
 20
-11.845299
 11
-138.000000
 21
-14.154701
  0
LINE
  8
0
 10
-135.999969
 20
-15.309383
 11
-137.999985
 21
-14.154680
  0
LINE
  8
0
 10
-133.999969
 20
-14.154734
 11
-135.999969
 21
-15.309438
  0
LINE
  8
0
 10
-134.000000
 20
-11.845299
 11
-134.000000
 21
-14.154701
  0
LINE
  8
0
 10
-118.000000
 20
55.000004
 11
-118.000000
 21
-23.000000
  0
LINE
  8
0
 10
-154.000000
 20
55.000000
 11
-154.000000
 21
-23.000000
  0
LINE
  8
0
  6
CENTER
 62
     2
 10
-136.000000
 20
60.071976
 11
-136.000000
 21
-27.893639
  0
LINE
  8
0
  6
CENTER
 62
     2
 10
-157.247726
 20
16.000000
 11
-114.471771
 21
16.000000
  0
LINE
  8
0
  6
CENTER
 62
     2
 10
-148.000000
 20
53.874393
 11
-148.000000
 21
44.104095
  0
LINE
  8
0
  6
CENTER
 62
     2
 10
-124.000000
 20
53.805099
 11
-124.000000
 21
44.311974
  0
LINE
  8
0
  6
CENTER
 62
     2
 10
-128.769547
 20
49.000000
 11
-119.137833
 21
49.000000
  0
LINE
  8
0
  6
CENTER
 62
     2
 10
-143.390335
 20
45.000000
 11
-128.423080
 21
45.000000
  0
LINE
  8
0
  6
CENTER
 62
     2
 10
-128.103592
 20
-17.000000
 11
-119.716721
 21
-17.000000
  0
LINE
  8
0
  6
CENTER
 62
     2
 10
-143.251846
 20
-13.000000
 11
-128.707764
 21
-13.000000
  0
LINE
  8
0
  6
CENTER
 62
     2
 10
98.461189
 20
16.000000
 11
141.137253
 21
16.000000
  0
LINE
  8
0
  6
CENTER
 62
     2
 10
120.000000
 20
59.663757
 11
120.000000
 21
-28.309998
  0
LINE
  8
0
 10
101.000008
 20
-25.000000
 11
138.000000
 21
-25.000000
  0
LINE
  8
0
 10
102.000000
 20
57.000000
 11
138.000000
 21
57.000000
  0
LINE
  8
0
  6
CENTER
 62
     2
 10
110.460747
 20
45.000000
 11
129.633972
 21
45.000000
  0
LINE
  8
0
  6
CENTER
 62
     2
 10
102.913284
 20
52.000000
 11
111.356491
 21
52.000000
  0
LINE
  8
0
  6
CENTER
 62
     2
 10
110.055679
 20
-13.000000
 11
129.633972
 21
-13.000000
  0
LINE
  8
0
 10
101.999916
 20
57.000053
 11
99.999916
 21
55.000050
  0
LINE
  8
0
 10
137.999985
 20
-25.000008
 11
139.999985
 21
-23.000004
  0
LINE
  8
0
 10
138.000046
 20
57.000004
 11
140.000046
 21
55.000000
  0
LINE
  8
0
 10
103.298798
 20
22.100006
 11
104.898773
 21
22.100006
  0
LINE
  8
0
 10
102.298782
 20
21.600006
 11
102.798798
 21
21.600006
  0
LINE
  8
0
 10
102.798836
 20
21.600000
 11
103.298820
 21
22.099993
  0
LINE
  8
0
 10
102.298782
 20
18.399994
 11
102.798798
 21
18.399994
  0
LINE
  8
0
 10
102.798767
 20
18.399958
 11
103.298775
 21
17.899956
  0
LINE
  8
0
 10
103.298798
 20
17.899994
 11
104.898773
 21
17.899994
  0
LINE
  8
0
 10
102.298782
 20
10.399994
 11
102.798798
 21
10.399994
  0
LINE
  8
0
 10
102.798744
 20
10.399952
 11
103.298744
 21
9.899951
  0
LINE
  8
0
 10
103.298798
 20
9.899994
 11
104.898773
 21
9.899994
  0
LINE
  8
0
 10
103.298798
 20
14.100006
 11
104.898773
 21
14.100006
  0
LINE
  8
0
 10
102.798767
 20
13.600039
 11
103.298767
 21
14.100039
  0
LINE
  8
0
 10
102.298782
 20
13.600006
 11
102.798798
 21
13.600006
  0
LINE
  8
0
 10
137.201218
 20
21.599983
 11
136.701218
 21
22.099977
  0
LINE
  8
0
 10
136.701202
 20
22.100006
 11
135.101227
 21
22.100006
  0
LINE
  8
0
 10
136.701202
 20
17.899994
 11
135.101227
 21
17.899994
  0
LINE
  8
0
 10
137.201126
 20
18.399977
 11
136.701126
 21
17.899981
  0
LINE
  8
0
 10
137.201202
 20
10.400023
 11
136.701187
 21
9.900002
  0
LINE
  8
0
 10
136.701202
 20
9.899994
 11
135.101227
 21
9.899994
  0
LINE
  8
0
 10
136.701202
 20
14.100006
 11
135.101227
 21
14.100006
  0
LINE
  8
0
 10
137.201431
 20
13.600139
 11
136.701431
 21
14.100130
  0
LINE
  8
0
  6
CENTER
 62
     2
 10
107.000000
 20
-15.953461
 11
107.000000
 21
-24.060440
  0
LINE
  8
0
 10
100.000000
 20
55.000031
 11
100.000000
 21
45.149994
  0
LINE
  8
0
 10
102.298805
 20
8.298786
 11
100.000038
 21
7.000016
  0
LINE
  8
0
 10
102.298813
 20
23.701281
 11
100.000053
 21
25.000048
  0
LINE
  8
0
 10
102.298782
 20
23.701233
 11
102.298782
 21
21.600006
  0
LINE
  8
0
 10
102.298782
 20
18.399994
 11
102.298782
 21
13.600006
  0
LINE
  8
0
 10
102.298782
 20
10.399994
 11
102.298782
 21
8.298782
  0
LINE
  8
0
 10
137.701279
 20
23.701242
 11
140.000031
 21
25.000004
  0
LINE
  8
0
 10
137.701233
 20
23.701233
 11
137.701233
 21
21.600006
  0
LINE
  8
0
 10
137.701218
 20
21.600006
 11
137.201202
 21
21.600006
  0
LINE
  8
0
 10
137.701218
 20
18.399994
 11
137.201202
 21
18.399994
  0
LINE
  8
0
 10
137.701233
 20
18.399994
 11
137.701233
 21
13.600006
  0
LINE
  8
0
 10
137.701218
 20
13.600006
 11
137.201202
 21
13.600006
  0
LINE
  8
0
 10
137.701218
 20
10.399994
 11
137.201202
 21
10.399994
  0
LINE
  8
0
 10
137.701233
 20
10.399994
 11
137.701233
 21
8.298782
  0
LINE
  8
0
 10
137.701294
 20
8.298828
 11
140.000046
 21
7.000063
  0
LINE
  8
0
  6
CENTER
 62
     2
 10
102.626694
 20
-20.000000
 11
111.069893
 21
-20.000000
  0
LINE
  8
0
  6
CENTER
 62
     2
 10
129.010468
 20
52.000000
 11
137.069885
 21
52.000000
  0
LINE
  8
0
  6
CENTER
 62
     2
 10
107.000000
 20
47.953461
 11
107.000000
 21
56.418503
  0
LINE
  8
0
  6
CENTER
 62
     2
 10
133.000000
 20
47.953461
 11
133.000000
 21
56.060440
  0
LINE
  8
0
 10
140.000000
 20
55.000000
 11
140.000000
 21
45.649994
  0
LINE
  8
0
 10
137.000000
 20
47.149994
 11
137.000000
 21
45.649994
  0
LINE
  8
0
 10
132.500000
 20
47.149994
 11
137.000000
 21
47.149994
  0
LINE
  8
0
 10
137.000000
 20
45.649994
 11
140.000000
 21
45.649994
  0
LINE
  8
0
 10
132.500000
 20
47.149994
 11
132.500000
 21
38.850006
  0
LINE
  8
0
 10
132.500000
 20
38.850006
 11
137.000000
 21
38.850006
  0
LINE
  8
0
 10
137.000000
 20
40.350006
 11
137.000000
 21
38.850006
  0
LINE
  8
0
 10
137.000000
 20
40.350006
 11
140.000000
 21
40.350006
  0
LINE
  8
0
 10
140.000000
 20
40.350006
 11
140.000000
 21
24.999985
  0
LINE
  8
0
 10
140.000000
 20
-8.350006
 11
140.000000
 21
7.000015
  0
LINE
  8
0
 10
137.000000
 20
-8.350006
 11
140.000000
 21
-8.350006
  0
LINE
  8
0
 10
137.000000
 20
-8.350006
 11
137.000000
 21
-6.850006
  0
LINE
  8
0
 10
132.500000
 20
-6.850006
 11
137.000000
 21
-6.850006
  0
LINE
  8
0
 10
132.500000
 20
-15.149994
 11
137.000000
 21
-15.149994
  0
LINE
  8
0
 10
137.000000
 20
-15.149994
 11
137.000000
 21
-13.649994
  0
LINE
  8
0
 10
137.000000
 20
-13.649994
 11
140.000000
 21
-13.649994
  0
LINE
  8
0
 10
140.000000
 20
-23.000000
 11
140.000000
 21
-13.649994
  0
LINE
  8
0
 10
100.000000
 20
45.149994
 11
103.000000
 21
45.149994
  0
LINE
  8
0
 10
100.000000
 20
40.850006
 11
103.000000
 21
40.850006
  0
LINE
  8
0
 10
103.000000
 20
40.850006
 11
103.000000
 21
39.350006
  0
LINE
  8
0
 10
107.000000
 20
46.649994
 11
107.000000
 21
39.350006
  0
LINE
  8
0
 10
103.000000
 20
46.649994
 11
107.000000
 21
46.649994
  0
LINE
  8
0
 10
103.000000
 20
39.350006
 11
107.000000
 21
39.350006
  0
LINE
  8
0
 10
100.000000
 20
40.850006
 11
100.000000
 21
24.999969
  0
LINE
  8
0
 10
103.000000
 20
45.149994
 11
103.000000
 21
46.649994
  0
LINE
  8
0
 10
100.000000
 20
-24.000000
 11
100.000000
 21
7.000031
  0
LINE
  8
0
 10
100.000023
 20
-24.000010
 11
101.000015
 21
-25.000006
  0
LINE
  8
0
  6
DASHED
 62
     2
 10
101.773643
 20
-22.065565
 11
101.636147
 21
-24.999977
  0
LINE
  8
0
  6
DASHED
 62
     2
 10
102.216995
 20
-22.065567
 11
102.216995
 21
-25.000000
  0
LINE
  8
0
  6
DASHED
 62
     2
 10
110.783005
 20
-22.065567
 11
110.783005
 21
-25.000000
  0
LINE
  8
0
  6
DASHED
 62
     2
 10
111.226776
 20
-22.065565
 11
111.364265
 21
-24.999962
  0
LINE
  8
0
 10
132.500000
 20
-6.850006
 11
132.500000
 21
-15.149994
  0
LINE
  8
0
  6
CENTER
 62
     2
 10
131.254242
 20
-11.000000
 11
134.160873
 21
-11.000000
  0
LINE
  8
0
  6
CENTER
 62
     2
 10
131.119217
 20
43.000000
 11
134.554001
 21
43.000000
  0
LINE
  8
0
 10
127.984360
 20
44.500000
 11
132.500000
 21
44.500000
  0
LINE
  8
0
 10
127.193748
 20
41.500000
 11
132.500000
 21
41.500000
  0
LINE
  8
0
 10
127.193748
 20
-9.500000
 11
132.500000
 21
-9.500000
  0
LINE
  8
0
 10
127.984360
 20
-12.500000
 11
132.500000
 21
-12.500000
  0
LINE
  8
0
  6
CENTER
 62
     2
 10
108.000000
 20
-9.143341
 11
108.000000
 21
-12.956879
  0
LINE
  8
0
  6
CENTER
 62
     2
 10
106.500000
 20
-20.759411
 11
106.500000
 21
-25.884735
  0
LINE
  8
0
  6
CENTER
 62
     2
 10
106.108849
 20
-11.000000
 11
109.960510
 21
-11.000000
  0
LINE
  8
0
  6
CENTER
 62
     2
 10
133.000000
 20
-15.953461
 11
133.000000
 21
-24.060440
  0
LINE
  8
0
  6
CENTER
 62
     2
 10
128.626694
 20
-20.000000
 11
137.069885
 21
-20.000000
  0
LINE
  8
0
  6
CENTER
 62
     2
 10
103.000000
 20
43.000000
 11
108.350121
 21
43.000000
  0
LINE
  8
0
 10
138.000000
 20
45.649994
 11
138.000000
 21
40.350006
  0
LINE
  8
0
 10
102.000000
 20
45.149994
 11
102.000000
 21
40.850006
  0
LINE
  8
0
 10
102.000000
 20
23.870079
 11
102.000000
 21
8.129980
  0
LINE
  8
0
 10
138.000000
 20
23.870022
 11
138.000000
 21
8.130068
  0
LINE
  8
0
 10
138.000000
 20
-8.350006
 11
138.000000
 21
-13.649994
  0
LINE
  8
0
 10
-194.250000
 20
132.600006
 11
194.800003
 21
132.600006
  0
LINE
  8
0
 10
194.800003
 20
132.600006
 11
194.800003
 21
-133.500000
  0
LINE
  8
0
 10
-194.250000
 20
132.600006
 11
-194.250000
 21
-133.500000
  0
LINE
  8
0
 10
-194.250000
 20
-133.500000
 11
194.800003
 21
-133.500000
  0
LINE
  8
0
 10
109.800003
 20
-118.500000
 11
109.800003
 21
-133.500000
  0
LINE
  8
0
 10
109.800003
 20
-118.500000
 11
194.800003
 21
-118.500000
  0
LINE
  8
0
 10
109.800003
 20
132.600006
 11
109.800003
 21
117.600006
  0
LINE
  8
0
 10
109.800003
 20
117.600006
 11
194.800003
 21
117.600006
  0
LINE
  8
0
 10
-194.250000
 20
117.600006
 11
-84.250000
 21
117.600006
  0
LINE
  8
0
 10
-84.250000
 20
132.600006
 11
-84.250000
 21
117.600006
  0
LINE
  8
0
 10
-184.250000
 20
-123.500000
 11
-39.250000
 21
-123.500000
  0
LINE
  8
0
 10
-184.250000
 20
-115.500000
 11
-39.250000
 21
-115.500000
  0
LINE
  8
0
 10
-184.250000
 20
-107.500000
 11
-39.250000
 21
-107.500000
  0
LINE
  8
0
 10
-159.250000
 20
-123.500000
 11
-159.250000
 21
-92.500000
  0
LINE
  8
0
 10
-135.250000
 20
-123.500000
 11
-135.250000
 21
-92.500000
  0
LINE
  8
0
 10
-147.250000
 20
-123.500000
 11
-147.250000
 21
-92.500000
  0
LINE
  8
0
 10
-123.250000
 20
-123.500000
 11
-123.250000
 21
-92.500000
  0
LINE
  8
0
 10
-111.250000
 20
-123.500000
 11
-111.250000
 21
-92.500000
  0
LINE
  8
0
 10
-99.250000
 20
-123.500000
 11
-99.250000
 21
-92.500000
  0
LINE
  8
0
 10
-159.250046
 20
-107.500015
 11
-161.929535
 21
-97.500023
  0
LINE
  8
0
 10
-184.250000
 20
-97.500000
 11
-161.929489
 21
-97.500000
  0
LINE
  8
0
 10
-184.250000
 20
-92.500000
 11
-39.250000
 21
-92.500000
  0
LINE
  8
0
 10
-87.250000
 20
-123.500000
 11
-87.250000
 21
-92.500000
  0
LINE
  8
0
 10
-75.250000
 20
-123.500000
 11
-75.250000
 21
-92.500000
  0
LINE
  8
0
 10
-63.250000
 20
-123.500000
 11
-63.250000
 21
-92.500000
  0
LINE
  8
0
 10
-51.250000
 20
-123.500000
 11
-51.250000
 21
-92.500000
  0
LINE
  8
0
 10
-39.250000
 20
-123.500000
 11
-39.250000
 21
-92.500000
  0
LINE
  8
0
 10
-184.250000
 20
-123.500000
 11
-184.250000
 21
-92.500000
  0
CIRCLE
  8
0
 10
22.000004
 20
-11.000003
 40
4.283005
  0
CIRCLE
  8
0
 10
-2.999996
 20
-11.000003
 40
4.283005
  0
CIRCLE
  8
0
 62
     2
 10
22.000004
 20
-10.999988
 40
4.863995
  0
CIRCLE
  8
0
 62
     2
 10
-2.999996
 20
-10.999988
 40
4.863995
  0
ARC
  8
0
 10
-30.499996
 20
16.000004
 40
5.000000
 50
323.130096
 51
36.869896
  0
CIRCLE
  8
0
  6
DASHED
 62
     2
 10
12.000004
 20
30.999996
 40
3.000000
  0
CIRCLE
  8
0
 10
12.000004
 20
30.999996
 40
2.600000
  0
CIRCLE
  8
0
  6
DASHED
 62
     2
 10
-17.999996
 20
30.999996
 40
3.000000
  0
CIRCLE
  8
0
 10
-17.999996
 20
30.999996
 40
2.600000
  0
CIRCLE
  8
0
 10
-17.999996
 20
30.999996
 40
4.750000
  0
CIRCLE
  8
0
 10
12.000004
 20
30.999996
 40
4.750000
  0
CIRCLE
  8
0
  6
DASHED
 62
     2
 10
12.000004
 20
0.999997
 40
3.000000
  0
CIRCLE
  8
0
 10
12.000004
 20
0.999997
 40
2.600000
  0
CIRCLE
  8
0
  6
DASHED
 62
     2
 10
-17.999996
 20
0.999997
 40
3.000000
  0
CIRCLE
  8
0
 10
-17.999996
 20
0.999997
 40
2.600000
  0
CIRCLE
  8
0
 10
-17.999996
 20
0.999997
 40
4.750000
  0
CIRCLE
  8
0
 10
12.000004
 20
0.999997
 40
4.750000
  0
CIRCLE
  8
0
 10
-136.000000
 20
16.000000
 40
5.250000
  0
CIRCLE
  8
0
 10
-136.000000
 20
-13.000000
 40
5.250000
  0
CIRCLE
  8
0
 10
-136.000000
 20
16.000000
 40
3.400000
  0
CIRCLE
  8
0
 10
-136.000000
 20
-13.000000
 40
3.400000
  0
CIRCLE
  8
0
 10
-136.000000
 20
45.000000
 40
5.750000
  0
CIRCLE
  8
0
 10
-136.000000
 20
16.000000
 40
5.750000
  0
CIRCLE
  8
0
 62
     2
 10
-148.000000
 20
-17.000000
 40
3.000000
  0
CIRCLE
  8
0
 10
-148.000000
 20
-17.000000
 40
2.500000
  0
CIRCLE
  8
0
 10
-136.000000
 20
-13.000000
 40
5.750000
  0
CIRCLE
  8
0
 10
-148.000000
 20
49.000000
 40
2.500000
  0
CIRCLE
  8
0
 62
     2
 10
-148.000000
 20
49.000000
 40
3.000000
  0
CIRCLE
  8
0
 10
-124.000000
 20
-17.000000
 40
2.500000
  0
CIRCLE
  8
0
 62
     2
 10
-124.000000
 20
-17.000000
 40
3.000000
  0
CIRCLE
  8
0
 10
-124.000000
 20
49.000000
 40
2.500000
  0
CIRCLE
  8
0
 62
     2
 10
-124.000000
 20
49.000000
 40
3.000000
  0
CIRCLE
  8
0
 10
-136.000000
 20
45.000000
 40
5.250000
  0
CIRCLE
  8
0
 10
-136.000000
 20
45.000000
 40
3.400000
  0
CIRCLE
  8
0
 10
120.000000
 20
-13.000000
 40
6.000000
  0
CIRCLE
  8
0
 10
120.000000
 20
45.000000
 40
6.000000
  0
CIRCLE
  8
0
 10
120.000000
 20
45.000000
 40
8.000000
  0
CIRCLE
  8
0
 10
120.000000
 20
-13.000000
 40
8.000000
  0
ARC
  8
0
 10
104.898773
 20
20.000000
 40
2.100000
 50
270.000000
 51
90.000000
  0
ARC
  8
0
 10
104.898773
 20
12.000000
 40
2.100000
 50
270.000000
 51
90.000000
  0
ARC
  8
0
 10
135.101227
 20
20.000000
 40
2.100000
 50
90.000000
 51
270.000000
  0
ARC
  8
0
 10
135.101227
 20
12.000000
 40
2.100000
 50
90.000000
 51
270.000000
  0
CIRCLE
  8
0
 62
     2
 10
107.000000
 20
52.000000
 40
3.000000
  0
CIRCLE
  8
0
 10
107.000000
 20
52.000000
 40
2.500000
  0
CIRCLE
  8
0
 62
     2
 10
107.000000
 20
-20.000000
 40
3.000000
  0
CIRCLE
  8
0
 10
107.000000
 20
-20.000000
 40
2.500000
  0
CIRCLE
  8
0
 62
     2
 10
133.000000
 20
52.000000
 40
3.000000
  0
CIRCLE
  8
0
 10
133.000000
 20
52.000000
 40
2.500000
  0
CIRCLE
  8
0
 10
120.000000
 20
16.000000
 40
11.000000
  0
CIRCLE
  8
0
 10
108.000000
 20
-11.000000
 40
1.000000
  0
CIRCLE
  8
0
 62
     2
 10
133.000000
 20
-20.000000
 40
3.000000
  0
CIRCLE
  8
0
 10
133.000000
 20
-20.000000
 40
2.500000
  0
TEXT
  8
0
 10
133.907150
 20
122.050003
 40
4.500000
  1
Ver. 1.0
 50
0.000000
 41
1.052631
 51
0.000000
  7
STANDARD
  0
TEXT
  8
0
 10
113.700279
 20
-130.669998
 40
6.300000
  1
KOGANEI CORP.
 50
0.000000
 41
1.052632
 51
0.000000
  7
STANDARD
  0
TEXT
  8
0
 10
-191.392654
 20
122.050003
 40
4.500000
  1
JIG CYLINDER WITH GUIDE
 50
0.000000
 41
1.052632
 51
0.000000
  7
STANDARD
  0
TEXT
  8
0
 10
-186.892654
 20
104.550003
 40
4.500000
  1
MODEL:SGDAQY20*ST(10)
 50
0.000000
 41
1.052632
 51
0.000000
  7
STANDARD
  0
TEXT
  8
0
 10
-159.892654
 20
97.550003
 40
4.500000
  1
SGDAFQY20*ST(10)
 50
0.000000
 41
1.052632
 51
0.000000
  7
STANDARD
  0
TEXT
  8
0
 62
     3
 10
9.692862
 20
67.120003
 40
3.200000
  1
STRETCH LINE A
 50
0.000000
 41
1.052631
 51
0.000000
  7
STANDARD
  0
TEXT
  8
0
 62
     3
 10
-4.306996
 20
75.120003
 40
3.200000
  1
STRETCH LINE B
 50
0.000000
 41
1.052632
 51
0.000000
  7
STANDARD
  0
TEXT
  8
0
 10
-181.557144
 20
-96.879997
 40
3.200000
  1
STROKE
 50
0.000000
 41
1.052631
 51
0.000000
  7
STANDARD
  0
TEXT
  8
0
 10
-173.557144
 20
-113.379997
 40
3.200000
  1
A
 50
0.000000
 41
1.052631
 51
0.000000
  7
STANDARD
  0
TEXT
  8
0
 10
-184.496872
 20
-101.019997
 40
3.200000
  1
STRETCH
 50
0.000000
 41
1.052631
 51
0.000000
  7
STANDARD
  0
TEXT
  8
0
 10
-184.496872
 20
-105.820000
 40
3.200000
  1
  PLACE
 50
0.000000
 41
1.052631
 51
0.000000
  7
STANDARD
  0
TEXT
  8
0
 10
-156.657150
 20
-101.879997
 40
3.200000
  1
10
 50
0.000000
 41
1.052631
 51
0.000000
  7
STANDARD
  0
TEXT
  8
0
 10
-144.657150
 20
-101.879997
 40
3.200000
  1
20
 50
0.000000
 41
1.052631
 51
0.000000
  7
STANDARD
  0
TEXT
  8
0
 10
-132.657150
 20
-101.879997
 40
3.200000
  1
30
 50
0.000000
 41
1.052631
 51
0.000000
  7
STANDARD
  0
TEXT
  8
0
 10
-120.657158
 20
-101.879997
 40
3.200000
  1
50
 50
0.000000
 41
1.052631
 51
0.000000
  7
STANDARD
  0
TEXT
  8
0
 10
-108.657158
 20
-101.879997
 40
3.200000
  1
75
 50
0.000000
 41
1.052631
 51
0.000000
  7
STANDARD
  0
TEXT
  8
0
 10
-51.857143
 20
-91.379997
 40
3.200000
  1
(mm)
 50
0.000000
 41
1.052631
 51
0.000000
  7
STANDARD
  0
TEXT
  8
0
 10
-131.157135
 20
-91.379997
 40
3.200000
  1
STRETCH LIST
 50
0.000000
 41
1.052631
 51
0.000000
  7
STANDARD
  0
TEXT
  8
0
 10
-173.557007
 20
-121.379997
 40
3.200000
  1
B
 50
0.000000
 41
1.052632
 51
0.000000
  7
STANDARD
  0
TEXT
  8
0
 10
-98.257156
 20
-101.879997
 40
3.200000
  1
100
 50
0.000000
 41
1.052631
 51
0.000000
  7
STANDARD
  0
TEXT
  8
0
 10
-86.257156
 20
-101.879997
 40
3.200000
  1
125
 50
0.000000
 41
1.052631
 51
0.000000
  7
STANDARD
  0
TEXT
  8
0
 10
-74.257156
 20
-101.879997
 40
3.200000
  1
150
 50
0.000000
 41
1.052631
 51
0.000000
  7
STANDARD
  0
TEXT
  8
0
 10
-62.257156
 20
-101.879997
 40
3.200000
  1
175
 50
0.000000
 41
1.052631
 51
0.000000
  7
STANDARD
  0
TEXT
  8
0
 10
-50.257156
 20
-101.879997
 40
3.200000
  1
200
 50
0.000000
 41
1.052631
 51
0.000000
  7
STANDARD
  0
TEXT
  8
0
 10
-155.057007
 20
-113.379997
 40
3.200000
  1
0
 50
0.000000
 41
1.052632
 51
0.000000
  7
STANDARD
  0
TEXT
  8
0
 10
-143.057007
 20
-113.379997
 40
3.200000
  1
0
 50
0.000000
 41
1.052632
 51
0.000000
  7
STANDARD
  0
TEXT
  8
0
 10
-131.057007
 20
-113.379997
 40
3.200000
  1
0
 50
0.000000
 41
1.052632
 51
0.000000
  7
STANDARD
  0
TEXT
  8
0
 10
-119.056999
 20
-113.379997
 40
3.200000
  1
0
 50
0.000000
 41
1.052632
 51
0.000000
  7
STANDARD
  0
TEXT
  8
0
 10
-108.656998
 20
-113.379997
 40
3.200000
  1
25
 50
0.000000
 41
1.052632
 51
0.000000
  7
STANDARD
  0
TEXT
  8
0
 10
-96.656998
 20
-113.379997
 40
3.200000
  1
50
 50
0.000000
 41
1.052632
 51
0.000000
  7
STANDARD
  0
TEXT
  8
0
 10
-84.656998
 20
-113.379997
 40
3.200000
  1
25
 50
0.000000
 41
1.052632
 51
0.000000
  7
STANDARD
  0
TEXT
  8
0
 10
-72.656998
 20
-113.379997
 40
3.200000
  1
50
 50
0.000000
 41
1.052632
 51
0.000000
  7
STANDARD
  0
TEXT
  8
0
 10
-60.657001
 20
-113.379997
 40
3.200000
  1
75
 50
0.000000
 41
1.052632
 51
0.000000
  7
STANDARD
  0
TEXT
  8
0
 10
-50.257000
 20
-113.379997
 40
3.200000
  1
100
 50
0.000000
 41
1.052632
 51
0.000000
  7
STANDARD
  0
TEXT
  8
0
 10
-155.057007
 20
-121.379997
 40
3.200000
  1
0
 50
0.000000
 41
1.052632
 51
0.000000
  7
STANDARD
  0
TEXT
  8
0
 10
-144.656998
 20
-121.379997
 40
3.200000
  1
10
 50
0.000000
 41
1.052632
 51
0.000000
  7
STANDARD
  0
TEXT
  8
0
 10
-132.656998
 20
-121.379997
 40
3.200000
  1
20
 50
0.000000
 41
1.052632
 51
0.000000
  7
STANDARD
  0
TEXT
  8
0
 10
-120.656998
 20
-121.379997
 40
3.200000
  1
40
 50
0.000000
 41
1.052632
 51
0.000000
  7
STANDARD
  0
TEXT
  8
0
 10
-108.656998
 20
-121.379997
 40
3.200000
  1
40
 50
0.000000
 41
1.052632
 51
0.000000
  7
STANDARD
  0
TEXT
  8
0
 10
-96.656998
 20
-121.379997
 40
3.200000
  1
40
 50
0.000000
 41
1.052632
 51
0.000000
  7
STANDARD
  0
TEXT
  8
0
 10
-84.656998
 20
-121.379997
 40
3.200000
  1
90
 50
0.000000
 41
1.052632
 51
0.000000
  7
STANDARD
  0
TEXT
  8
0
 10
-72.656998
 20
-121.379997
 40
3.200000
  1
90
 50
0.000000
 41
1.052632
 51
0.000000
  7
STANDARD
  0
TEXT
  8
0
 10
-60.657001
 20
-121.379997
 40
3.200000
  1
90
 50
0.000000
 41
1.052632
 51
0.000000
  7
STANDARD
  0
TEXT
  8
0
 10
-48.657001
 20
-121.379997
 40
3.200000
  1
90
 50
0.000000
 41
1.052632
 51
0.000000
  7
STANDARD
  0
TEXT
  8
0
 62
     2
 10
62.155460
 20
-39.000004
 40
3.200000
  1
STROKE=75-200
 50
0.000000
 41
1.052632
 51
0.000000
  7
STANDARD
  0
LINE
  8
0
 62
     2
 10
55.000004
 20
-40.000004
 11
103.505463
 21
-40.000004
  0
LINE
  8
0
 62
     2
 10
32.000004
 20
-40.000004
 11
55.000004
 21
-40.000004
  0
LINE
  8
0
 62
     2
 10
32.000004
 20
-40.000004
 11
34.897781
 21
-39.223545
  0
LINE
  8
0
 62
     2
 10
32.000004
 20
-40.000004
 11
34.897781
 21
-40.776463
  0
LINE
  8
0
 62
     2
 10
55.000004
 20
-40.000004
 11
52.102226
 21
-40.776463
  0
LINE
  8
0
 62
     2
 10
55.000004
 20
-40.000004
 11
52.102226
 21
-39.223545
  0
LINE
  8
0
 62
     2
 10
32.000004
 20
-24.500004
 11
32.000004
 21
-41.500004
  0
LINE
  8
0
 62
     2
 10
55.000004
 20
-19.500011
 11
55.000004
 21
-41.500004
  0
ENDSEC
  0
EOF
