  0
SECTION
  2
HEADER
  0
ENDSEC
  0
SECTION
  2
TABLES
  0
TABLE
  2
LTYPE
 70
     4
  0
LTYPE
  2
CONTINUOUS
 70
    64
  3
Solid line
 72
    65
 73
     0
 40
0.000000
  0
LTYPE
  2
DASHED
 70
    64
  3
__ __ __ __ __ __ __ __ __ __ __ __ __ __ __
 72
    65
 73
     2
 40
3.500000
 49
2.000000
 49
-1.500000
  0
LTYPE
  2
CENTER
 70
    64
  3
____ _ ____ _ ____ _ ____ _ ____ _ ____ _ ____
 72
    65
 73
     4
 40
17.500000
 49
13.000000
 49
-1.500000
 49
1.500000
 49
-1.500000
  0
LTYPE
  2
PHANTOM
 70
    64
  3
_____ _ _ _____ _ _ _____ _ _ _____ _ _ ____  
 72
    65
 73
     6
 40
15.500000
 49
8.000000
 49
-1.500000
 49
1.500000
 49
-1.500000
 49
1.500000
 49
-1.500000
  0
LTYPE
  2
DASHED1
 70
    64
  3
__ __ __ __ __ __ __ __ __ __ __ __ __ __ __
 72
    65
 73
     2
 40
1.500000
 49
1.000000
 49
-0.500000
  0
LTYPE
  2
DASHED2
 70
    64
  3
__ __ __ __ __ __ __ __ __ __ __ __ __ __ __
 72
    65
 73
     2
 40
3.500000
 49
2.500000
 49
-1.000000
  0
LTYPE
  2
DASHED3
 70
    64
  3
__ __ __ __ __ __ __ __ __ __ __ __ __ __ __
 72
    65
 73
     2
 40
6.000000
 49
4.000000
 49
-2.000000
  0
LTYPE
  2
DASHED4
 70
    64
  3
__ __ __ __ __ __ __ __ __ __ __ __ __ __ __
 72
    65
 73
     2
 40
12.000000
 49
10.000000
 49
-2.000000
  0
LTYPE
  2
DASHED5
 70
    64
  3
__ __ __ __ __ __ __ __ __ __ __ __ __ __ __
 72
    65
 73
     2
 40
17.000000
 49
15.000000
 49
-2.000000
  0
LTYPE
  2
DASHED6
 70
    64
  3
__ __ __ __ __ __ __ __ __ __ __ __ __ __ __
 72
    65
 73
     2
 40
29.000000
 49
27.000000
 49
-2.000000
  0
LTYPE
  2
PHANTOM1
 70
    64
  3
_____ _ _ _____ _ _ _____ _ _ _____ _ _ ____  
 72
    65
 73
     6
 40
31.000000
 49
25.000000
 49
-1.500000
 49
1.000000
 49
-1.000000
 49
1.000000
 49
-1.500000
  0
LTYPE
  2
PHANTOM2
 70
    64
  3
_____ _ _ _____ _ _ _____ _ _ _____ _ _ ____  
 72
    65
 73
     6
 40
36.000000
 49
27.000000
 49
-1.500000
 49
2.500000
 49
-1.000000
 49
2.500000
 49
-1.500000
  0
LTYPE
  2
PHANTOM3
 70
    64
  3
_____ _ _ _____ _ _ _____ _ _ _____ _ _ ____  
 72
    65
 73
     6
 40
78.000000
 49
64.000000
 49
-2.000000
 49
4.000000
 49
-2.000000
 49
4.000000
 49
-2.000000
  0
LTYPE
  2
CENTER1
 70
    64
  3
____ _ ____ _ ____ _ ____ _ ____ _ ____ _ ____
 72
    65
 73
     4
 40
19.000000
 49
14.000000
 49
-1.000000
 49
3.000000
 49
-1.000000
  0
LTYPE
  2
CENTER2
 70
    64
  3
____ _ ____ _ ____ _ ____ _ ____ _ ____ _ ____
 72
    65
 73
     4
 40
28.500000
 49
25.000000
 49
-1.000000
 49
1.500000
 49
-1.000000
  0
LTYPE
  2
CENTER3
 70
    64
  3
____ _ ____ _ ____ _ ____ _ ____ _ ____ _ ____
 72
    65
 73
     4
 40
31.500000
 49
27.000000
 49
-1.000000
 49
2.500000
 49
-1.000000
  0
LTYPE
  2
CENTER4
 70
    64
  3
____ _ ____ _ ____ _ ____ _ ____ _ ____ _ ____
 72
    65
 73
     4
 40
50.000000
 49
45.000000
 49
-1.000000
 49
3.000000
 49
-1.000000
  0
LTYPE
  2
CENTER5
 70
    64
  3
____ _ ____ _ ____ _ ____ _ ____ _ ____ _ ____
 72
    65
 73
     4
 40
100.000000
 49
92.000000
 49
-2.000000
 49
4.000000
 49
-2.000000
  0
LTYPE
  2
SBK1
 70
    64
  3
______ _ _ _ ______ _ _ _ ______ _ _ _ _____  
 72
    65
 73
     8
 40
60.500000
 49
45.000000
 49
-2.000000
 49
2.500000
 49
-2.000000
 49
2.500000
 49
-2.000000
 49
2.500000
 49
-2.000000
  0
LTYPE
  2
SBK2
 70
    64
  3
______ _ _ _ ______ _ _ _ ______ _ _ _ _____  
 72
    65
 73
     8
 40
84.000000
 49
64.000000
 49
-2.000000
 49
4.000000
 49
-2.000000
 49
4.000000
 49
-2.000000
 49
4.000000
 49
-2.000000
  0
LTYPE
  2
STCH
 70
    64
  3
__ __ __ __ __ __ __ __ __ __ __ __ __ __ __
 72
    65
 73
     2
 40
3.000000
 49
1.000000
 49
-2.000000
  0
LTYPE
  2
MTCH
 70
    64
  3
_____ _ _ _____ _ _ _____ _ _ _____ _ _ ____  
 72
    65
 73
     6
 40
80.000000
 49
66.000000
 49
-2.000000
 49
4.000000
 49
-2.000000
 49
4.000000
 49
-2.000000
  0
ENDTAB
  0
TABLE
  2
LAYER
 70
     1
  0
LAYER
  2
0
 70
     0
 62
     7
  6
CONTINUOUS
  0
ENDTAB
  0
TABLE
  2
STYLE
 70
     1
  0
STYLE
  2
STANDARD
 70
     0
 40
0.000000
 41
1.000000
 50
0.000000
 71
     0
 42
0.200000
  3
txt
  4
BIGFONT
  0
ENDTAB
  0
TABLE
  2
VIEW
 70
     0
  0
ENDTAB
  0
ENDSEC
  0
SECTION
  2
BLOCKS
  0
ENDSEC
  0
SECTION
  2
ENTITIES
  0
LINE
  8
0
  6
CENTER
 62
     2
 10
-54.145462
 20
10.000000
 11
33.188736
 21
10.000000
  0
LINE
  8
0
 10
-31.999992
 20
0.000000
 11
-27.000015
 21
0.000000
  0
LINE
  8
0
 10
-31.999992
 20
20.000000
 11
-26.999992
 21
20.000000
  0
LINE
  8
0
  6
CENTER
 62
     2
 10
-52.853745
 20
-51.000000
 11
-24.305771
 21
-51.000000
  0
LINE
  8
0
 10
-48.999985
 20
-69.999985
 11
-32.999989
 21
-69.999985
  0
LINE
  8
0
 10
-31.999992
 20
-69.000000
 11
-31.999992
 21
88.571358
  0
LINE
  8
0
  6
CENTER
 62
     2
 10
-52.853745
 20
71.000000
 11
-24.477875
 21
71.000000
  0
LINE
  8
0
 10
-48.571430
 20
90.000000
 11
-33.428562
 21
90.000000
  0
LINE
  8
0
 62
     2
 10
-31.999992
 20
11.452838
 11
-30.000038
 21
5.641103
  0
LINE
  8
0
 62
     2
 10
-29.999975
 20
14.358855
 11
-31.999968
 21
8.547010
  0
LINE
  8
0
 10
-31.999992
 20
5.641098
 11
-29.999981
 21
5.641098
  0
LINE
  8
0
 10
-31.999992
 20
-61.000000
 11
-27.000015
 21
-61.000000
  0
LINE
  8
0
 10
-31.999992
 20
-41.000015
 11
-27.000015
 21
-41.000015
  0
LINE
  8
0
 10
-49.999908
 20
-68.999916
 11
-48.999897
 21
-69.999924
  0
LINE
  8
0
 10
-32.999943
 20
-70.000031
 11
-31.999950
 21
-69.000031
  0
LINE
  8
0
 10
-33.428612
 20
89.999954
 11
-32.000042
 21
88.571388
  0
LINE
  8
0
 10
-48.571362
 20
89.999924
 11
-49.999931
 21
88.571350
  0
LINE
  8
0
 10
-29.999981
 20
14.358883
 11
-29.999981
 21
5.641106
  0
LINE
  8
0
 10
-26.499985
 20
91.000000
 11
29.500015
 21
91.000000
  0
LINE
  8
0
 10
-26.999992
 20
87.999992
 11
30.000000
 21
87.999992
  0
LINE
  8
0
  6
CENTER
 62
     2
 10
-27.090935
 20
49.000008
 11
-10.293381
 21
49.000008
  0
LINE
  8
0
 10
29.500015
 20
91.000031
 11
30.000011
 21
90.500046
  0
LINE
  8
0
 10
-26.499990
 20
91.000092
 11
-26.999990
 21
90.500114
  0
LINE
  8
0
 10
-26.999992
 20
72.649994
 11
30.000000
 21
72.649994
  0
LINE
  8
0
 10
-26.999992
 20
67.350006
 11
30.000000
 21
67.350006
  0
LINE
  8
0
 10
-26.999992
 20
34.500015
 11
30.000000
 21
34.500015
  0
LINE
  8
0
 10
-26.999992
 20
34.000008
 11
30.000000
 21
34.000008
  0
LINE
  8
0
 10
-26.999992
 20
24.999981
 11
30.000000
 21
24.999981
  0
LINE
  8
0
 10
-26.999992
 20
21.799992
 11
30.000000
 21
21.799992
  0
LINE
  8
0
 10
-31.999992
 20
14.358852
 11
-29.999981
 21
14.358852
  0
LINE
  8
0
  6
DASHED
 62
     2
 10
69.000008
 20
-41.499992
 11
69.000008
 21
-60.499969
  0
LINE
  8
0
  6
DASHED
 62
     2
 10
30.000000
 20
-40.999996
 11
68.500000
 21
-40.999996
  0
LINE
  8
0
  6
DASHED
 62
     2
 10
30.000000
 20
-61.000000
 11
68.500000
 21
-61.000000
  0
LINE
  8
0
  6
DASHED
 62
     2
 10
68.499992
 20
-41.000004
 11
68.999992
 21
-41.500011
  0
LINE
  8
0
  6
DASHED
 62
     2
 10
68.999985
 20
-60.499969
 11
68.499985
 21
-60.999966
  0
LINE
  8
0
  6
DASHED
 62
     2
 10
68.500000
 20
-40.999996
 11
68.500000
 21
-61.000000
  0
LINE
  8
0
  6
DASHED
 62
     2
 10
69.000000
 20
80.499969
 11
69.000000
 21
61.499992
  0
LINE
  8
0
  6
DASHED
 62
     2
 10
30.000000
 20
81.000000
 11
68.500000
 21
81.000000
  0
LINE
  8
0
  6
DASHED
 62
     2
 10
30.000000
 20
61.000000
 11
68.500000
 21
61.000000
  0
LINE
  8
0
  6
DASHED
 62
     2
 10
68.499977
 20
80.999977
 11
68.999977
 21
80.499977
  0
LINE
  8
0
  6
DASHED
 62
     2
 10
69.000000
 20
61.500000
 11
68.500000
 21
61.000008
  0
LINE
  8
0
  6
DASHED
 62
     2
 10
68.500000
 20
81.000000
 11
68.500000
 21
61.000000
  0
LINE
  8
0
 10
-31.999992
 20
81.000000
 11
-27.000015
 21
81.000000
  0
LINE
  8
0
 10
-31.999992
 20
61.000000
 11
-27.000015
 21
61.000000
  0
LINE
  8
0
  6
CENTER
 62
     2
 10
-18.999983
 20
57.596169
 11
-18.999983
 21
40.297905
  0
LINE
  8
0
  6
CENTER
 62
     2
 10
1.000015
 20
57.699142
 11
1.000015
 21
40.812737
  0
LINE
  8
0
  6
CENTER
 62
     2
 10
-7.723801
 20
49.000008
 11
9.574471
 21
49.000008
  0
LINE
  8
0
 10
-50.000000
 20
-69.000000
 11
-50.000000
 21
88.571434
  0
LINE
  8
0
 10
-26.999989
 20
90.500031
 11
-26.999989
 21
-70.499985
  0
LINE
  8
0
 10
-26.500011
 20
-71.000000
 11
29.499992
 21
-71.000000
  0
LINE
  8
0
 10
-27.000008
 20
-67.999985
 11
29.999992
 21
-67.999985
  0
LINE
  8
0
  6
CENTER
 62
     2
 10
-8.090981
 20
-29.000004
 11
9.617241
 21
-29.000004
  0
LINE
  8
0
 10
30.000008
 20
90.500031
 11
30.000008
 21
-70.499985
  0
LINE
  8
0
  6
CENTER
 62
     2
 10
-27.952766
 20
-29.000004
 11
-10.302803
 21
-29.000004
  0
LINE
  8
0
  6
CENTER
 62
     2
 10
-19.000000
 20
-20.386833
 11
-19.000000
 21
-37.719139
  0
LINE
  8
0
  6
CENTER
 62
     2
 10
1.000000
 20
-20.386833
 11
1.000000
 21
-38.046158
  0
LINE
  8
0
  6
CENTER
 62
     2
 10
24.693108
 20
-50.000000
 11
7.987804
 21
-50.000000
  0
LINE
  8
0
  6
CENTER
 62
     2
 10
-9.999992
 20
-41.465332
 11
-9.999992
 21
-59.421631
  0
LINE
  8
0
  6
DASHED
 62
     2
 10
-11.299887
 20
-69.999771
 11
-10.299906
 21
-70.999748
  0
LINE
  8
0
  6
DASHED
 62
     2
 10
-23.699808
 20
-71.000046
 11
-22.699804
 21
-70.000046
  0
LINE
  8
0
  6
DASHED
 62
     2
 10
-11.300003
 20
-70.000000
 11
-22.700016
 21
-70.000000
  0
LINE
  8
0
  6
DASHED
 62
     2
 10
-22.700016
 20
-65.614868
 11
-22.700016
 21
-69.999985
  0
LINE
  8
0
  6
DASHED
 62
     2
 10
-23.409155
 20
-65.614868
 11
-23.546135
 21
-70.845917
  0
LINE
  8
0
  6
DASHED
 62
     2
 10
-11.299980
 20
-65.614868
 11
-11.299980
 21
-69.999985
  0
LINE
  8
0
  6
DASHED
 62
     2
 10
-10.590970
 20
-65.614883
 11
-10.449957
 21
-70.999985
  0
LINE
  8
0
  6
CENTER
 62
     2
 10
-0.999992
 20
-64.591583
 11
-0.999992
 21
-73.195740
  0
LINE
  8
0
  6
DASHED
 62
     2
 10
4.700186
 20
-69.999786
 11
5.700166
 21
-70.999763
  0
LINE
  8
0
  6
DASHED
 62
     2
 10
-7.700046
 20
-71.000046
 11
-6.700043
 21
-70.000046
  0
LINE
  8
0
  6
DASHED
 62
     2
 10
4.700005
 20
-70.000000
 11
-6.700020
 21
-70.000000
  0
LINE
  8
0
  6
DASHED
 62
     2
 10
-6.700020
 20
-65.614868
 11
-6.700020
 21
-69.999985
  0
LINE
  8
0
  6
DASHED
 62
     2
 10
-7.409247
 20
-65.614883
 11
-7.546228
 21
-70.845947
  0
LINE
  8
0
  6
CENTER
 62
     2
 10
16.000000
 20
-41.669987
 11
16.000000
 21
-59.421631
  0
LINE
  8
0
 10
30.000147
 20
-70.500038
 11
29.500109
 21
-71.000076
  0
LINE
  8
0
 10
-26.999817
 20
-70.499878
 11
-26.499826
 21
-70.999863
  0
LINE
  8
0
  6
CENTER
 62
     2
 10
-2.305523
 20
-50.000000
 11
-17.716202
 21
-50.000000
  0
LINE
  8
0
 10
-27.000008
 20
-1.800013
 11
29.999992
 21
-1.800013
  0
LINE
  8
0
 10
-27.000008
 20
-5.000000
 11
29.999992
 21
-5.000000
  0
LINE
  8
0
 10
-27.000008
 20
-13.999960
 11
29.999992
 21
-13.999960
  0
LINE
  8
0
 10
-27.000008
 20
-14.499990
 11
29.999992
 21
-14.499990
  0
LINE
  8
0
  6
CENTER
 62
     2
 10
-16.999985
 20
-64.386932
 11
-16.999985
 21
-73.098167
  0
LINE
  8
0
  6
DASHED
 62
     2
 10
4.700016
 20
-65.614868
 11
4.700016
 21
-69.999985
  0
LINE
  8
0
  6
DASHED
 62
     2
 10
5.408657
 20
-65.614876
 11
5.549671
 21
-70.999992
  0
LINE
  8
0
  6
PHANTOM
 62
     3
 10
-8.250000
 20
-61.393753
 11
-8.250000
 21
-81.000000
  0
LINE
  8
0
  6
PHANTOM
 62
     3
 10
5.437500
 20
-39.393753
 11
5.437500
 21
-61.393753
  0
LINE
  8
0
  6
PHANTOM
 62
     3
 10
-8.250000
 20
-61.393753
 11
5.437500
 21
-61.393753
  0
LINE
  8
0
  6
PHANTOM
 62
     3
 10
-9.375000
 20
119.999969
 11
-9.375000
 21
-39.393753
  0
LINE
  8
0
  6
PHANTOM
 62
     3
 10
13.343750
 20
107.999969
 11
13.343750
 21
-39.393753
  0
LINE
  8
0
  6
PHANTOM
 62
     3
 10
5.437500
 20
-39.393753
 11
13.343750
 21
-39.393753
  0
LINE
  8
0
  6
PHANTOM
 62
     3
 10
-9.375000
 20
-39.393753
 11
0.250000
 21
-39.393753
  0
LINE
  8
0
  6
PHANTOM
 62
     3
 10
0.250000
 20
-39.393753
 11
0.250000
 21
-59.393753
  0
LINE
  8
0
  6
PHANTOM
 62
     3
 10
-9.250000
 20
-59.393753
 11
-9.250000
 21
-81.000000
  0
LINE
  8
0
  6
PHANTOM
 62
     3
 10
-9.250000
 20
-59.393753
 11
0.250000
 21
-59.393753
  0
LINE
  8
0
 10
-155.000000
 20
91.000000
 11
-225.000000
 21
91.000000
  0
LINE
  8
0
 10
-155.000000
 20
-71.000000
 11
-225.000000
 21
-71.000000
  0
LINE
  8
0
 10
-152.000000
 20
87.999992
 11
-152.000000
 21
72.649994
  0
LINE
  8
0
 10
-155.000168
 20
90.999916
 11
-152.000137
 21
87.999886
  0
LINE
  8
0
 10
-224.999924
 20
90.999794
 11
-227.999908
 21
87.999794
  0
LINE
  8
0
 10
-228.000198
 20
-68.000183
 11
-225.000183
 21
-71.000198
  0
LINE
  8
0
 10
-152.000000
 20
-14.499990
 11
-152.000000
 21
-67.999985
  0
LINE
  8
0
  6
CENTER
 62
     2
 10
-231.542542
 20
10.000000
 11
-149.070450
 21
10.000000
  0
LINE
  8
0
 10
-228.000015
 20
-14.500034
 11
-228.000015
 21
-45.849960
  0
LINE
  8
0
 10
-152.000229
 20
-67.999748
 11
-155.000214
 21
-70.999733
  0
LINE
  8
0
 10
-228.000015
 20
74.149979
 11
-228.000015
 21
88.000076
  0
LINE
  8
0
 10
-228.000015
 20
34.500015
 11
-228.000015
 21
65.849983
  0
LINE
  8
0
 10
-152.500031
 20
21.799992
 11
-153.000031
 21
21.799992
  0
LINE
  8
0
 10
-152.999802
 20
21.799892
 11
-153.499802
 21
21.299904
  0
LINE
  8
0
 10
-153.500031
 20
21.300007
 11
-154.000015
 21
21.300007
  0
LINE
  8
0
 10
-153.500031
 20
25.499981
 11
-154.000015
 21
25.499981
  0
LINE
  8
0
 10
-152.999832
 20
25.000187
 11
-153.499817
 21
25.500179
  0
LINE
  8
0
 10
-152.500031
 20
24.999981
 11
-153.000031
 21
24.999981
  0
LINE
  8
0
 10
-152.500031
 20
34.000008
 11
-152.500031
 21
24.999981
  0
LINE
  8
0
 10
-152.500031
 20
21.799992
 11
-152.500031
 21
-1.799992
  0
LINE
  8
0
 10
-226.000000
 20
65.849983
 11
-228.000015
 21
65.849983
  0
LINE
  8
0
 10
-226.000000
 20
74.149979
 11
-228.000015
 21
74.149979
  0
LINE
  8
0
 10
-152.000000
 20
72.649994
 11
-154.000015
 21
72.649994
  0
LINE
  8
0
 10
-152.000000
 20
67.350006
 11
-154.000015
 21
67.350006
  0
LINE
  8
0
 10
-152.000000
 20
67.350006
 11
-152.000000
 21
34.500015
  0
LINE
  8
0
 10
-152.500122
 20
34.000031
 11
-152.000076
 21
34.500076
  0
LINE
  8
0
 10
-152.500031
 20
-1.799992
 11
-153.000031
 21
-1.799992
  0
LINE
  8
0
 10
-152.999893
 20
-1.799889
 11
-153.499893
 21
-1.299899
  0
LINE
  8
0
 10
-153.500031
 20
-1.300001
 11
-154.000015
 21
-1.300001
  0
LINE
  8
0
 10
-153.500031
 20
-5.500008
 11
-154.000015
 21
-5.500008
  0
LINE
  8
0
 10
-152.999817
 20
-5.000269
 11
-153.499817
 21
-5.500273
  0
LINE
  8
0
 10
-152.500031
 20
-5.000000
 11
-153.000031
 21
-5.000000
  0
LINE
  8
0
 10
-152.500031
 20
-13.999983
 11
-152.500031
 21
-5.000000
  0
LINE
  8
0
 10
-152.500092
 20
-14.000024
 11
-152.000061
 21
-14.500050
  0
LINE
  8
0
 10
-227.499954
 20
21.799992
 11
-227.000000
 21
21.799992
  0
LINE
  8
0
 10
-227.000122
 20
21.799862
 11
-226.500122
 21
21.299870
  0
LINE
  8
0
 10
-226.499985
 20
21.300007
 11
-226.000000
 21
21.300007
  0
LINE
  8
0
 10
-226.499985
 20
25.499981
 11
-226.000000
 21
25.499981
  0
LINE
  8
0
 10
-227.000214
 20
25.000175
 11
-226.500198
 21
25.500185
  0
LINE
  8
0
 10
-227.499954
 20
24.999981
 11
-227.000000
 21
24.999981
  0
LINE
  8
0
 10
-227.499985
 20
34.000008
 11
-227.499985
 21
24.999981
  0
LINE
  8
0
 10
-227.499985
 20
21.799992
 11
-227.499985
 21
-1.799992
  0
LINE
  8
0
 10
-227.499954
 20
-14.000006
 11
-227.999985
 21
-14.500023
  0
LINE
  8
0
 10
-227.500000
 20
33.999962
 11
-228.000031
 21
34.499981
  0
LINE
  8
0
 10
-227.499954
 20
-1.799992
 11
-227.000000
 21
-1.799992
  0
LINE
  8
0
 10
-227.000137
 20
-1.799947
 11
-226.500137
 21
-1.299932
  0
LINE
  8
0
 10
-226.499985
 20
-1.300001
 11
-226.000000
 21
-1.300001
  0
LINE
  8
0
 10
-226.499985
 20
-5.500008
 11
-226.000000
 21
-5.500008
  0
LINE
  8
0
 10
-227.000198
 20
-5.000258
 11
-226.500214
 21
-5.500250
  0
LINE
  8
0
 10
-227.499954
 20
-5.000000
 11
-227.000000
 21
-5.000000
  0
LINE
  8
0
 10
-227.499985
 20
-13.999983
 11
-227.499985
 21
-5.000000
  0
LINE
  8
0
 10
-228.000015
 20
-54.150002
 11
-228.000015
 21
-68.000053
  0
LINE
  8
0
 10
-226.000000
 20
-45.849960
 11
-228.000015
 21
-45.849960
  0
LINE
  8
0
 10
-226.000000
 20
-54.150024
 11
-228.000015
 21
-54.150024
  0
LINE
  8
0
 10
-225.000000
 20
-70.000000
 11
-155.000000
 21
-70.000000
  0
LINE
  8
0
 10
-225.000000
 20
90.000000
 11
-155.000000
 21
90.000000
  0
LINE
  8
0
 10
-224.999939
 20
89.999908
 11
-225.999939
 21
88.999908
  0
LINE
  8
0
 10
-225.999969
 20
-68.999985
 11
-224.999969
 21
-70.000000
  0
LINE
  8
0
 10
-154.000061
 20
-68.999924
 11
-155.000061
 21
-69.999939
  0
LINE
  8
0
 10
-154.999924
 20
90.000061
 11
-153.999908
 21
89.000061
  0
LINE
  8
0
  6
CENTER
 62
     2
 10
-216.000000
 20
-63.102783
 11
-216.000000
 21
-48.733955
  0
LINE
  8
0
  6
CENTER
 62
     2
 10
-208.310684
 20
-56.000000
 11
-223.242172
 21
-56.000000
  0
LINE
  8
0
  6
CENTER
 62
     2
 10
-207.814362
 20
76.000000
 11
-223.242172
 21
76.000000
  0
LINE
  8
0
  6
CENTER
 62
     2
 10
-164.000000
 20
-63.298279
 11
-164.000000
 21
-48.733955
  0
LINE
  8
0
 10
-154.000000
 20
89.000000
 11
-154.000000
 21
-69.000000
  0
LINE
  8
0
 10
-226.000000
 20
89.000000
 11
-226.000000
 21
-69.000000
  0
LINE
  8
0
 10
-189.999924
 20
74.464058
 11
-192.999969
 21
72.731972
  0
LINE
  8
0
 10
-193.000015
 20
72.732048
 11
-193.000015
 21
69.267952
  0
LINE
  8
0
 10
-190.000031
 20
67.535912
 11
-193.000061
 21
69.267982
  0
LINE
  8
0
 10
-187.000061
 20
69.268074
 11
-190.000046
 21
67.536018
  0
LINE
  8
0
 10
-187.000000
 20
72.732048
 11
-187.000000
 21
69.267952
  0
LINE
  8
0
 10
-189.999985
 20
74.464096
 11
-187.000000
 21
72.732048
  0
LINE
  8
0
 10
-190.000000
 20
-47.535965
 11
-187.000015
 21
-49.268013
  0
LINE
  8
0
 10
-189.999969
 20
-47.535904
 11
-193.000000
 21
-49.267979
  0
LINE
  8
0
 10
-193.000015
 20
-49.267952
 11
-193.000015
 21
-52.732048
  0
LINE
  8
0
 10
-190.000015
 20
-54.464081
 11
-193.000046
 21
-52.732018
  0
LINE
  8
0
 10
-187.000031
 20
-52.731995
 11
-190.000031
 21
-54.464054
  0
LINE
  8
0
 10
-187.000000
 20
-49.267952
 11
-187.000000
 21
-52.732048
  0
LINE
  8
0
 10
-190.000000
 20
13.464080
 11
-187.000000
 21
11.732022
  0
LINE
  8
0
 10
-189.999969
 20
13.464081
 11
-193.000015
 21
11.732007
  0
LINE
  8
0
 10
-193.000015
 20
11.732048
 11
-193.000015
 21
8.267956
  0
LINE
  8
0
 10
-190.000031
 20
6.535933
 11
-193.000031
 21
8.267993
  0
LINE
  8
0
 10
-187.000046
 20
8.268021
 11
-190.000031
 21
6.535964
  0
LINE
  8
0
 10
-187.000000
 20
11.732048
 11
-187.000000
 21
8.267956
  0
LINE
  8
0
  6
CENTER
 62
     2
 10
-190.000000
 20
95.222458
 11
-190.000000
 21
-75.657166
  0
LINE
  8
0
  6
CENTER
 62
     2
 10
-216.000000
 20
83.088882
 11
-216.000000
 21
68.682777
  0
LINE
  8
0
  6
CENTER
 62
     2
 10
-171.566666
 20
-56.000000
 11
-156.595612
 21
-56.000000
  0
LINE
  8
0
  6
CENTER
 62
     2
 10
-171.849152
 20
76.000000
 11
-156.595612
 21
76.000000
  0
LINE
  8
0
  6
CENTER
 62
     2
 10
-164.000000
 20
83.371353
 11
-164.000000
 21
68.682777
  0
LINE
  8
0
  6
CENTER
 62
     2
 10
-202.187592
 20
71.000000
 11
-178.341904
 21
71.000000
  0
LINE
  8
0
  6
CENTER
 62
     2
 10
-202.187592
 20
-50.999996
 11
-178.341904
 21
-50.999996
  0
LINE
  8
0
  6
CENTER
 62
     2
 10
151.000000
 20
-57.730934
 11
151.000000
 21
-72.042908
  0
LINE
  8
0
 10
140.000000
 20
91.000000
 11
210.000000
 21
91.000000
  0
LINE
  8
0
 10
140.000000
 20
-71.000000
 11
210.000000
 21
-71.000000
  0
LINE
  8
0
  6
CENTER
 62
     2
 10
155.556702
 20
71.000000
 11
194.050598
 21
71.000000
  0
LINE
  8
0
  6
CENTER
 62
     2
 10
158.457825
 20
-50.999996
 11
191.911697
 21
-50.999996
  0
LINE
  8
0
 10
140.000122
 20
90.999969
 11
137.000076
 21
87.999924
  0
LINE
  8
0
 10
209.999802
 20
90.999855
 11
212.999802
 21
87.999847
  0
LINE
  8
0
 10
213.000198
 20
-68.000061
 11
210.000168
 21
-71.000084
  0
LINE
  8
0
 10
137.000000
 20
-14.499990
 11
137.000000
 21
-67.999985
  0
LINE
  8
0
 10
213.000015
 20
-14.500034
 11
213.000015
 21
-45.849960
  0
LINE
  8
0
 10
137.000137
 20
-67.999878
 11
140.000107
 21
-70.999832
  0
LINE
  8
0
 10
137.500031
 20
21.799992
 11
138.000031
 21
21.799992
  0
LINE
  8
0
 10
137.999893
 20
21.799915
 11
138.499908
 21
21.299896
  0
LINE
  8
0
 10
138.500031
 20
21.300007
 11
140.100006
 21
21.300007
  0
LINE
  8
0
 10
138.500031
 20
25.499981
 11
140.100006
 21
25.499981
  0
LINE
  8
0
 10
137.999847
 20
25.000196
 11
138.499863
 21
25.500216
  0
LINE
  8
0
 10
137.500031
 20
24.999981
 11
138.000031
 21
24.999981
  0
LINE
  8
0
 10
137.500031
 20
34.000008
 11
137.500031
 21
24.999981
  0
LINE
  8
0
 10
137.500031
 20
21.799992
 11
137.500031
 21
-1.799992
  0
LINE
  8
0
 10
137.500000
 20
33.999989
 11
136.999985
 21
34.500008
  0
LINE
  8
0
 10
137.500031
 20
-1.799992
 11
138.000031
 21
-1.799992
  0
LINE
  8
0
 10
137.999817
 20
-1.799887
 11
138.499802
 21
-1.299894
  0
LINE
  8
0
 10
138.500031
 20
-1.300001
 11
140.100006
 21
-1.300001
  0
LINE
  8
0
 10
138.500031
 20
-5.500008
 11
140.100006
 21
-5.500008
  0
LINE
  8
0
 10
137.999878
 20
-5.000144
 11
138.499863
 21
-5.500136
  0
LINE
  8
0
 10
137.500031
 20
-5.000000
 11
138.000031
 21
-5.000000
  0
LINE
  8
0
 10
137.500031
 20
-13.999983
 11
137.500031
 21
-5.000000
  0
LINE
  8
0
 10
137.499985
 20
-13.999974
 11
136.999954
 21
-14.500008
  0
LINE
  8
0
 10
212.499985
 20
21.799992
 11
211.999969
 21
21.799992
  0
LINE
  8
0
 10
212.000168
 20
21.799826
 11
211.500168
 21
21.299826
  0
LINE
  8
0
 10
211.499969
 20
21.300007
 11
209.899994
 21
21.300007
  0
LINE
  8
0
 10
211.499969
 20
25.499981
 11
209.899994
 21
25.499981
  0
LINE
  8
0
 10
212.000229
 20
25.000212
 11
211.500214
 21
25.500208
  0
LINE
  8
0
 10
212.499985
 20
24.999981
 11
211.999969
 21
24.999981
  0
LINE
  8
0
 10
212.499985
 20
34.000008
 11
212.499985
 21
24.999981
  0
LINE
  8
0
 10
212.499985
 20
21.799992
 11
212.499985
 21
-1.799992
  0
LINE
  8
0
 10
212.500000
 20
-14.000050
 11
213.000015
 21
-14.500059
  0
LINE
  8
0
 10
212.499939
 20
34.000027
 11
212.999985
 21
34.500053
  0
LINE
  8
0
 10
212.499985
 20
-1.799992
 11
211.999969
 21
-1.799992
  0
LINE
  8
0
 10
212.000214
 20
-1.799867
 11
211.500214
 21
-1.299857
  0
LINE
  8
0
 10
211.499969
 20
-1.300001
 11
209.899994
 21
-1.300001
  0
LINE
  8
0
 10
211.499969
 20
-5.500008
 11
209.899994
 21
-5.500008
  0
LINE
  8
0
 10
212.000244
 20
-5.000252
 11
211.500244
 21
-5.500253
  0
LINE
  8
0
 10
212.499985
 20
-5.000000
 11
211.999969
 21
-5.000000
  0
LINE
  8
0
 10
212.499985
 20
-13.999983
 11
212.499985
 21
-5.000000
  0
LINE
  8
0
 10
213.000015
 20
-54.150002
 11
213.000015
 21
-68.000031
  0
LINE
  8
0
 10
208.500000
 20
-54.150002
 11
208.500000
 21
-56.650002
  0
LINE
  8
0
 10
201.500015
 20
-43.349960
 11
201.500015
 21
-56.650002
  0
LINE
  8
0
 10
208.500000
 20
-43.350025
 11
208.500000
 21
-45.850025
  0
LINE
  8
0
 10
201.500015
 20
-56.650024
 11
208.500000
 21
-56.650024
  0
LINE
  8
0
 10
201.500015
 20
-43.349960
 11
208.500000
 21
-43.349960
  0
LINE
  8
0
 10
208.500000
 20
-45.849960
 11
212.999985
 21
-45.849960
  0
LINE
  8
0
 10
208.500000
 20
-54.150024
 11
212.999985
 21
-54.150024
  0
LINE
  8
0
  6
CENTER
 62
     2
 10
145.857208
 20
82.000008
 11
160.296158
 21
82.000008
  0
LINE
  8
0
  6
CENTER
 62
     2
 10
145.857208
 20
-61.999985
 11
160.296158
 21
-61.999985
  0
LINE
  8
0
  6
CENTER
 62
     2
 10
153.000015
 20
-54.999992
 11
153.000015
 21
-68.999977
  0
LINE
  8
0
  6
CENTER
 62
     2
 10
197.000000
 20
-54.999992
 11
197.000000
 21
-68.999977
  0
LINE
  8
0
 10
176.500000
 20
-71.000000
 11
176.500000
 21
-64.919418
  0
LINE
  8
0
 10
173.500000
 20
-71.000000
 11
173.500000
 21
-64.919418
  0
LINE
  8
0
 10
176.500000
 20
91.000000
 11
176.500000
 21
84.919418
  0
LINE
  8
0
 10
173.500000
 20
91.000000
 11
173.500000
 21
84.919418
  0
LINE
  8
0
 10
139.000000
 20
72.649994
 11
139.000000
 21
67.350006
  0
LINE
  8
0
 10
211.000000
 20
74.149979
 11
211.000000
 21
65.849983
  0
LINE
  8
0
 10
139.000000
 20
25.499989
 11
139.000000
 21
21.300007
  0
LINE
  8
0
 10
139.000000
 20
-1.300005
 11
139.000000
 21
-5.500008
  0
LINE
  8
0
 10
211.000000
 20
-45.849960
 11
211.000000
 21
-54.150024
  0
LINE
  8
0
 10
211.000000
 20
-1.300005
 11
211.000000
 21
-5.500008
  0
LINE
  8
0
 10
211.000000
 20
25.499989
 11
211.000000
 21
21.300007
  0
LINE
  8
0
 10
137.000000
 20
87.999992
 11
137.000000
 21
72.649994
  0
LINE
  8
0
 10
137.000000
 20
72.649994
 11
140.000000
 21
72.649994
  0
LINE
  8
0
 10
140.000000
 20
74.150002
 11
140.000000
 21
72.649994
  0
LINE
  8
0
 10
144.500015
 20
74.150002
 11
144.500015
 21
65.849998
  0
LINE
  8
0
 10
140.000000
 20
67.350006
 11
140.000000
 21
65.849998
  0
LINE
  8
0
 10
137.000000
 20
67.350006
 11
140.000000
 21
67.350006
  0
LINE
  8
0
 10
137.000000
 20
67.350006
 11
137.000000
 21
34.500015
  0
LINE
  8
0
 10
201.500015
 20
76.649979
 11
208.500000
 21
76.649979
  0
LINE
  8
0
 10
201.500015
 20
63.349983
 11
201.500015
 21
76.649979
  0
LINE
  8
0
 10
201.500015
 20
63.349983
 11
208.500000
 21
63.349983
  0
LINE
  8
0
 10
208.500000
 20
63.350029
 11
208.500000
 21
65.850029
  0
LINE
  8
0
 10
208.500000
 20
65.849983
 11
212.999985
 21
65.849983
  0
LINE
  8
0
 10
213.000015
 20
34.500015
 11
213.000015
 21
65.849983
  0
LINE
  8
0
 10
208.500000
 20
74.149979
 11
212.999985
 21
74.149979
  0
LINE
  8
0
 10
208.500000
 20
74.150024
 11
208.500000
 21
76.650024
  0
LINE
  8
0
 10
213.000015
 20
74.149979
 11
213.000015
 21
88.000076
  0
LINE
  8
0
  6
CENTER
 62
     2
 10
153.000015
 20
89.391571
 11
153.000015
 21
74.520378
  0
LINE
  8
0
  6
CENTER
 62
     2
 10
197.000000
 20
89.194603
 11
197.000000
 21
74.520378
  0
LINE
  8
0
  6
CENTER
 62
     2
 10
190.504486
 20
-61.999985
 11
203.439743
 21
-61.999985
  0
LINE
  8
0
  6
CENTER
 62
     2
 10
189.660858
 20
82.000008
 11
204.532043
 21
82.000008
  0
LINE
  8
0
  6
DASHED
 62
     2
 10
145.300018
 20
-65.614868
 11
145.300018
 21
-70.000061
  0
LINE
  8
0
  6
DASHED
 62
     2
 10
156.699982
 20
-70.000061
 11
145.300018
 21
-70.000061
  0
LINE
  8
0
  6
DASHED
 62
     2
 10
144.591125
 20
-65.614876
 11
144.454147
 21
-70.846062
  0
LINE
  8
0
  6
DASHED
 62
     2
 10
144.299927
 20
-70.999886
 11
145.299911
 21
-69.999908
  0
LINE
  8
0
  6
DASHED
 62
     2
 10
156.699951
 20
-70.000084
 11
157.699921
 21
-71.000061
  0
LINE
  8
0
  6
DASHED
 62
     2
 10
157.409012
 20
-65.614876
 11
157.550018
 21
-71.000084
  0
LINE
  8
0
  6
DASHED
 62
     2
 10
156.700012
 20
-65.614868
 11
156.700012
 21
-70.000061
  0
LINE
  8
0
  6
CENTER
 62
     2
 10
151.000000
 20
-64.079941
 11
151.000000
 21
-73.120407
  0
LINE
  8
0
  6
CENTER
 62
     2
 10
130.704498
 20
10.000000
 11
215.027191
 21
10.000000
  0
LINE
  8
0
  6
CENTER
 62
     2
 10
175.000000
 20
96.785172
 11
175.000000
 21
-74.269409
  0
LINE
  8
0
  6
CENTER
 62
     2
 10
154.480270
 20
-50.000000
 11
147.812439
 21
-50.000000
  0
LINE
  8
0
  6
CENTER
 62
     2
 10
151.000000
 20
-46.847229
 11
151.000000
 21
-53.176010
  0
LINE
  8
0
  6
CENTER
 62
     2
 10
198.663315
 20
69.999977
 11
208.500000
 21
69.999977
  0
LINE
  8
0
  6
CENTER
 62
     2
 10
140.000000
 20
70.000000
 11
147.370880
 21
70.000000
  0
LINE
  8
0
  6
CENTER
 62
     2
 10
197.937134
 20
-49.999992
 11
208.500000
 21
-49.999992
  0
LINE
  8
0
 10
140.000000
 20
74.150002
 11
144.500015
 21
74.150002
  0
LINE
  8
0
 10
140.000000
 20
65.849998
 11
144.500015
 21
65.849998
  0
LINE
  8
0
 10
-281.250000
 20
195.500000
 11
282.099976
 21
195.500000
  0
LINE
  8
0
 10
-281.250000
 20
195.500000
 11
-281.250000
 21
-195.000000
  0
LINE
  8
0
 10
282.099976
 20
195.500000
 11
282.099976
 21
-195.000000
  0
LINE
  8
0
 10
-281.250000
 20
-195.000000
 11
282.099976
 21
-195.000000
  0
LINE
  8
0
 10
162.099976
 20
-175.000000
 11
162.099976
 21
-195.000000
  0
LINE
  8
0
 10
162.099976
 20
-175.000000
 11
282.099976
 21
-175.000000
  0
LINE
  8
0
 10
162.099976
 20
175.500000
 11
282.099976
 21
175.500000
  0
LINE
  8
0
 10
-281.250000
 20
175.500000
 11
-121.250000
 21
175.500000
  0
LINE
  8
0
 10
162.099976
 20
195.500000
 11
162.099976
 21
175.500000
  0
LINE
  8
0
 10
-121.250000
 20
195.500000
 11
-121.250000
 21
175.500000
  0
LINE
  8
0
 10
-271.250000
 20
-185.000000
 11
-31.250000
 21
-185.000000
  0
LINE
  8
0
 10
-271.250000
 20
-144.000000
 11
-271.250000
 21
-185.000000
  0
LINE
  8
0
 10
-231.250000
 20
-144.000000
 11
-231.250000
 21
-185.000000
  0
LINE
  8
0
 10
-271.250000
 20
-151.000000
 11
-235.001297
 21
-151.000000
  0
LINE
  8
0
 10
-271.250000
 20
-165.000000
 11
-31.250000
 21
-165.000000
  0
LINE
  8
0
 10
-271.250000
 20
-144.000000
 11
-31.250000
 21
-144.000000
  0
LINE
  8
0
 10
-231.250015
 20
-165.000015
 11
-235.001312
 21
-151.000000
  0
LINE
  8
0
 10
-211.250000
 20
-144.000000
 11
-211.250000
 21
-185.000000
  0
LINE
  8
0
 10
-191.250000
 20
-144.000000
 11
-191.250000
 21
-185.000000
  0
LINE
  8
0
 10
-171.250000
 20
-144.000000
 11
-171.250000
 21
-185.000000
  0
LINE
  8
0
 10
-151.250000
 20
-144.000000
 11
-151.250000
 21
-185.000000
  0
LINE
  8
0
 10
-131.250000
 20
-144.000000
 11
-131.250000
 21
-185.000000
  0
LINE
  8
0
 10
-111.250000
 20
-144.000000
 11
-111.250000
 21
-185.000000
  0
LINE
  8
0
 10
-271.250000
 20
-175.000000
 11
-31.250000
 21
-175.000000
  0
LINE
  8
0
 10
-91.250000
 20
-144.000000
 11
-91.250000
 21
-185.000000
  0
LINE
  8
0
 10
-71.250000
 20
-144.000000
 11
-71.250000
 21
-185.000000
  0
LINE
  8
0
 10
-51.250000
 20
-144.000000
 11
-51.250000
 21
-185.000000
  0
LINE
  8
0
 10
-31.250000
 20
-144.000000
 11
-31.250000
 21
-185.000000
  0
CIRCLE
  8
0
  6
DASHED
 62
     2
 10
1.000000
 20
-29.000004
 40
5.000000
  0
CIRCLE
  8
0
 10
16.000000
 20
-50.000000
 40
5.750000
  0
CIRCLE
  8
0
 10
-9.999992
 20
-50.000000
 40
5.750000
  0
ARC
  8
0
 10
-38.999985
 20
10.000000
 40
9.999995
 50
334.158081
 51
25.841825
  0
CIRCLE
  8
0
 10
-18.999983
 20
49.000008
 40
7.000000
  0
CIRCLE
  8
0
  6
DASHED
 62
     2
 10
-18.999983
 20
49.000008
 40
5.000000
  0
CIRCLE
  8
0
 10
-18.999983
 20
49.000008
 40
4.300000
  0
CIRCLE
  8
0
 10
1.000015
 20
49.000008
 40
7.000000
  0
CIRCLE
  8
0
 10
1.000015
 20
49.000008
 40
4.300000
  0
CIRCLE
  8
0
  6
DASHED
 62
     2
 10
1.000015
 20
49.000008
 40
5.000000
  0
CIRCLE
  8
0
 10
1.000000
 20
-29.000004
 40
4.300000
  0
CIRCLE
  8
0
 10
-19.000000
 20
-29.000004
 40
7.000000
  0
CIRCLE
  8
0
 10
-19.000000
 20
-29.000004
 40
4.300000
  0
CIRCLE
  8
0
  6
DASHED
 62
     2
 10
-19.000000
 20
-29.000004
 40
5.000000
  0
CIRCLE
  8
0
 10
1.000000
 20
-29.000004
 40
7.000000
  0
CIRCLE
  8
0
 62
     2
 10
-9.999992
 20
-50.000000
 40
6.600000
  0
CIRCLE
  8
0
 62
     2
 10
16.000000
 20
-50.000000
 40
6.600000
  0
CIRCLE
  8
0
 10
-190.000000
 20
-51.000000
 40
5.600000
  0
CIRCLE
  8
0
 10
-190.000000
 20
-51.000000
 40
8.750000
  0
CIRCLE
  8
0
 10
-190.000000
 20
10.000000
 40
8.750000
  0
CIRCLE
  8
0
 10
-190.000000
 20
10.000000
 40
5.600000
  0
CIRCLE
  8
0
 10
-190.000000
 20
10.000000
 40
10.000000
  0
CIRCLE
  8
0
 10
-190.000000
 20
-51.000000
 40
10.000000
  0
CIRCLE
  8
0
 10
-190.000000
 20
71.000000
 40
10.000000
  0
CIRCLE
  8
0
 62
     2
 10
-216.000000
 20
-56.000000
 40
5.000000
  0
CIRCLE
  8
0
 10
-216.000000
 20
-56.000000
 40
4.250000
  0
CIRCLE
  8
0
 10
-216.000000
 20
76.000000
 40
4.250000
  0
CIRCLE
  8
0
 62
     2
 10
-216.000000
 20
76.000000
 40
5.000000
  0
CIRCLE
  8
0
 10
-164.000000
 20
-56.000000
 40
4.250000
  0
CIRCLE
  8
0
 62
     2
 10
-164.000000
 20
-56.000000
 40
5.000000
  0
CIRCLE
  8
0
 10
-164.000000
 20
76.000000
 40
4.250000
  0
CIRCLE
  8
0
 62
     2
 10
-164.000000
 20
76.000000
 40
5.000000
  0
CIRCLE
  8
0
 10
-190.000000
 20
71.000000
 40
5.600000
  0
CIRCLE
  8
0
 10
-190.000000
 20
71.000000
 40
8.750000
  0
CIRCLE
  8
0
 10
175.000000
 20
-50.999996
 40
10.000000
  0
CIRCLE
  8
0
 10
175.000000
 20
71.000000
 40
10.000000
  0
ARC
  8
0
 10
209.899994
 20
-3.399988
 40
2.100000
 50
90.000000
 51
270.000000
  0
CIRCLE
  8
0
 10
175.000000
 20
-50.999996
 40
14.000001
  0
CIRCLE
  8
0
 10
175.000000
 20
71.000000
 40
14.000001
  0
ARC
  8
0
 10
140.100006
 20
23.399986
 40
2.100000
 50
270.000000
 51
90.000000
  0
ARC
  8
0
 10
140.100006
 20
-3.399988
 40
2.100000
 50
270.000000
 51
90.000000
  0
ARC
  8
0
 10
209.899994
 20
23.399986
 40
2.100000
 50
90.000000
 51
270.000000
  0
CIRCLE
  8
0
 10
153.000015
 20
82.000008
 40
4.250000
  0
CIRCLE
  8
0
 62
     2
 10
153.000015
 20
82.000008
 40
5.000000
  0
CIRCLE
  8
0
 10
153.000015
 20
-61.999985
 40
4.250000
  0
CIRCLE
  8
0
 62
     2
 10
153.000015
 20
-61.999985
 40
5.000000
  0
CIRCLE
  8
0
 10
197.000000
 20
82.000008
 40
4.250000
  0
CIRCLE
  8
0
 62
     2
 10
197.000000
 20
82.000008
 40
5.000000
  0
CIRCLE
  8
0
 10
197.000000
 20
-61.999985
 40
4.250000
  0
CIRCLE
  8
0
 62
     2
 10
197.000000
 20
-61.999985
 40
5.000000
  0
CIRCLE
  8
0
 10
175.000000
 20
10.000000
 40
32.500000
  0
CIRCLE
  8
0
 10
175.000000
 20
10.000000
 40
20.000000
  0
CIRCLE
  8
0
 10
151.000000
 20
-50.000000
 40
1.750000
  0
CIRCLE
  8
0
 10
151.000000
 20
-50.000000
 40
1.500000
  0
TEXT
  8
0
 10
196.250259
 20
180.830002
 40
6.300000
  1
Ver. 1.0
 50
0.000000
 41
1.052632
 51
0.000000
  7
STANDARD
  0
TEXT
  8
0
 10
167.564667
 20
-192.100006
 40
9.000000
  1
KOGANEI CORP.
 50
0.000000
 41
1.052632
 51
0.000000
  7
STANDARD
  0
TEXT
  8
0
 10
-274.349731
 20
180.830002
 40
6.300000
  1
JIG CYLINDER WITH GUIDE
 50
0.000000
 41
1.052632
 51
0.000000
  7
STANDARD
  0
TEXT
  8
0
 10
-232.249710
 20
145.830002
 40
6.300000
  1
SGDAFQ63*ST(10)
 50
0.000000
 41
1.052632
 51
0.000000
  7
STANDARD
  0
TEXT
  8
0
 10
-270.049713
 20
155.830002
 40
6.300000
  1
MODEL:SGDAQ63*ST(10)
 50
0.000000
 41
1.052632
 51
0.000000
  7
STANDARD
  0
TEXT
  8
0
 62
     3
 10
1.357144
 20
110.699997
 40
4.500000
  1
STRETCH LINE A
 50
0.000000
 41
1.052632
 51
0.000000
  7
STANDARD
  0
TEXT
  8
0
 10
-226.142654
 20
-157.550003
 40
4.500000
  1
10
 50
0.000000
 41
1.052632
 51
0.000000
  7
STANDARD
  0
TEXT
  8
0
 10
-206.142654
 20
-157.550003
 40
4.500000
  1
20
 50
0.000000
 41
1.052632
 51
0.000000
  7
STANDARD
  0
TEXT
  8
0
 10
-186.142654
 20
-157.550003
 40
4.500000
  1
30
 50
0.000000
 41
1.052632
 51
0.000000
  7
STANDARD
  0
TEXT
  8
0
 10
-166.142654
 20
-157.550003
 40
4.500000
  1
50
 50
0.000000
 41
1.052632
 51
0.000000
  7
STANDARD
  0
TEXT
  8
0
 10
-146.142654
 20
-157.550003
 40
4.500000
  1
75
 50
0.000000
 41
1.052632
 51
0.000000
  7
STANDARD
  0
TEXT
  8
0
 10
-128.392654
 20
-157.550003
 40
4.500000
  1
100
 50
0.000000
 41
1.052632
 51
0.000000
  7
STANDARD
  0
TEXT
  8
0
 10
-265.142670
 20
-150.550003
 40
4.500000
  1
STROKE
 50
0.000000
 41
1.052632
 51
0.000000
  7
STANDARD
  0
TEXT
  8
0
 10
-267.392670
 20
-156.324997
 40
4.500000
  1
STRETCH
 50
0.000000
 41
1.052632
 51
0.000000
  7
STANDARD
  0
TEXT
  8
0
 10
-267.392670
 20
-163.074997
 40
4.500000
  1
  PLACE
 50
0.000000
 41
1.052632
 51
0.000000
  7
STANDARD
  0
TEXT
  8
0
 10
-253.892654
 20
-173.050003
 40
4.500000
  1
A
 50
0.000000
 41
1.052632
 51
0.000000
  7
STANDARD
  0
TEXT
  8
0
 10
-253.892654
 20
-183.050003
 40
4.500000
  1
B
 50
0.000000
 41
1.052632
 51
0.000000
  7
STANDARD
  0
TEXT
  8
0
 10
-168.642654
 20
-142.050003
 40
4.500000
  1
STRETCH LIST
 50
0.000000
 41
1.052632
 51
0.000000
  7
STANDARD
  0
TEXT
  8
0
 10
-50.642658
 20
-144.050003
 40
4.500000
  1
(mm)
 50
0.000000
 41
1.052632
 51
0.000000
  7
STANDARD
  0
TEXT
  8
0
 10
-108.392654
 20
-157.550003
 40
4.500000
  1
125
 50
0.000000
 41
1.052632
 51
0.000000
  7
STANDARD
  0
TEXT
  8
0
 10
-88.392654
 20
-157.550003
 40
4.500000
  1
150
 50
0.000000
 41
1.052632
 51
0.000000
  7
STANDARD
  0
TEXT
  8
0
 10
-68.392654
 20
-157.550003
 40
4.500000
  1
175
 50
0.000000
 41
1.052632
 51
0.000000
  7
STANDARD
  0
TEXT
  8
0
 10
-48.392658
 20
-157.550003
 40
4.500000
  1
200
 50
0.000000
 41
1.052632
 51
0.000000
  7
STANDARD
  0
TEXT
  8
0
 10
-206.142654
 20
-183.050003
 40
4.500000
  1
10
 50
0.000000
 41
1.052632
 51
0.000000
  7
STANDARD
  0
TEXT
  8
0
 10
-186.142654
 20
-183.050003
 40
4.500000
  1
20
 50
0.000000
 41
1.052632
 51
0.000000
  7
STANDARD
  0
TEXT
  8
0
 10
-166.142654
 20
-183.050003
 40
4.500000
  1
40
 50
0.000000
 41
1.052632
 51
0.000000
  7
STANDARD
  0
TEXT
  8
0
 10
-146.142654
 20
-183.050003
 40
4.500000
  1
40
 50
0.000000
 41
1.052632
 51
0.000000
  7
STANDARD
  0
TEXT
  8
0
 10
-126.142654
 20
-183.050003
 40
4.500000
  1
40
 50
0.000000
 41
1.052632
 51
0.000000
  7
STANDARD
  0
TEXT
  8
0
 10
-106.142654
 20
-183.050003
 40
4.500000
  1
90
 50
0.000000
 41
1.052632
 51
0.000000
  7
STANDARD
  0
TEXT
  8
0
 10
-86.142654
 20
-183.050003
 40
4.500000
  1
90
 50
0.000000
 41
1.052632
 51
0.000000
  7
STANDARD
  0
TEXT
  8
0
 10
-66.142654
 20
-183.050003
 40
4.500000
  1
90
 50
0.000000
 41
1.052632
 51
0.000000
  7
STANDARD
  0
TEXT
  8
0
 10
-46.142658
 20
-183.050003
 40
4.500000
  1
90
 50
0.000000
 41
1.052632
 51
0.000000
  7
STANDARD
  0
TEXT
  8
0
 10
-223.892654
 20
-183.050003
 40
4.500000
  1
0
 50
0.000000
 41
1.052632
 51
0.000000
  7
STANDARD
  0
TEXT
  8
0
 10
-223.892654
 20
-173.050003
 40
4.500000
  1
0
 50
0.000000
 41
1.052632
 51
0.000000
  7
STANDARD
  0
TEXT
  8
0
 10
-48.392658
 20
-173.050003
 40
4.500000
  1
100
 50
0.000000
 41
1.052632
 51
0.000000
  7
STANDARD
  0
TEXT
  8
0
 10
-66.142654
 20
-173.050003
 40
4.500000
  1
75
 50
0.000000
 41
1.052632
 51
0.000000
  7
STANDARD
  0
TEXT
  8
0
 10
-86.142654
 20
-173.050003
 40
4.500000
  1
50
 50
0.000000
 41
1.052632
 51
0.000000
  7
STANDARD
  0
TEXT
  8
0
 10
-106.142654
 20
-173.050003
 40
4.500000
  1
25
 50
0.000000
 41
1.052632
 51
0.000000
  7
STANDARD
  0
TEXT
  8
0
 10
-126.142654
 20
-173.050003
 40
4.500000
  1
50
 50
0.000000
 41
1.052632
 51
0.000000
  7
STANDARD
  0
TEXT
  8
0
 10
-146.142654
 20
-173.050003
 40
4.500000
  1
25
 50
0.000000
 41
1.052632
 51
0.000000
  7
STANDARD
  0
TEXT
  8
0
 10
-163.892654
 20
-173.050003
 40
4.500000
  1
0
 50
0.000000
 41
1.052632
 51
0.000000
  7
STANDARD
  0
TEXT
  8
0
 10
-183.892654
 20
-173.050003
 40
4.500000
  1
0
 50
0.000000
 41
1.052632
 51
0.000000
  7
STANDARD
  0
TEXT
  8
0
 10
-203.892654
 20
-173.050003
 40
4.500000
  1
0
 50
0.000000
 41
1.052632
 51
0.000000
  7
STANDARD
  0
TEXT
  8
0
 62
     3
 10
-20.892656
 20
125.199997
 40
4.500000
  1
STRETCH LINE B
 50
0.000000
 41
1.052632
 51
0.000000
  7
STANDARD
  0
TEXT
  8
0
 62
     2
 10
85.090912
 20
-100.000000
 40
3.200000
  1
STROKE=75-200
 50
0.000000
 41
1.052632
 51
0.000000
  7
STANDARD
  0
LINE
  8
0
 62
     2
 10
69.000008
 20
-101.000000
 11
126.440918
 21
-101.000000
  0
LINE
  8
0
 62
     2
 10
30.000008
 20
-101.000000
 11
69.000008
 21
-101.000000
  0
LINE
  8
0
 62
     2
 10
30.000008
 20
-101.000000
 11
32.897785
 21
-100.223541
  0
LINE
  8
0
 62
     2
 10
30.000008
 20
-101.000000
 11
32.897785
 21
-101.776459
  0
LINE
  8
0
 62
     2
 10
69.000008
 20
-101.000000
 11
66.102234
 21
-101.776459
  0
LINE
  8
0
 62
     2
 10
69.000008
 20
-101.000000
 11
66.102234
 21
-100.223541
  0
LINE
  8
0
 62
     2
 10
30.000008
 20
-70.499985
 11
30.000008
 21
-102.500000
  0
LINE
  8
0
 62
     2
 10
69.000008
 20
-63.000000
 11
69.000008
 21
-102.500000
  0
ENDSEC
  0
EOF
