  0
SECTION
  2
HEADER
  0
ENDSEC
  0
SECTION
  2
TABLES
  0
TABLE
  2
LTYPE
 70
     4
  0
LTYPE
  2
CONTINUOUS
 70
    64
  3
Solid line
 72
    65
 73
     0
 40
0.000000
  0
LTYPE
  2
DASHED
 70
    64
  3
__ __ __ __ __ __ __ __ __ __ __ __ __ __ __
 72
    65
 73
     2
 40
3.500000
 49
2.000000
 49
-1.500000
  0
LTYPE
  2
CENTER
 70
    64
  3
____ _ ____ _ ____ _ ____ _ ____ _ ____ _ ____
 72
    65
 73
     4
 40
17.500000
 49
13.000000
 49
-1.500000
 49
1.500000
 49
-1.500000
  0
LTYPE
  2
PHANTOM
 70
    64
  3
_____ _ _ _____ _ _ _____ _ _ _____ _ _ ____  
 72
    65
 73
     6
 40
15.500000
 49
8.000000
 49
-1.500000
 49
1.500000
 49
-1.500000
 49
1.500000
 49
-1.500000
  0
LTYPE
  2
DASHED1
 70
    64
  3
__ __ __ __ __ __ __ __ __ __ __ __ __ __ __
 72
    65
 73
     2
 40
1.500000
 49
1.000000
 49
-0.500000
  0
LTYPE
  2
DASHED2
 70
    64
  3
__ __ __ __ __ __ __ __ __ __ __ __ __ __ __
 72
    65
 73
     2
 40
3.500000
 49
2.500000
 49
-1.000000
  0
LTYPE
  2
DASHED3
 70
    64
  3
__ __ __ __ __ __ __ __ __ __ __ __ __ __ __
 72
    65
 73
     2
 40
6.000000
 49
4.000000
 49
-2.000000
  0
LTYPE
  2
DASHED4
 70
    64
  3
__ __ __ __ __ __ __ __ __ __ __ __ __ __ __
 72
    65
 73
     2
 40
12.000000
 49
10.000000
 49
-2.000000
  0
LTYPE
  2
DASHED5
 70
    64
  3
__ __ __ __ __ __ __ __ __ __ __ __ __ __ __
 72
    65
 73
     2
 40
17.000000
 49
15.000000
 49
-2.000000
  0
LTYPE
  2
DASHED6
 70
    64
  3
__ __ __ __ __ __ __ __ __ __ __ __ __ __ __
 72
    65
 73
     2
 40
29.000000
 49
27.000000
 49
-2.000000
  0
LTYPE
  2
PHANTOM1
 70
    64
  3
_____ _ _ _____ _ _ _____ _ _ _____ _ _ ____  
 72
    65
 73
     6
 40
31.000000
 49
25.000000
 49
-1.500000
 49
1.000000
 49
-1.000000
 49
1.000000
 49
-1.500000
  0
LTYPE
  2
PHANTOM2
 70
    64
  3
_____ _ _ _____ _ _ _____ _ _ _____ _ _ ____  
 72
    65
 73
     6
 40
36.000000
 49
27.000000
 49
-1.500000
 49
2.500000
 49
-1.000000
 49
2.500000
 49
-1.500000
  0
LTYPE
  2
PHANTOM3
 70
    64
  3
_____ _ _ _____ _ _ _____ _ _ _____ _ _ ____  
 72
    65
 73
     6
 40
78.000000
 49
64.000000
 49
-2.000000
 49
4.000000
 49
-2.000000
 49
4.000000
 49
-2.000000
  0
LTYPE
  2
CENTER1
 70
    64
  3
____ _ ____ _ ____ _ ____ _ ____ _ ____ _ ____
 72
    65
 73
     4
 40
19.000000
 49
14.000000
 49
-1.000000
 49
3.000000
 49
-1.000000
  0
LTYPE
  2
CENTER2
 70
    64
  3
____ _ ____ _ ____ _ ____ _ ____ _ ____ _ ____
 72
    65
 73
     4
 40
28.500000
 49
25.000000
 49
-1.000000
 49
1.500000
 49
-1.000000
  0
LTYPE
  2
CENTER3
 70
    64
  3
____ _ ____ _ ____ _ ____ _ ____ _ ____ _ ____
 72
    65
 73
     4
 40
31.500000
 49
27.000000
 49
-1.000000
 49
2.500000
 49
-1.000000
  0
LTYPE
  2
CENTER4
 70
    64
  3
____ _ ____ _ ____ _ ____ _ ____ _ ____ _ ____
 72
    65
 73
     4
 40
50.000000
 49
45.000000
 49
-1.000000
 49
3.000000
 49
-1.000000
  0
LTYPE
  2
CENTER5
 70
    64
  3
____ _ ____ _ ____ _ ____ _ ____ _ ____ _ ____
 72
    65
 73
     4
 40
100.000000
 49
92.000000
 49
-2.000000
 49
4.000000
 49
-2.000000
  0
LTYPE
  2
SBK1
 70
    64
  3
______ _ _ _ ______ _ _ _ ______ _ _ _ _____  
 72
    65
 73
     8
 40
60.500000
 49
45.000000
 49
-2.000000
 49
2.500000
 49
-2.000000
 49
2.500000
 49
-2.000000
 49
2.500000
 49
-2.000000
  0
LTYPE
  2
SBK2
 70
    64
  3
______ _ _ _ ______ _ _ _ ______ _ _ _ _____  
 72
    65
 73
     8
 40
84.000000
 49
64.000000
 49
-2.000000
 49
4.000000
 49
-2.000000
 49
4.000000
 49
-2.000000
 49
4.000000
 49
-2.000000
  0
LTYPE
  2
STCH
 70
    64
  3
__ __ __ __ __ __ __ __ __ __ __ __ __ __ __
 72
    65
 73
     2
 40
3.000000
 49
1.000000
 49
-2.000000
  0
LTYPE
  2
MTCH
 70
    64
  3
_____ _ _ _____ _ _ _____ _ _ _____ _ _ ____  
 72
    65
 73
     6
 40
80.000000
 49
66.000000
 49
-2.000000
 49
4.000000
 49
-2.000000
 49
4.000000
 49
-2.000000
  0
ENDTAB
  0
TABLE
  2
LAYER
 70
     1
  0
LAYER
  2
0
 70
     0
 62
     7
  6
CONTINUOUS
  0
ENDTAB
  0
TABLE
  2
STYLE
 70
     1
  0
STYLE
  2
STANDARD
 70
     0
 40
0.000000
 41
1.000000
 50
0.000000
 71
     0
 42
0.200000
  3
txt
  4
BIGFONT
  0
ENDTAB
  0
TABLE
  2
VIEW
 70
     0
  0
ENDTAB
  0
ENDSEC
  0
SECTION
  2
BLOCKS
  0
ENDSEC
  0
SECTION
  2
ENTITIES
  0
LINE
  8
0
  6
CENTER
 62
     2
 10
-40.297558
 20
14.000000
 11
26.230499
 21
14.000000
  0
LINE
  8
0
 10
-26.000000
 20
19.000000
 11
-22.000000
 21
19.000000
  0
LINE
  8
0
 10
-26.000000
 20
53.000011
 11
-26.000000
 21
-25.000000
  0
LINE
  8
0
 10
-38.000000
 20
53.000004
 11
-38.000000
 21
-25.000000
  0
LINE
  8
0
 10
-21.500000
 20
55.000000
 11
23.500000
 21
55.000000
  0
LINE
  8
0
 10
-37.000000
 20
54.000008
 11
-27.000000
 21
54.000008
  0
LINE
  8
0
 10
-37.000000
 20
-26.000000
 11
-27.000000
 21
-26.000000
  0
LINE
  8
0
 10
-24.500000
 20
17.000008
 11
-24.500000
 21
11.000008
  0
LINE
  8
0
 10
-26.000000
 20
11.000008
 11
-24.500000
 21
11.000008
  0
LINE
  8
0
 10
-26.000010
 20
15.499853
 11
-24.500053
 21
10.999989
  0
LINE
  8
0
 10
-24.500008
 20
17.000069
 11
-26.000029
 21
12.500008
  0
LINE
  8
0
 10
-26.000000
 20
9.000000
 11
-22.000000
 21
9.000000
  0
LINE
  8
0
  6
CENTER
 62
     2
 10
-40.516109
 20
43.000000
 11
-19.431671
 21
43.000000
  0
LINE
  8
0
 10
-37.999962
 20
-24.999960
 11
-36.999962
 21
-25.999960
  0
LINE
  8
0
 10
-27.000031
 20
-26.000002
 11
-26.000031
 21
-25.000000
  0
LINE
  8
0
 10
-36.999973
 20
53.999989
 11
-37.999973
 21
52.999981
  0
LINE
  8
0
 10
-26.999998
 20
54.000000
 11
-26.000008
 21
53.000008
  0
LINE
  8
0
 10
-21.500025
 20
55.000027
 11
-22.000025
 21
54.500023
  0
LINE
  8
0
 10
23.499990
 20
55.000000
 11
23.999992
 21
54.500000
  0
LINE
  8
0
  6
CENTER
 62
     2
 10
-21.464264
 20
29.000000
 11
-9.884720
 21
29.000000
  0
LINE
  8
0
 10
-22.000000
 20
23.000000
 11
24.000000
 21
23.000000
  0
LINE
  8
0
 10
-22.000000
 20
21.408516
 11
24.000000
 21
21.408516
  0
LINE
  8
0
 10
-22.000000
 20
19.599998
 11
24.000000
 21
19.599998
  0
LINE
  8
0
 10
-22.000000
 20
16.400002
 11
24.000000
 21
16.400002
  0
LINE
  8
0
 10
-22.000000
 20
53.000015
 11
24.000000
 21
53.000015
  0
LINE
  8
0
 10
-26.000000
 20
17.000008
 11
-24.500000
 21
17.000008
  0
LINE
  8
0
  6
CENTER
 62
     2
 10
-40.809616
 20
-14.999977
 11
-19.431671
 21
-14.999977
  0
LINE
  8
0
  6
DASHED
 62
     2
 10
47.000000
 20
48.500027
 11
47.000000
 21
37.499969
  0
LINE
  8
0
  6
DASHED
 62
     2
 10
46.500000
 20
49.000031
 11
46.500000
 21
36.999969
  0
LINE
  8
0
  6
CENTER
 62
     2
 10
4.000000
 20
5.049103
 11
4.000000
 21
-6.876099
  0
LINE
  8
0
  6
CENTER
 62
     2
 10
-16.000000
 20
5.049103
 11
-16.000000
 21
-7.048920
  0
LINE
  8
0
  6
CENTER
 62
     2
 10
-21.464264
 20
-1.000000
 11
-9.884720
 21
-1.000000
  0
LINE
  8
0
 10
-22.000000
 20
54.500000
 11
-22.000000
 21
-26.500000
  0
LINE
  8
0
 10
24.000000
 20
54.500000
 11
24.000000
 21
-26.500000
  0
LINE
  8
0
 10
-21.499985
 20
-27.000000
 11
23.500000
 21
-27.000000
  0
LINE
  8
0
  6
CENTER
 62
     2
 10
-1.934570
 20
-1.000000
 11
10.163452
 21
-1.000000
  0
LINE
  8
0
 10
-22.000000
 20
11.600006
 11
24.000000
 21
11.600006
  0
LINE
  8
0
 10
-22.000000
 20
8.399994
 11
24.000000
 21
8.399994
  0
LINE
  8
0
 10
-22.000000
 20
6.591492
 11
24.000000
 21
6.591492
  0
LINE
  8
0
 10
-22.000000
 20
5.000000
 11
24.000000
 21
5.000000
  0
LINE
  8
0
 10
-22.000000
 20
-26.000000
 11
24.000000
 21
-26.000000
  0
LINE
  8
0
  6
CENTER
 62
     2
 10
8.048222
 20
-13.000000
 11
19.974754
 21
-13.000000
  0
LINE
  8
0
 10
24.000013
 20
-26.500011
 11
23.500011
 21
-27.000011
  0
LINE
  8
0
 10
-21.999950
 20
-26.499926
 11
-21.499931
 21
-26.999929
  0
LINE
  8
0
  6
CENTER
 62
     2
 10
14.000000
 20
-6.946331
 11
14.000000
 21
-19.546280
  0
LINE
  8
0
  6
DASHED
 62
     2
 10
-15.283005
 20
-23.548298
 11
-15.283005
 21
-27.000000
  0
LINE
  8
0
  6
DASHED
 62
     2
 10
-15.702232
 20
-23.548296
 11
-15.863958
 21
-26.999987
  0
LINE
  8
0
  6
DASHED
 62
     2
 10
-6.716995
 20
-23.548298
 11
-6.716995
 21
-27.000000
  0
LINE
  8
0
  6
CENTER
 62
     2
 10
-16.891266
 20
-13.000000
 11
-5.067215
 21
-13.000000
  0
LINE
  8
0
  6
DASHED
 62
     2
 10
-6.297596
 20
-23.548300
 11
-6.135871
 21
-26.999968
  0
LINE
  8
0
  6
DASHED
 62
     2
 10
-0.283005
 20
-23.548298
 11
-0.283005
 21
-27.000000
  0
LINE
  8
0
  6
DASHED
 62
     2
 10
-0.702270
 20
-23.548298
 11
-0.863997
 21
-27.000004
  0
LINE
  8
0
  6
DASHED
 62
     2
 10
8.702427
 20
-23.548302
 11
8.864154
 21
-26.999990
  0
LINE
  8
0
  6
DASHED
 62
     2
 10
8.283005
 20
-23.548298
 11
8.283005
 21
-27.000000
  0
LINE
  8
0
  6
CENTER
 62
     2
 10
-11.000000
 20
-7.140129
 11
-11.000000
 21
-28.439423
  0
LINE
  8
0
  6
CENTER
 62
     2
 10
4.000000
 20
-22.191719
 11
4.000000
 21
-27.914230
  0
LINE
  8
0
  6
CENTER
 62
     2
 10
-16.000000
 20
35.242153
 11
-16.000000
 21
22.726143
  0
LINE
  8
0
  6
CENTER
 62
     2
 10
4.000000
 20
35.118233
 11
4.000000
 21
22.726143
  0
LINE
  8
0
  6
CENTER
 62
     2
 10
-2.359837
 20
29.000000
 11
10.280090
 21
29.000000
  0
LINE
  8
0
 10
-26.000000
 20
-21.000031
 11
-22.000000
 21
-21.000031
  0
LINE
  8
0
 10
-26.000000
 20
-8.999969
 11
-22.000000
 21
-8.999969
  0
LINE
  8
0
 10
-26.000000
 20
36.999969
 11
-22.000000
 21
36.999969
  0
LINE
  8
0
 10
-26.000000
 20
49.000031
 11
-22.000000
 21
49.000031
  0
LINE
  8
0
  6
DASHED
 62
     2
 10
24.000000
 20
36.999969
 11
46.500000
 21
36.999969
  0
LINE
  8
0
  6
DASHED
 62
     2
 10
24.000000
 20
49.000031
 11
46.500000
 21
49.000031
  0
LINE
  8
0
  6
DASHED
 62
     2
 10
46.500004
 20
49.000031
 11
47.000004
 21
48.500031
  0
LINE
  8
0
  6
DASHED
 62
     2
 10
47.000004
 20
37.499973
 11
46.500004
 21
36.999973
  0
LINE
  8
0
  6
DASHED
 62
     2
 10
47.000000
 20
-9.499949
 11
47.000000
 21
-20.500008
  0
LINE
  8
0
  6
DASHED
 62
     2
 10
46.500000
 20
-8.999947
 11
46.500000
 21
-21.000008
  0
LINE
  8
0
  6
DASHED
 62
     2
 10
24.000000
 20
-21.000008
 11
46.500000
 21
-21.000008
  0
LINE
  8
0
  6
DASHED
 62
     2
 10
24.000000
 20
-8.999947
 11
46.500000
 21
-8.999947
  0
LINE
  8
0
  6
DASHED
 62
     2
 10
46.500008
 20
-8.999940
 11
47.000008
 21
-9.499942
  0
LINE
  8
0
  6
DASHED
 62
     2
 10
46.999996
 20
-20.500004
 11
46.499992
 21
-21.000004
  0
LINE
  8
0
 10
-22.000000
 20
43.149994
 11
24.000000
 21
43.149994
  0
LINE
  8
0
 10
-22.000000
 20
38.850006
 11
24.000000
 21
38.850006
  0
LINE
  8
0
  6
PHANTOM
 62
     3
 10
-4.500000
 20
70.000000
 11
-4.500000
 21
-32.800003
  0
LINE
  8
0
  6
PHANTOM
 62
     3
 10
-2.000000
 20
-8.400002
 11
-2.000000
 21
-32.800003
  0
LINE
  8
0
  6
PHANTOM
 62
     3
 10
-2.000000
 20
-8.400002
 11
11.000000
 21
-8.400002
  0
LINE
  8
0
  6
PHANTOM
 62
     3
 10
11.000000
 20
63.000000
 11
11.000000
 21
-8.400002
  0
LINE
  8
0
 10
-146.000000
 20
53.000000
 11
-146.000000
 21
43.649994
  0
LINE
  8
0
 10
-107.000000
 20
-27.000000
 11
-144.000000
 21
-27.000000
  0
LINE
  8
0
 10
-108.000000
 20
55.000000
 11
-144.000000
 21
55.000000
  0
LINE
  8
0
 10
-106.000000
 20
5.000015
 11
-106.000000
 21
-26.000000
  0
LINE
  8
0
 10
-146.000000
 20
38.350006
 11
-146.000000
 21
22.999985
  0
LINE
  8
0
 10
-107.999924
 20
55.000069
 11
-105.999924
 21
53.000057
  0
LINE
  8
0
 10
-144.000031
 20
-26.999998
 11
-146.000031
 21
-24.999994
  0
LINE
  8
0
 10
-144.000015
 20
55.000046
 11
-146.000031
 21
53.000034
  0
LINE
  8
0
 10
-106.000000
 20
53.000031
 11
-106.000000
 21
43.149994
  0
LINE
  8
0
 10
-108.000008
 20
6.129914
 11
-106.000038
 21
4.999954
  0
LINE
  8
0
 10
-108.000023
 20
21.870085
 11
-106.000038
 21
23.000053
  0
LINE
  8
0
 10
-144.000000
 20
21.869995
 11
-146.000000
 21
22.999971
  0
LINE
  8
0
 10
-144.000015
 20
6.130109
 11
-146.000015
 21
5.000130
  0
LINE
  8
0
 10
-144.000000
 20
43.649994
 11
-146.000000
 21
43.649994
  0
LINE
  8
0
 10
-144.000000
 20
38.350006
 11
-146.000000
 21
38.350006
  0
LINE
  8
0
 10
-106.000000
 20
38.850006
 11
-108.000000
 21
38.850006
  0
LINE
  8
0
 10
-106.000000
 20
43.149994
 11
-108.000000
 21
43.149994
  0
LINE
  8
0
 10
-106.000000
 20
38.850006
 11
-106.000000
 21
22.999977
  0
LINE
  8
0
 10
-144.000000
 20
-15.650002
 11
-146.000000
 21
-15.650002
  0
LINE
  8
0
 10
-144.000000
 20
-10.349998
 11
-146.000000
 21
-10.349998
  0
LINE
  8
0
 10
-146.000000
 20
-10.349998
 11
-146.000000
 21
5.000015
  0
LINE
  8
0
 10
-146.000000
 20
-25.000000
 11
-146.000000
 21
-15.650002
  0
LINE
  8
0
 10
-105.999985
 20
-26.000004
 11
-106.999985
 21
-27.000008
  0
LINE
  8
0
 10
-143.000000
 20
54.000000
 11
-109.000000
 21
54.000000
  0
LINE
  8
0
 10
-143.000000
 20
-26.000000
 11
-109.000000
 21
-26.000000
  0
LINE
  8
0
 10
-142.999939
 20
53.999969
 11
-143.999939
 21
52.999969
  0
LINE
  8
0
 10
-108.999931
 20
54.000092
 11
-107.999931
 21
53.000095
  0
LINE
  8
0
 10
-143.999969
 20
-24.999979
 11
-142.999969
 21
-25.999981
  0
LINE
  8
0
 10
-108.000008
 20
-24.999983
 11
-109.000000
 21
-25.999979
  0
LINE
  8
0
  6
CENTER
 62
     2
 10
-138.000000
 20
-23.553108
 11
-138.000000
 21
-14.512543
  0
LINE
  8
0
  6
CENTER
 62
     2
 10
-142.666290
 20
-19.000000
 11
-133.432892
 21
-19.000000
  0
LINE
  8
0
  6
CENTER
 62
     2
 10
-143.428070
 20
47.000000
 11
-132.033188
 21
47.000000
  0
LINE
  8
0
  6
CENTER
 62
     2
 10
-114.000000
 20
-23.603226
 11
-114.000000
 21
-14.512543
  0
LINE
  8
0
 10
-125.999962
 20
45.309322
 11
-127.999962
 21
44.154621
  0
LINE
  8
0
 10
-128.000000
 20
44.154701
 11
-128.000000
 21
41.845299
  0
LINE
  8
0
 10
-125.999992
 20
40.690613
 11
-127.999992
 21
41.845318
  0
LINE
  8
0
 10
-123.999931
 20
41.845215
 11
-125.999931
 21
40.690517
  0
LINE
  8
0
 10
-124.000000
 20
44.154701
 11
-124.000000
 21
41.845299
  0
LINE
  8
0
 10
-126.000008
 20
45.309425
 11
-124.000000
 21
44.154724
  0
LINE
  8
0
 10
-125.999985
 20
16.309427
 11
-124.000008
 21
15.154737
  0
LINE
  8
0
 10
-125.999977
 20
16.309361
 11
-127.999977
 21
15.154659
  0
LINE
  8
0
 10
-128.000000
 20
15.154701
 11
-128.000000
 21
12.845299
  0
LINE
  8
0
 10
-125.999977
 20
11.690625
 11
-128.000000
 21
12.845338
  0
LINE
  8
0
 10
-123.999969
 20
12.845248
 11
-125.999969
 21
11.690546
  0
LINE
  8
0
 10
-124.000000
 20
15.154701
 11
-124.000000
 21
12.845299
  0
LINE
  8
0
 10
-125.999954
 20
-12.690577
 11
-123.999962
 21
-13.845276
  0
LINE
  8
0
 10
-125.999969
 20
-12.690637
 11
-127.999969
 21
-13.845339
  0
LINE
  8
0
 10
-128.000000
 20
-13.845299
 11
-128.000000
 21
-16.154701
  0
LINE
  8
0
 10
-125.999969
 20
-17.309378
 11
-127.999969
 21
-16.154676
  0
LINE
  8
0
 10
-123.999969
 20
-16.154739
 11
-125.999977
 21
-17.309444
  0
LINE
  8
0
 10
-124.000000
 20
-13.845299
 11
-124.000000
 21
-16.154701
  0
LINE
  8
0
 10
-108.000000
 20
53.000004
 11
-108.000000
 21
-25.000000
  0
LINE
  8
0
 10
-144.000000
 20
53.000000
 11
-144.000000
 21
-25.000000
  0
LINE
  8
0
  6
CENTER
 62
     2
 10
-126.000000
 20
58.071976
 11
-126.000000
 21
-29.893639
  0
LINE
  8
0
  6
CENTER
 62
     2
 10
-147.247726
 20
14.000000
 11
-104.471771
 21
14.000000
  0
LINE
  8
0
  6
CENTER
 62
     2
 10
-138.000000
 20
51.874393
 11
-138.000000
 21
42.104095
  0
LINE
  8
0
  6
CENTER
 62
     2
 10
-114.000000
 20
51.805099
 11
-114.000000
 21
42.311974
  0
LINE
  8
0
  6
CENTER
 62
     2
 10
-118.769547
 20
47.000000
 11
-109.137833
 21
47.000000
  0
LINE
  8
0
  6
CENTER
 62
     2
 10
-133.390335
 20
43.000000
 11
-118.423080
 21
43.000000
  0
LINE
  8
0
  6
CENTER
 62
     2
 10
-118.103592
 20
-19.000000
 11
-109.716721
 21
-19.000000
  0
LINE
  8
0
  6
CENTER
 62
     2
 10
-133.251846
 20
-15.000000
 11
-118.707764
 21
-15.000000
  0
LINE
  8
0
  6
CENTER
 62
     2
 10
122.000000
 20
57.663757
 11
122.000000
 21
-30.309998
  0
LINE
  8
0
 10
103.000008
 20
-27.000000
 11
140.000000
 21
-27.000000
  0
LINE
  8
0
 10
104.000000
 20
55.000000
 11
140.000000
 21
55.000000
  0
LINE
  8
0
  6
CENTER
 62
     2
 10
112.043839
 20
43.000000
 11
132.492874
 21
43.000000
  0
LINE
  8
0
  6
CENTER
 62
     2
 10
104.913284
 20
50.000000
 11
113.356491
 21
50.000000
  0
LINE
  8
0
  6
CENTER
 62
     2
 10
100.461189
 20
14.000000
 11
143.137253
 21
14.000000
  0
LINE
  8
0
  6
CENTER
 62
     2
 10
111.791183
 20
-15.000000
 11
132.060471
 21
-15.000000
  0
LINE
  8
0
 10
103.999924
 20
55.000057
 11
101.999924
 21
53.000053
  0
LINE
  8
0
 10
139.999985
 20
-27.000013
 11
141.999985
 21
-25.000010
  0
LINE
  8
0
 10
140.000031
 20
55.000015
 11
142.000031
 21
53.000011
  0
LINE
  8
0
 10
105.298798
 20
20.100006
 11
106.898773
 21
20.100006
  0
LINE
  8
0
 10
104.298782
 20
19.600006
 11
104.798798
 21
19.600006
  0
LINE
  8
0
 10
104.798836
 20
19.600004
 11
105.298820
 21
20.099989
  0
LINE
  8
0
 10
104.298782
 20
16.399994
 11
104.798798
 21
16.399994
  0
LINE
  8
0
 10
104.798782
 20
16.399967
 11
105.298782
 21
15.899968
  0
LINE
  8
0
 10
105.298798
 20
15.899994
 11
106.898773
 21
15.899994
  0
LINE
  8
0
 10
104.298782
 20
8.399994
 11
104.798798
 21
8.399994
  0
LINE
  8
0
 10
104.798744
 20
8.399959
 11
105.298744
 21
7.899957
  0
LINE
  8
0
 10
105.298798
 20
7.899994
 11
106.898773
 21
7.899994
  0
LINE
  8
0
 10
105.298798
 20
12.100006
 11
106.898773
 21
12.100006
  0
LINE
  8
0
 10
104.798782
 20
11.600048
 11
105.298782
 21
12.100048
  0
LINE
  8
0
 10
104.298782
 20
11.600006
 11
104.798798
 21
11.600006
  0
LINE
  8
0
 10
139.201218
 20
19.599991
 11
138.701218
 21
20.099993
  0
LINE
  8
0
 10
138.701202
 20
20.100006
 11
137.101227
 21
20.100006
  0
LINE
  8
0
 10
138.701202
 20
15.899994
 11
137.101227
 21
15.899994
  0
LINE
  8
0
 10
139.201126
 20
16.399982
 11
138.701126
 21
15.899994
  0
LINE
  8
0
 10
139.201218
 20
8.400022
 11
138.701202
 21
7.899995
  0
LINE
  8
0
 10
138.701202
 20
7.899994
 11
137.101227
 21
7.899994
  0
LINE
  8
0
 10
138.701202
 20
12.100006
 11
137.101227
 21
12.100006
  0
LINE
  8
0
 10
139.201447
 20
11.600150
 11
138.701447
 21
12.100147
  0
LINE
  8
0
  6
CENTER
 62
     2
 10
109.000000
 20
-17.953461
 11
109.000000
 21
-26.060440
  0
LINE
  8
0
 10
102.000000
 20
53.000031
 11
102.000000
 21
43.149994
  0
LINE
  8
0
 10
104.298798
 20
6.298780
 11
102.000038
 21
5.000006
  0
LINE
  8
0
 10
104.298813
 20
21.701277
 11
102.000061
 21
23.000046
  0
LINE
  8
0
 10
104.298782
 20
21.701233
 11
104.298782
 21
19.600006
  0
LINE
  8
0
 10
104.298782
 20
16.399994
 11
104.298782
 21
11.600006
  0
LINE
  8
0
 10
104.298782
 20
8.399994
 11
104.298782
 21
6.298782
  0
LINE
  8
0
 10
139.701263
 20
21.701241
 11
142.000015
 21
23.000002
  0
LINE
  8
0
 10
139.701233
 20
21.701233
 11
139.701233
 21
19.600006
  0
LINE
  8
0
 10
139.701218
 20
19.600006
 11
139.201202
 21
19.600006
  0
LINE
  8
0
 10
139.701218
 20
16.399994
 11
139.201202
 21
16.399994
  0
LINE
  8
0
 10
139.701233
 20
16.399994
 11
139.701233
 21
11.600006
  0
LINE
  8
0
 10
139.701218
 20
11.600006
 11
139.201202
 21
11.600006
  0
LINE
  8
0
 10
139.701218
 20
8.399994
 11
139.201202
 21
8.399994
  0
LINE
  8
0
 10
139.701233
 20
8.399994
 11
139.701233
 21
6.298782
  0
LINE
  8
0
 10
139.701294
 20
6.298808
 11
142.000046
 21
5.000044
  0
LINE
  8
0
  6
CENTER
 62
     2
 10
104.626694
 20
-22.000000
 11
113.069893
 21
-22.000000
  0
LINE
  8
0
  6
CENTER
 62
     2
 10
131.010468
 20
50.000000
 11
139.069885
 21
50.000000
  0
LINE
  8
0
  6
CENTER
 62
     2
 10
109.000000
 20
45.953461
 11
109.000000
 21
54.418503
  0
LINE
  8
0
  6
CENTER
 62
     2
 10
135.000000
 20
45.953461
 11
135.000000
 21
54.060440
  0
LINE
  8
0
 10
142.000000
 20
53.000000
 11
142.000000
 21
43.649994
  0
LINE
  8
0
 10
139.000000
 20
45.149994
 11
139.000000
 21
43.649994
  0
LINE
  8
0
 10
134.500000
 20
45.149994
 11
139.000000
 21
45.149994
  0
LINE
  8
0
 10
139.000000
 20
43.649994
 11
142.000000
 21
43.649994
  0
LINE
  8
0
 10
134.500000
 20
45.149994
 11
134.500000
 21
36.850006
  0
LINE
  8
0
 10
134.500000
 20
36.850006
 11
139.000000
 21
36.850006
  0
LINE
  8
0
 10
139.000000
 20
38.350006
 11
139.000000
 21
36.850006
  0
LINE
  8
0
 10
139.000000
 20
38.350006
 11
142.000000
 21
38.350006
  0
LINE
  8
0
 10
142.000000
 20
38.350006
 11
142.000000
 21
22.999985
  0
LINE
  8
0
 10
142.000000
 20
-10.350006
 11
142.000000
 21
5.000015
  0
LINE
  8
0
 10
139.000000
 20
-10.350006
 11
142.000000
 21
-10.350006
  0
LINE
  8
0
 10
139.000000
 20
-10.350006
 11
139.000000
 21
-8.850006
  0
LINE
  8
0
 10
134.500000
 20
-8.850006
 11
139.000000
 21
-8.850006
  0
LINE
  8
0
 10
134.500000
 20
-17.149994
 11
139.000000
 21
-17.149994
  0
LINE
  8
0
 10
139.000000
 20
-17.149994
 11
139.000000
 21
-15.649994
  0
LINE
  8
0
 10
139.000000
 20
-15.649994
 11
142.000000
 21
-15.649994
  0
LINE
  8
0
 10
142.000000
 20
-25.000000
 11
142.000000
 21
-15.649994
  0
LINE
  8
0
 10
102.000000
 20
43.149994
 11
105.000000
 21
43.149994
  0
LINE
  8
0
 10
102.000000
 20
38.850006
 11
105.000000
 21
38.850006
  0
LINE
  8
0
 10
105.000000
 20
38.850006
 11
105.000000
 21
37.350006
  0
LINE
  8
0
 10
109.000000
 20
44.649994
 11
109.000000
 21
37.350006
  0
LINE
  8
0
 10
105.000000
 20
44.649994
 11
109.000000
 21
44.649994
  0
LINE
  8
0
 10
105.000000
 20
37.350006
 11
109.000000
 21
37.350006
  0
LINE
  8
0
 10
102.000000
 20
38.850006
 11
102.000000
 21
22.999969
  0
LINE
  8
0
 10
105.000000
 20
43.149994
 11
105.000000
 21
44.649994
  0
LINE
  8
0
 10
102.000000
 20
-26.000000
 11
102.000000
 21
5.000031
  0
LINE
  8
0
 10
102.000015
 20
-26.000010
 11
103.000023
 21
-27.000004
  0
LINE
  8
0
  6
DASHED
 62
     2
 10
103.797867
 20
-23.548300
 11
103.636139
 21
-26.999977
  0
LINE
  8
0
  6
DASHED
 62
     2
 10
104.216995
 20
-23.548298
 11
104.216995
 21
-27.000000
  0
LINE
  8
0
  6
DASHED
 62
     2
 10
112.783005
 20
-23.548298
 11
112.783005
 21
-27.000000
  0
LINE
  8
0
  6
DASHED
 62
     2
 10
113.202545
 20
-23.548296
 11
113.364265
 21
-26.999962
  0
LINE
  8
0
 10
134.500000
 20
-8.850006
 11
134.500000
 21
-17.149994
  0
LINE
  8
0
  6
CENTER
 62
     2
 10
132.674683
 20
-13.000000
 11
136.160873
 21
-13.000000
  0
LINE
  8
0
  6
CENTER
 62
     2
 10
133.043228
 20
41.000000
 11
136.554001
 21
41.000000
  0
LINE
  8
0
 10
129.984360
 20
42.500000
 11
134.500000
 21
42.500000
  0
LINE
  8
0
 10
129.193756
 20
39.500000
 11
134.500000
 21
39.500000
  0
LINE
  8
0
 10
129.193756
 20
-11.500000
 11
134.500000
 21
-11.500000
  0
LINE
  8
0
 10
129.984360
 20
-14.500000
 11
134.500000
 21
-14.500000
  0
LINE
  8
0
  6
CENTER
 62
     2
 10
110.000000
 20
-11.143341
 11
110.000000
 21
-14.956879
  0
LINE
  8
0
  6
CENTER
 62
     2
 10
108.500000
 20
-22.459583
 11
108.500000
 21
-27.884735
  0
LINE
  8
0
  6
CENTER
 62
     2
 10
108.108849
 20
-13.000000
 11
111.960510
 21
-13.000000
  0
LINE
  8
0
  6
CENTER
 62
     2
 10
135.000000
 20
-17.953461
 11
135.000000
 21
-26.060440
  0
LINE
  8
0
  6
CENTER
 62
     2
 10
130.626694
 20
-22.000000
 11
139.069885
 21
-22.000000
  0
LINE
  8
0
  6
CENTER
 62
     2
 10
105.000000
 20
41.000000
 11
110.350121
 21
41.000000
  0
LINE
  8
0
 10
140.000000
 20
43.649994
 11
140.000000
 21
38.350006
  0
LINE
  8
0
 10
104.000000
 20
43.149994
 11
104.000000
 21
38.850006
  0
LINE
  8
0
 10
104.000000
 20
21.870079
 11
104.000000
 21
6.129980
  0
LINE
  8
0
 10
140.000000
 20
21.870022
 11
140.000000
 21
6.130068
  0
LINE
  8
0
 10
140.000000
 20
-10.350006
 11
140.000000
 21
-15.649994
  0
LINE
  8
0
 10
-194.250000
 20
132.600006
 11
194.800003
 21
132.600006
  0
LINE
  8
0
 10
194.800003
 20
132.600006
 11
194.800003
 21
-133.500000
  0
LINE
  8
0
 10
-194.250000
 20
132.600006
 11
-194.250000
 21
-133.500000
  0
LINE
  8
0
 10
-194.250000
 20
-133.500000
 11
194.800003
 21
-133.500000
  0
LINE
  8
0
 10
109.800003
 20
-118.500000
 11
109.800003
 21
-133.500000
  0
LINE
  8
0
 10
109.800003
 20
-118.500000
 11
194.800003
 21
-118.500000
  0
LINE
  8
0
 10
109.800003
 20
132.600006
 11
109.800003
 21
117.600006
  0
LINE
  8
0
 10
109.800003
 20
117.600006
 11
194.800003
 21
117.600006
  0
LINE
  8
0
 10
-194.250000
 20
117.600006
 11
-84.250000
 21
117.600006
  0
LINE
  8
0
 10
-84.250000
 20
132.600006
 11
-84.250000
 21
117.600006
  0
LINE
  8
0
 10
-184.250000
 20
-123.500000
 11
-39.250000
 21
-123.500000
  0
LINE
  8
0
 10
-184.250000
 20
-115.500000
 11
-39.250000
 21
-115.500000
  0
LINE
  8
0
 10
-184.250000
 20
-107.500000
 11
-39.250000
 21
-107.500000
  0
LINE
  8
0
 10
-159.250000
 20
-123.500000
 11
-159.250000
 21
-92.500000
  0
LINE
  8
0
 10
-135.250000
 20
-123.500000
 11
-135.250000
 21
-92.500000
  0
LINE
  8
0
 10
-147.250000
 20
-123.500000
 11
-147.250000
 21
-92.500000
  0
LINE
  8
0
 10
-123.250000
 20
-123.500000
 11
-123.250000
 21
-92.500000
  0
LINE
  8
0
 10
-111.250000
 20
-123.500000
 11
-111.250000
 21
-92.500000
  0
LINE
  8
0
 10
-99.250000
 20
-123.500000
 11
-99.250000
 21
-92.500000
  0
LINE
  8
0
 10
-159.250046
 20
-107.500015
 11
-161.929535
 21
-97.500023
  0
LINE
  8
0
 10
-184.250000
 20
-97.500000
 11
-161.929489
 21
-97.500000
  0
LINE
  8
0
 10
-184.250000
 20
-92.500000
 11
-39.250000
 21
-92.500000
  0
LINE
  8
0
 10
-87.250000
 20
-123.500000
 11
-87.250000
 21
-92.500000
  0
LINE
  8
0
 10
-75.250000
 20
-123.500000
 11
-75.250000
 21
-92.500000
  0
LINE
  8
0
 10
-63.250000
 20
-123.500000
 11
-63.250000
 21
-92.500000
  0
LINE
  8
0
 10
-51.250000
 20
-123.500000
 11
-51.250000
 21
-92.500000
  0
LINE
  8
0
 10
-39.250000
 20
-123.500000
 11
-39.250000
 21
-92.500000
  0
LINE
  8
0
 10
-184.250000
 20
-123.500000
 11
-184.250000
 21
-92.500000
  0
CIRCLE
  8
0
 10
14.000000
 20
-13.000000
 40
4.283005
  0
CIRCLE
  8
0
 10
-11.000000
 20
-13.000000
 40
4.283005
  0
CIRCLE
  8
0
 62
     2
 10
-11.000000
 20
-12.999985
 40
4.863995
  0
CIRCLE
  8
0
 62
     2
 10
14.000000
 20
-12.999985
 40
4.863995
  0
ARC
  8
0
 10
-28.500000
 20
14.000008
 40
5.000000
 50
323.130096
 51
36.869896
  0
CIRCLE
  8
0
  6
DASHED
 62
     2
 10
4.000000
 20
29.000000
 40
3.000000
  0
CIRCLE
  8
0
 10
4.000000
 20
29.000000
 40
2.600000
  0
CIRCLE
  8
0
  6
DASHED
 62
     2
 10
-16.000000
 20
29.000000
 40
3.000000
  0
CIRCLE
  8
0
 10
-16.000000
 20
29.000000
 40
2.600000
  0
CIRCLE
  8
0
 10
-16.000000
 20
29.000000
 40
4.750000
  0
CIRCLE
  8
0
 10
4.000000
 20
29.000000
 40
4.750000
  0
CIRCLE
  8
0
  6
DASHED
 62
     2
 10
4.000000
 20
-1.000000
 40
3.000000
  0
CIRCLE
  8
0
 10
4.000000
 20
-1.000000
 40
2.600000
  0
CIRCLE
  8
0
  6
DASHED
 62
     2
 10
-16.000000
 20
-1.000000
 40
3.000000
  0
CIRCLE
  8
0
 10
-16.000000
 20
-1.000000
 40
2.600000
  0
CIRCLE
  8
0
 10
-16.000000
 20
-1.000000
 40
4.750000
  0
CIRCLE
  8
0
 10
4.000000
 20
-1.000000
 40
4.750000
  0
CIRCLE
  8
0
 10
-126.000000
 20
-15.000000
 40
5.250000
  0
CIRCLE
  8
0
 10
-126.000000
 20
14.000000
 40
5.250000
  0
CIRCLE
  8
0
 10
-126.000000
 20
-15.000000
 40
3.400000
  0
CIRCLE
  8
0
 10
-126.000000
 20
14.000000
 40
3.400000
  0
CIRCLE
  8
0
 10
-126.000000
 20
43.000000
 40
5.750000
  0
CIRCLE
  8
0
 10
-126.000000
 20
14.000000
 40
5.750000
  0
CIRCLE
  8
0
 62
     2
 10
-138.000000
 20
-19.000000
 40
3.000000
  0
CIRCLE
  8
0
 10
-138.000000
 20
-19.000000
 40
2.500000
  0
CIRCLE
  8
0
 10
-126.000000
 20
-15.000000
 40
5.750000
  0
CIRCLE
  8
0
 10
-138.000000
 20
47.000000
 40
2.500000
  0
CIRCLE
  8
0
 62
     2
 10
-138.000000
 20
47.000000
 40
3.000000
  0
CIRCLE
  8
0
 10
-114.000000
 20
-19.000000
 40
2.500000
  0
CIRCLE
  8
0
 62
     2
 10
-114.000000
 20
-19.000000
 40
3.000000
  0
CIRCLE
  8
0
 10
-114.000000
 20
47.000000
 40
2.500000
  0
CIRCLE
  8
0
 62
     2
 10
-114.000000
 20
47.000000
 40
3.000000
  0
CIRCLE
  8
0
 10
-126.000000
 20
43.000000
 40
5.250000
  0
CIRCLE
  8
0
 10
-126.000000
 20
43.000000
 40
3.400000
  0
CIRCLE
  8
0
 10
122.000000
 20
-15.000000
 40
6.000000
  0
CIRCLE
  8
0
 10
122.000000
 20
43.000000
 40
6.000000
  0
CIRCLE
  8
0
 10
122.000000
 20
43.000000
 40
8.000000
  0
CIRCLE
  8
0
 10
122.000000
 20
-15.000000
 40
8.000000
  0
ARC
  8
0
 10
106.898773
 20
18.000000
 40
2.100000
 50
270.000000
 51
90.000000
  0
ARC
  8
0
 10
106.898773
 20
10.000000
 40
2.100000
 50
270.000000
 51
90.000000
  0
ARC
  8
0
 10
137.101227
 20
18.000000
 40
2.100000
 50
90.000000
 51
270.000000
  0
ARC
  8
0
 10
137.101227
 20
10.000000
 40
2.100000
 50
90.000000
 51
270.000000
  0
CIRCLE
  8
0
 62
     2
 10
109.000000
 20
50.000000
 40
3.000000
  0
CIRCLE
  8
0
 10
109.000000
 20
50.000000
 40
2.500000
  0
CIRCLE
  8
0
 62
     2
 10
109.000000
 20
-22.000000
 40
3.000000
  0
CIRCLE
  8
0
 10
109.000000
 20
-22.000000
 40
2.500000
  0
CIRCLE
  8
0
 62
     2
 10
135.000000
 20
50.000000
 40
3.000000
  0
CIRCLE
  8
0
 10
135.000000
 20
50.000000
 40
2.500000
  0
CIRCLE
  8
0
 10
122.000000
 20
14.000000
 40
11.000000
  0
CIRCLE
  8
0
 10
110.000000
 20
-13.000000
 40
1.000000
  0
CIRCLE
  8
0
 62
     2
 10
135.000000
 20
-22.000000
 40
3.000000
  0
CIRCLE
  8
0
 10
135.000000
 20
-22.000000
 40
2.500000
  0
TEXT
  8
0
 10
133.907150
 20
122.050003
 40
4.500000
  1
Ver. 1.0
 50
0.000000
 41
1.052631
 51
0.000000
  7
STANDARD
  0
TEXT
  8
0
 10
113.700279
 20
-130.669998
 40
6.300000
  1
KOGANEI CORP.
 50
0.000000
 41
1.052632
 51
0.000000
  7
STANDARD
  0
TEXT
  8
0
 10
-191.392654
 20
122.050003
 40
4.500000
  1
JIG CYLINDER WITH GUIDE
 50
0.000000
 41
1.052632
 51
0.000000
  7
STANDARD
  0
TEXT
  8
0
 10
-186.892654
 20
104.550003
 40
4.500000
  1
MODEL:SGDAQ20*ST(10)
 50
0.000000
 41
1.052632
 51
0.000000
  7
STANDARD
  0
TEXT
  8
0
 10
-159.892654
 20
97.550003
 40
4.500000
  1
SGDAFQ20*ST(10)
 50
0.000000
 41
1.052632
 51
0.000000
  7
STANDARD
  0
TEXT
  8
0
 62
     3
 10
1.692858
 20
65.120003
 40
3.200000
  1
STRETCH LINE A
 50
0.000000
 41
1.052631
 51
0.000000
  7
STANDARD
  0
TEXT
  8
0
 62
     3
 10
-12.307000
 20
72.120003
 40
3.200000
  1
STRETCH LINE B
 50
0.000000
 41
1.052632
 51
0.000000
  7
STANDARD
  0
TEXT
  8
0
 10
-181.557144
 20
-96.879997
 40
3.200000
  1
STROKE
 50
0.000000
 41
1.052631
 51
0.000000
  7
STANDARD
  0
TEXT
  8
0
 10
-173.557144
 20
-113.379997
 40
3.200000
  1
A
 50
0.000000
 41
1.052631
 51
0.000000
  7
STANDARD
  0
TEXT
  8
0
 10
-184.496872
 20
-101.019997
 40
3.200000
  1
STRETCH
 50
0.000000
 41
1.052631
 51
0.000000
  7
STANDARD
  0
TEXT
  8
0
 10
-184.496872
 20
-105.820000
 40
3.200000
  1
  PLACE
 50
0.000000
 41
1.052631
 51
0.000000
  7
STANDARD
  0
TEXT
  8
0
 10
-156.657150
 20
-101.879997
 40
3.200000
  1
10
 50
0.000000
 41
1.052631
 51
0.000000
  7
STANDARD
  0
TEXT
  8
0
 10
-144.657150
 20
-101.879997
 40
3.200000
  1
20
 50
0.000000
 41
1.052631
 51
0.000000
  7
STANDARD
  0
TEXT
  8
0
 10
-132.657150
 20
-101.879997
 40
3.200000
  1
30
 50
0.000000
 41
1.052631
 51
0.000000
  7
STANDARD
  0
TEXT
  8
0
 10
-120.657158
 20
-101.879997
 40
3.200000
  1
50
 50
0.000000
 41
1.052631
 51
0.000000
  7
STANDARD
  0
TEXT
  8
0
 10
-108.657158
 20
-101.879997
 40
3.200000
  1
75
 50
0.000000
 41
1.052631
 51
0.000000
  7
STANDARD
  0
TEXT
  8
0
 10
-51.857143
 20
-91.379997
 40
3.200000
  1
(mm)
 50
0.000000
 41
1.052631
 51
0.000000
  7
STANDARD
  0
TEXT
  8
0
 10
-131.157135
 20
-91.379997
 40
3.200000
  1
STRETCH LIST
 50
0.000000
 41
1.052631
 51
0.000000
  7
STANDARD
  0
TEXT
  8
0
 10
-173.557007
 20
-121.379997
 40
3.200000
  1
B
 50
0.000000
 41
1.052632
 51
0.000000
  7
STANDARD
  0
TEXT
  8
0
 10
-98.257156
 20
-101.879997
 40
3.200000
  1
100
 50
0.000000
 41
1.052631
 51
0.000000
  7
STANDARD
  0
TEXT
  8
0
 10
-86.257156
 20
-101.879997
 40
3.200000
  1
125
 50
0.000000
 41
1.052631
 51
0.000000
  7
STANDARD
  0
TEXT
  8
0
 10
-74.257156
 20
-101.879997
 40
3.200000
  1
150
 50
0.000000
 41
1.052631
 51
0.000000
  7
STANDARD
  0
TEXT
  8
0
 10
-62.257156
 20
-101.879997
 40
3.200000
  1
175
 50
0.000000
 41
1.052631
 51
0.000000
  7
STANDARD
  0
TEXT
  8
0
 10
-50.257156
 20
-101.879997
 40
3.200000
  1
200
 50
0.000000
 41
1.052631
 51
0.000000
  7
STANDARD
  0
TEXT
  8
0
 10
-155.057007
 20
-113.379997
 40
3.200000
  1
0
 50
0.000000
 41
1.052632
 51
0.000000
  7
STANDARD
  0
TEXT
  8
0
 10
-143.057007
 20
-113.379997
 40
3.200000
  1
0
 50
0.000000
 41
1.052632
 51
0.000000
  7
STANDARD
  0
TEXT
  8
0
 10
-131.057007
 20
-113.379997
 40
3.200000
  1
0
 50
0.000000
 41
1.052632
 51
0.000000
  7
STANDARD
  0
TEXT
  8
0
 10
-119.056999
 20
-113.379997
 40
3.200000
  1
0
 50
0.000000
 41
1.052632
 51
0.000000
  7
STANDARD
  0
TEXT
  8
0
 10
-108.656998
 20
-113.379997
 40
3.200000
  1
25
 50
0.000000
 41
1.052632
 51
0.000000
  7
STANDARD
  0
TEXT
  8
0
 10
-96.656998
 20
-113.379997
 40
3.200000
  1
50
 50
0.000000
 41
1.052632
 51
0.000000
  7
STANDARD
  0
TEXT
  8
0
 10
-84.656998
 20
-113.379997
 40
3.200000
  1
25
 50
0.000000
 41
1.052632
 51
0.000000
  7
STANDARD
  0
TEXT
  8
0
 10
-72.656998
 20
-113.379997
 40
3.200000
  1
50
 50
0.000000
 41
1.052632
 51
0.000000
  7
STANDARD
  0
TEXT
  8
0
 10
-60.657001
 20
-113.379997
 40
3.200000
  1
75
 50
0.000000
 41
1.052632
 51
0.000000
  7
STANDARD
  0
TEXT
  8
0
 10
-50.257000
 20
-113.379997
 40
3.200000
  1
100
 50
0.000000
 41
1.052632
 51
0.000000
  7
STANDARD
  0
TEXT
  8
0
 10
-155.057007
 20
-121.379997
 40
3.200000
  1
0
 50
0.000000
 41
1.052632
 51
0.000000
  7
STANDARD
  0
TEXT
  8
0
 10
-144.656998
 20
-121.379997
 40
3.200000
  1
10
 50
0.000000
 41
1.052632
 51
0.000000
  7
STANDARD
  0
TEXT
  8
0
 10
-132.656998
 20
-121.379997
 40
3.200000
  1
20
 50
0.000000
 41
1.052632
 51
0.000000
  7
STANDARD
  0
TEXT
  8
0
 10
-120.656998
 20
-121.379997
 40
3.200000
  1
40
 50
0.000000
 41
1.052632
 51
0.000000
  7
STANDARD
  0
TEXT
  8
0
 10
-108.656998
 20
-121.379997
 40
3.200000
  1
40
 50
0.000000
 41
1.052632
 51
0.000000
  7
STANDARD
  0
TEXT
  8
0
 10
-96.656998
 20
-121.379997
 40
3.200000
  1
40
 50
0.000000
 41
1.052632
 51
0.000000
  7
STANDARD
  0
TEXT
  8
0
 10
-84.656998
 20
-121.379997
 40
3.200000
  1
90
 50
0.000000
 41
1.052632
 51
0.000000
  7
STANDARD
  0
TEXT
  8
0
 10
-72.656998
 20
-121.379997
 40
3.200000
  1
90
 50
0.000000
 41
1.052632
 51
0.000000
  7
STANDARD
  0
TEXT
  8
0
 10
-60.657001
 20
-121.379997
 40
3.200000
  1
90
 50
0.000000
 41
1.052632
 51
0.000000
  7
STANDARD
  0
TEXT
  8
0
 10
-48.657001
 20
-121.379997
 40
3.200000
  1
90
 50
0.000000
 41
1.052632
 51
0.000000
  7
STANDARD
  0
TEXT
  8
0
 62
     2
 10
50.935879
 20
-41.000000
 40
3.200000
  1
STROKE=75-200
 50
0.000000
 41
1.052632
 51
0.000000
  7
STANDARD
  0
LINE
  8
0
 62
     2
 10
47.000000
 20
-42.000000
 11
92.285881
 21
-42.000000
  0
LINE
  8
0
 62
     2
 10
24.000000
 20
-42.000000
 11
47.000000
 21
-42.000000
  0
LINE
  8
0
 62
     2
 10
24.000000
 20
-42.000000
 11
26.897778
 21
-41.223541
  0
LINE
  8
0
 62
     2
 10
24.000000
 20
-42.000000
 11
26.897778
 21
-42.776459
  0
LINE
  8
0
 62
     2
 10
47.000000
 20
-42.000000
 11
44.102222
 21
-42.776459
  0
LINE
  8
0
 62
     2
 10
47.000000
 20
-42.000000
 11
44.102222
 21
-41.223541
  0
LINE
  8
0
 62
     2
 10
24.000000
 20
-26.500000
 11
24.000000
 21
-43.500000
  0
LINE
  8
0
 62
     2
 10
47.000000
 20
-21.500008
 11
47.000000
 21
-43.500000
  0
ENDSEC
  0
EOF
