  0
SECTION
  2
HEADER
  0
ENDSEC
  0
SECTION
  2
TABLES
  0
TABLE
  2
LTYPE
 70
     4
  0
LTYPE
  2
CONTINUOUS
 70
    64
  3
Solid line
 72
    65
 73
     0
 40
0.000000
  0
LTYPE
  2
DASHED
 70
    64
  3
__ __ __ __ __ __ __ __ __ __ __ __ __ __ __
 72
    65
 73
     2
 40
3.500000
 49
2.000000
 49
-1.500000
  0
LTYPE
  2
CENTER
 70
    64
  3
____ _ ____ _ ____ _ ____ _ ____ _ ____ _ ____
 72
    65
 73
     4
 40
17.500000
 49
13.000000
 49
-1.500000
 49
1.500000
 49
-1.500000
  0
LTYPE
  2
PHANTOM
 70
    64
  3
_____ _ _ _____ _ _ _____ _ _ _____ _ _ ____  
 72
    65
 73
     6
 40
15.500000
 49
8.000000
 49
-1.500000
 49
1.500000
 49
-1.500000
 49
1.500000
 49
-1.500000
  0
LTYPE
  2
DASHED1
 70
    64
  3
__ __ __ __ __ __ __ __ __ __ __ __ __ __ __
 72
    65
 73
     2
 40
1.500000
 49
1.000000
 49
-0.500000
  0
LTYPE
  2
DASHED2
 70
    64
  3
__ __ __ __ __ __ __ __ __ __ __ __ __ __ __
 72
    65
 73
     2
 40
3.500000
 49
2.500000
 49
-1.000000
  0
LTYPE
  2
DASHED3
 70
    64
  3
__ __ __ __ __ __ __ __ __ __ __ __ __ __ __
 72
    65
 73
     2
 40
6.000000
 49
4.000000
 49
-2.000000
  0
LTYPE
  2
DASHED4
 70
    64
  3
__ __ __ __ __ __ __ __ __ __ __ __ __ __ __
 72
    65
 73
     2
 40
12.000000
 49
10.000000
 49
-2.000000
  0
LTYPE
  2
DASHED5
 70
    64
  3
__ __ __ __ __ __ __ __ __ __ __ __ __ __ __
 72
    65
 73
     2
 40
17.000000
 49
15.000000
 49
-2.000000
  0
LTYPE
  2
DASHED6
 70
    64
  3
__ __ __ __ __ __ __ __ __ __ __ __ __ __ __
 72
    65
 73
     2
 40
29.000000
 49
27.000000
 49
-2.000000
  0
LTYPE
  2
PHANTOM1
 70
    64
  3
_____ _ _ _____ _ _ _____ _ _ _____ _ _ ____  
 72
    65
 73
     6
 40
31.000000
 49
25.000000
 49
-1.500000
 49
1.000000
 49
-1.000000
 49
1.000000
 49
-1.500000
  0
LTYPE
  2
PHANTOM2
 70
    64
  3
_____ _ _ _____ _ _ _____ _ _ _____ _ _ ____  
 72
    65
 73
     6
 40
36.000000
 49
27.000000
 49
-1.500000
 49
2.500000
 49
-1.000000
 49
2.500000
 49
-1.500000
  0
LTYPE
  2
PHANTOM3
 70
    64
  3
_____ _ _ _____ _ _ _____ _ _ _____ _ _ ____  
 72
    65
 73
     6
 40
78.000000
 49
64.000000
 49
-2.000000
 49
4.000000
 49
-2.000000
 49
4.000000
 49
-2.000000
  0
LTYPE
  2
CENTER1
 70
    64
  3
____ _ ____ _ ____ _ ____ _ ____ _ ____ _ ____
 72
    65
 73
     4
 40
19.000000
 49
14.000000
 49
-1.000000
 49
3.000000
 49
-1.000000
  0
LTYPE
  2
CENTER2
 70
    64
  3
____ _ ____ _ ____ _ ____ _ ____ _ ____ _ ____
 72
    65
 73
     4
 40
28.500000
 49
25.000000
 49
-1.000000
 49
1.500000
 49
-1.000000
  0
LTYPE
  2
CENTER3
 70
    64
  3
____ _ ____ _ ____ _ ____ _ ____ _ ____ _ ____
 72
    65
 73
     4
 40
31.500000
 49
27.000000
 49
-1.000000
 49
2.500000
 49
-1.000000
  0
LTYPE
  2
CENTER4
 70
    64
  3
____ _ ____ _ ____ _ ____ _ ____ _ ____ _ ____
 72
    65
 73
     4
 40
50.000000
 49
45.000000
 49
-1.000000
 49
3.000000
 49
-1.000000
  0
LTYPE
  2
CENTER5
 70
    64
  3
____ _ ____ _ ____ _ ____ _ ____ _ ____ _ ____
 72
    65
 73
     4
 40
100.000000
 49
92.000000
 49
-2.000000
 49
4.000000
 49
-2.000000
  0
LTYPE
  2
SBK1
 70
    64
  3
______ _ _ _ ______ _ _ _ ______ _ _ _ _____  
 72
    65
 73
     8
 40
60.500000
 49
45.000000
 49
-2.000000
 49
2.500000
 49
-2.000000
 49
2.500000
 49
-2.000000
 49
2.500000
 49
-2.000000
  0
LTYPE
  2
SBK2
 70
    64
  3
______ _ _ _ ______ _ _ _ ______ _ _ _ _____  
 72
    65
 73
     8
 40
84.000000
 49
64.000000
 49
-2.000000
 49
4.000000
 49
-2.000000
 49
4.000000
 49
-2.000000
 49
4.000000
 49
-2.000000
  0
LTYPE
  2
STCH
 70
    64
  3
__ __ __ __ __ __ __ __ __ __ __ __ __ __ __
 72
    65
 73
     2
 40
3.000000
 49
1.000000
 49
-2.000000
  0
LTYPE
  2
MTCH
 70
    64
  3
_____ _ _ _____ _ _ _____ _ _ _____ _ _ ____  
 72
    65
 73
     6
 40
80.000000
 49
66.000000
 49
-2.000000
 49
4.000000
 49
-2.000000
 49
4.000000
 49
-2.000000
  0
ENDTAB
  0
TABLE
  2
LAYER
 70
     1
  0
LAYER
  2
0
 70
     0
 62
     7
  6
CONTINUOUS
  0
ENDTAB
  0
TABLE
  2
STYLE
 70
     1
  0
STYLE
  2
STANDARD
 70
     0
 40
0.000000
 41
1.000000
 50
0.000000
 71
     0
 42
0.200000
  3
txt
  4
BIGFONT
  0
ENDTAB
  0
TABLE
  2
VIEW
 70
     0
  0
ENDTAB
  0
ENDSEC
  0
SECTION
  2
BLOCKS
  0
ENDSEC
  0
SECTION
  2
ENTITIES
  0
LINE
  8
0
 10
29.999977
 20
89.500015
 11
29.999977
 21
-59.499992
  0
LINE
  8
0
  6
DASHED
 62
     2
 10
68.999985
 20
-30.499977
 11
68.999985
 21
-49.500000
  0
LINE
  8
0
  6
DASHED
 62
     2
 10
29.999977
 20
-30.000000
 11
68.499977
 21
-30.000000
  0
LINE
  8
0
  6
DASHED
 62
     2
 10
29.999977
 20
-50.000000
 11
68.499977
 21
-50.000000
  0
LINE
  8
0
  6
DASHED
 62
     2
 10
68.500000
 20
-29.999989
 11
69.000000
 21
-30.499975
  0
LINE
  8
0
  6
DASHED
 62
     2
 10
68.999947
 20
-49.499981
 11
68.499954
 21
-49.999981
  0
LINE
  8
0
  6
DASHED
 62
     2
 10
68.499977
 20
-30.000000
 11
68.499977
 21
-50.000000
  0
LINE
  8
0
  6
DASHED
 62
     2
 10
68.999985
 20
79.500008
 11
68.999985
 21
60.499992
  0
LINE
  8
0
  6
DASHED
 62
     2
 10
29.999977
 20
79.999992
 11
68.499977
 21
79.999992
  0
LINE
  8
0
  6
DASHED
 62
     2
 10
29.999977
 20
59.999992
 11
68.499977
 21
59.999992
  0
LINE
  8
0
  6
DASHED
 62
     2
 10
68.500015
 20
80.000023
 11
69.000008
 21
79.500038
  0
LINE
  8
0
  6
DASHED
 62
     2
 10
68.999962
 20
60.499977
 11
68.499969
 21
59.999992
  0
LINE
  8
0
  6
DASHED
 62
     2
 10
68.499977
 20
79.999992
 11
68.499977
 21
59.999992
  0
LINE
  8
0
 10
41.999992
 20
56.999992
 11
41.999992
 21
-27.000011
  0
LINE
  8
0
 10
41.999947
 20
5.000000
 11
51.999954
 21
5.000000
  0
LINE
  8
0
 10
30.000000
 20
-26.000000
 11
41.999992
 21
-26.000000
  0
LINE
  8
0
 10
30.000000
 20
56.000000
 11
41.999992
 21
56.000000
  0
LINE
  8
0
 10
51.999992
 20
-2.999998
 11
55.000000
 21
-2.999998
  0
LINE
  8
0
 10
55.000000
 20
0.000000
 11
65.000000
 21
0.000000
  0
LINE
  8
0
 10
65.000000
 20
6.339746
 11
78.660248
 21
6.339746
  0
LINE
  8
0
 10
65.000000
 20
-2.320505
 11
78.660248
 21
-2.320505
  0
LINE
  8
0
 10
78.660286
 20
-2.320503
 11
80.000031
 21
0.000003
  0
LINE
  8
0
 10
65.000000
 20
32.320503
 11
65.000000
 21
-2.320509
  0
LINE
  8
0
 10
80.000000
 20
30.000011
 11
80.000000
 21
-0.000002
  0
LINE
  8
0
 10
81.494446
 20
7.205769
 11
89.505585
 21
7.205769
  0
LINE
  8
0
 10
81.494446
 20
-0.588455
 11
89.505585
 21
-0.588455
  0
LINE
  8
0
 10
80.000015
 20
2.000031
 11
81.494461
 21
-0.588425
  0
LINE
  8
0
 10
89.505562
 20
-0.588459
 11
91.000008
 21
1.999997
  0
LINE
  8
0
 10
91.000031
 20
28.000000
 11
91.000031
 21
1.999998
  0
LINE
  8
0
 10
51.999992
 20
33.000000
 11
51.999992
 21
-3.000002
  0
LINE
  8
0
 10
55.000000
 20
33.000000
 11
55.000000
 21
-3.000002
  0
LINE
  8
0
 10
93.000000
 20
23.000000
 11
93.000000
 21
6.999998
  0
LINE
  8
0
 62
     2
 10
91.000031
 20
6.750002
 11
92.749985
 21
6.750002
  0
LINE
  8
0
 10
91.000031
 20
6.000002
 11
92.000000
 21
6.000002
  0
LINE
  8
0
 10
92.999992
 20
7.000023
 11
91.999969
 21
6.000008
  0
LINE
  8
0
 10
92.000000
 20
23.999985
 11
92.000000
 21
6.000000
  0
LINE
  8
0
 10
41.999992
 20
-9.000008
 11
42.799988
 21
-9.000008
  0
LINE
  8
0
 10
41.999992
 20
-27.000008
 11
42.799988
 21
-27.000008
  0
LINE
  8
0
 10
42.799988
 20
-9.000010
 11
42.799988
 21
-27.000011
  0
LINE
  8
0
 10
48.000015
 20
-11.600010
 11
48.000015
 21
-24.400009
  0
LINE
  8
0
 10
41.999992
 20
56.999992
 11
42.799988
 21
56.999992
  0
LINE
  8
0
 10
41.999992
 20
38.999996
 11
42.799988
 21
38.999996
  0
LINE
  8
0
 10
42.799988
 20
56.999992
 11
42.799988
 21
38.999996
  0
LINE
  8
0
 10
48.000015
 20
54.399994
 11
48.000015
 21
41.599991
  0
LINE
  8
0
 10
41.999947
 20
25.000000
 11
51.999954
 21
25.000000
  0
LINE
  8
0
 10
51.999992
 20
33.000000
 11
55.000000
 21
33.000000
  0
LINE
  8
0
 10
55.000000
 20
30.000000
 11
65.000000
 21
30.000000
  0
LINE
  8
0
 10
65.000000
 20
23.660259
 11
78.660248
 21
23.660259
  0
LINE
  8
0
 10
65.000000
 20
32.320511
 11
78.660248
 21
32.320511
  0
LINE
  8
0
 10
78.660309
 20
32.320484
 11
80.000061
 21
29.999969
  0
LINE
  8
0
 10
81.494446
 20
22.794235
 11
89.505585
 21
22.794235
  0
LINE
  8
0
 10
81.494446
 20
30.588455
 11
89.505585
 21
30.588455
  0
LINE
  8
0
 10
80.000023
 20
27.999990
 11
81.494469
 21
30.588448
  0
LINE
  8
0
 10
89.505569
 20
30.588453
 11
91.000015
 21
27.999998
  0
LINE
  8
0
 62
     2
 10
91.000031
 20
23.250004
 11
92.749985
 21
23.250004
  0
LINE
  8
0
 10
91.000031
 20
24.000000
 11
92.000000
 21
24.000000
  0
LINE
  8
0
 10
92.999931
 20
22.999975
 11
91.999924
 21
23.999971
  0
LINE
  8
0
 10
29.999977
 20
0.100000
 11
41.999992
 21
0.100000
  0
LINE
  8
0
 10
29.999977
 20
29.900002
 11
41.999992
 21
29.900002
  0
LINE
  8
0
 10
-31.999996
 20
5.000000
 11
-27.000004
 21
5.000000
  0
LINE
  8
0
  6
CENTER
 62
     2
 10
-53.513737
 20
69.999977
 11
-23.295452
 21
69.999977
  0
LINE
  8
0
 10
-31.999996
 20
88.000031
 11
-31.999996
 21
-58.000031
  0
LINE
  8
0
 10
-49.000034
 20
89.000008
 11
-33.000019
 21
89.000008
  0
LINE
  8
0
 10
-49.000034
 20
-59.000000
 11
-33.000019
 21
-59.000000
  0
LINE
  8
0
 10
-50.000000
 20
87.999992
 11
-50.000000
 21
-58.000031
  0
LINE
  8
0
 10
-31.999996
 20
25.000000
 11
-27.000004
 21
25.000000
  0
LINE
  8
0
 10
-31.999996
 20
10.641109
 11
-30.000050
 21
10.641109
  0
LINE
  8
0
 10
-30.000004
 20
10.641087
 11
-30.000004
 21
19.358913
  0
LINE
  8
0
 10
-31.999996
 20
16.452925
 11
-30.000008
 21
10.641092
  0
LINE
  8
0
 10
-30.000004
 20
19.359081
 11
-32.000061
 21
13.547043
  0
LINE
  8
0
  6
CENTER
 62
     2
 10
-52.952763
 20
-40.000000
 11
-24.623867
 21
-40.000000
  0
LINE
  8
0
 10
-49.000092
 20
89.000145
 11
-50.000107
 21
88.000130
  0
LINE
  8
0
 10
-32.999973
 20
89.000053
 11
-32.000004
 21
88.000069
  0
LINE
  8
0
 10
-49.999943
 20
-57.999935
 11
-48.999935
 21
-58.999947
  0
LINE
  8
0
 10
-32.000038
 20
-57.999962
 11
-33.000042
 21
-58.999969
  0
LINE
  8
0
 10
-26.499996
 20
89.999985
 11
29.499992
 21
89.999985
  0
LINE
  8
0
 10
-27.000004
 20
25.399998
 11
30.000000
 21
25.399998
  0
LINE
  8
0
 10
-27.000004
 20
28.599987
 11
30.000000
 21
28.599987
  0
LINE
  8
0
 10
-27.000004
 20
87.000015
 11
30.000000
 21
87.000015
  0
LINE
  8
0
  6
CENTER
 62
     2
 10
-7.952759
 20
47.999992
 11
9.697201
 21
47.999992
  0
LINE
  8
0
  6
CENTER
 62
     2
 10
1.000008
 20
56.613136
 11
1.000008
 21
39.280853
  0
LINE
  8
0
 10
-27.000004
 20
36.999992
 11
30.000000
 21
36.999992
  0
LINE
  8
0
 10
-27.000004
 20
35.999977
 11
30.000000
 21
35.999977
  0
LINE
  8
0
 10
-27.000004
 20
67.649994
 11
30.000000
 21
67.649994
  0
LINE
  8
0
 10
-27.000004
 20
62.349968
 11
30.000000
 21
62.349968
  0
LINE
  8
0
 10
29.499935
 20
89.999908
 11
29.999933
 21
89.499924
  0
LINE
  8
0
 10
-26.500074
 20
90.000076
 11
-27.000076
 21
89.500092
  0
LINE
  8
0
 10
-31.999996
 20
19.358913
 11
-30.000004
 21
19.358913
  0
LINE
  8
0
  6
CENTER
 62
     2
 10
-53.462940
 20
15.000000
 11
96.853973
 21
15.000000
  0
LINE
  8
0
  6
CENTER
 62
     2
 10
-18.999994
 20
56.613136
 11
-18.999994
 21
39.280853
  0
LINE
  8
0
  6
CENTER
 62
     2
 10
-27.952763
 20
47.999992
 11
-10.302803
 21
47.999992
  0
LINE
  8
0
 10
-27.000004
 20
89.500061
 11
-27.000004
 21
-59.499969
  0
LINE
  8
0
 10
-26.499985
 20
-60.000000
 11
29.500000
 21
-60.000000
  0
LINE
  8
0
 10
-26.999992
 20
-56.999992
 11
29.999992
 21
-56.999992
  0
LINE
  8
0
  6
CENTER
 62
     2
 10
-8.090996
 20
-18.000008
 11
9.617245
 21
-18.000008
  0
LINE
  8
0
  6
CENTER
 62
     2
 10
-27.952751
 20
-18.000008
 11
-10.302780
 21
-18.000008
  0
LINE
  8
0
  6
CENTER
 62
     2
 10
-18.999973
 20
-9.386814
 11
-18.999973
 21
-26.719143
  0
LINE
  8
0
  6
CENTER
 62
     2
 10
1.000008
 20
-9.386814
 11
1.000008
 21
-27.046181
  0
LINE
  8
0
  6
CENTER
 62
     2
 10
23.866211
 20
-37.499977
 11
6.901665
 21
-37.499977
  0
LINE
  8
0
 10
-26.999992
 20
-6.999990
 11
29.999992
 21
-6.999990
  0
LINE
  8
0
 10
-26.999992
 20
-5.999994
 11
29.999992
 21
-5.999994
  0
LINE
  8
0
 10
-26.999992
 20
1.399994
 11
29.999992
 21
1.399994
  0
LINE
  8
0
 10
-26.999992
 20
4.600002
 11
29.999992
 21
4.600002
  0
LINE
  8
0
  6
DASHED
 62
     2
 10
-11.299739
 20
-58.999794
 11
-10.299761
 21
-59.999771
  0
LINE
  8
0
  6
DASHED
 62
     2
 10
-23.699707
 20
-59.999996
 11
-22.699717
 21
-59.000004
  0
LINE
  8
0
  6
DASHED
 62
     2
 10
-11.299973
 20
-59.000000
 11
-22.700001
 21
-59.000000
  0
LINE
  8
0
  6
DASHED
 62
     2
 10
-22.699989
 20
-54.868759
 11
-22.699989
 21
-58.999962
  0
LINE
  8
0
  6
DASHED
 62
     2
 10
-23.415859
 20
-54.868755
 11
-23.546190
 21
-59.845890
  0
LINE
  8
0
  6
DASHED
 62
     2
 10
-11.299973
 20
-54.868759
 11
-11.299973
 21
-58.999962
  0
LINE
  8
0
  6
DASHED
 62
     2
 10
-10.584481
 20
-54.868755
 11
-10.450114
 21
-60.000023
  0
LINE
  8
0
  6
CENTER
 62
     2
 10
-1.000008
 20
-53.442886
 11
-1.000008
 21
-61.385651
  0
LINE
  8
0
  6
DASHED
 62
     2
 10
4.700219
 20
-58.999702
 11
5.700197
 21
-59.999683
  0
LINE
  8
0
  6
DASHED
 62
     2
 10
-7.699835
 20
-60.000111
 11
-6.699841
 21
-59.000118
  0
LINE
  8
0
  6
DASHED
 62
     2
 10
4.700012
 20
-59.000000
 11
-6.700012
 21
-59.000000
  0
LINE
  8
0
  6
DASHED
 62
     2
 10
-6.700012
 20
-54.868759
 11
-6.700012
 21
-58.999962
  0
LINE
  8
0
  6
DASHED
 62
     2
 10
-7.415773
 20
-54.868759
 11
-7.546106
 21
-59.845951
  0
LINE
  8
0
  6
DASHED
 62
     2
 10
4.700024
 20
-54.868759
 11
4.700024
 21
-58.999962
  0
LINE
  8
0
  6
DASHED
 62
     2
 10
5.415631
 20
-54.868759
 11
5.549997
 21
-60.000027
  0
LINE
  8
0
  6
CENTER
 62
     2
 10
15.000015
 20
-29.641827
 11
15.000015
 21
-47.010498
  0
LINE
  8
0
 10
30.000067
 20
-59.500042
 11
29.500076
 21
-60.000031
  0
LINE
  8
0
 10
-26.999886
 20
-59.499828
 11
-26.499880
 21
-59.999832
  0
LINE
  8
0
  6
CENTER
 62
     2
 10
-16.999981
 20
-53.442886
 11
-16.999981
 21
-61.535706
  0
LINE
  8
0
  6
CENTER
 62
     2
 10
-3.805511
 20
-37.499977
 11
-19.216179
 21
-37.499977
  0
LINE
  8
0
  6
CENTER
 62
     2
 10
-11.499969
 20
-29.422466
 11
-11.499969
 21
-46.864952
  0
LINE
  8
0
 10
-31.999996
 20
79.999977
 11
-27.000004
 21
79.999977
  0
LINE
  8
0
 10
-31.999996
 20
59.999977
 11
-27.000004
 21
59.999977
  0
LINE
  8
0
 10
-31.999996
 20
-30.000023
 11
-27.000004
 21
-30.000023
  0
LINE
  8
0
 10
-31.999996
 20
-50.000023
 11
-27.000004
 21
-50.000023
  0
LINE
  8
0
  6
PHANTOM
 62
     3
 10
-8.250004
 20
-51.393753
 11
-8.250004
 21
-70.000000
  0
LINE
  8
0
  6
PHANTOM
 62
     3
 10
5.437496
 20
-28.393749
 11
5.437496
 21
-51.393753
  0
LINE
  8
0
  6
PHANTOM
 62
     3
 10
-8.250004
 20
-51.393753
 11
5.437496
 21
-51.393753
  0
LINE
  8
0
  6
PHANTOM
 62
     3
 10
-9.375008
 20
119.999985
 11
-9.375008
 21
-28.393749
  0
LINE
  8
0
  6
PHANTOM
 62
     3
 10
18.343742
 20
107.999985
 11
18.343742
 21
-28.393749
  0
LINE
  8
0
  6
PHANTOM
 62
     3
 10
5.437496
 20
-28.393749
 11
18.343742
 21
-28.393749
  0
LINE
  8
0
  6
PHANTOM
 62
     3
 10
-9.375008
 20
-28.393749
 11
-2.750004
 21
-28.393749
  0
LINE
  8
0
  6
PHANTOM
 62
     3
 10
-2.750004
 20
-28.393749
 11
-2.750004
 21
-48.393749
  0
LINE
  8
0
  6
PHANTOM
 62
     3
 10
-9.750004
 20
-48.393749
 11
-9.750004
 21
-70.000000
  0
LINE
  8
0
  6
PHANTOM
 62
     3
 10
-9.750004
 20
-48.393749
 11
-2.750004
 21
-48.393749
  0
LINE
  8
0
  6
CENTER
 62
     2
 10
-226.542496
 20
15.000000
 11
-153.749695
 21
15.000000
  0
LINE
  8
0
  6
CENTER
 62
     2
 10
-190.000000
 20
-64.273247
 11
-190.000000
 21
94.999985
  0
LINE
  8
0
 10
-160.000000
 20
89.999985
 11
-220.000000
 21
89.999985
  0
LINE
  8
0
 10
-160.000000
 20
-60.000000
 11
-220.000000
 21
-60.000000
  0
LINE
  8
0
 10
-157.000000
 20
87.000015
 11
-157.000000
 21
67.650017
  0
LINE
  8
0
 10
-160.000122
 20
89.999954
 11
-157.000092
 21
86.999931
  0
LINE
  8
0
 10
-219.999771
 20
89.999901
 11
-222.999771
 21
86.999893
  0
LINE
  8
0
 10
-223.000320
 20
-57.000172
 11
-220.000320
 21
-60.000175
  0
LINE
  8
0
 10
-157.000000
 20
-6.999947
 11
-157.000000
 21
-56.999992
  0
LINE
  8
0
 10
-223.000015
 20
-6.999990
 11
-223.000015
 21
-30.850002
  0
LINE
  8
0
 10
-157.000153
 20
-56.999924
 11
-160.000122
 21
-59.999897
  0
LINE
  8
0
 10
-223.000015
 20
-39.149998
 11
-223.000015
 21
-57.000076
  0
LINE
  8
0
 10
-223.000015
 20
69.150002
 11
-223.000015
 21
87.000099
  0
LINE
  8
0
 10
-223.000015
 20
36.999992
 11
-223.000015
 21
60.850006
  0
LINE
  8
0
 10
-158.999939
 20
34.999962
 11
-156.999939
 21
36.999943
  0
LINE
  8
0
 10
-159.000107
 20
-4.999973
 11
-157.087402
 21
-6.912668
  0
LINE
  8
0
 10
-221.000000
 20
34.999905
 11
-222.912674
 21
36.912582
  0
LINE
  8
0
 10
-221.000031
 20
-4.999948
 11
-222.912766
 21
-6.912665
  0
LINE
  8
0
 10
-221.000000
 20
60.850006
 11
-223.000015
 21
60.850006
  0
LINE
  8
0
 10
-221.000000
 20
69.150002
 11
-223.000015
 21
69.150002
  0
LINE
  8
0
 10
-157.000000
 20
67.650017
 11
-159.000015
 21
67.650017
  0
LINE
  8
0
 10
-157.000000
 20
62.349983
 11
-159.000015
 21
62.349983
  0
LINE
  8
0
 10
-157.000000
 20
62.349983
 11
-157.000000
 21
36.999992
  0
LINE
  8
0
 10
-221.000000
 20
-30.850002
 11
-223.000015
 21
-30.850002
  0
LINE
  8
0
 10
-221.000000
 20
-39.149998
 11
-223.000015
 21
-39.149998
  0
LINE
  8
0
 10
-220.000000
 20
-59.000000
 11
-160.000000
 21
-59.000000
  0
LINE
  8
0
 10
-220.000000
 20
89.000008
 11
-160.000000
 21
89.000008
  0
LINE
  8
0
 10
-219.999985
 20
88.999985
 11
-220.999985
 21
87.999977
  0
LINE
  8
0
 10
-220.999969
 20
-57.999981
 11
-219.999969
 21
-58.999981
  0
LINE
  8
0
 10
-159.000046
 20
-57.999954
 11
-160.000046
 21
-58.999954
  0
LINE
  8
0
 10
-159.999908
 20
89.000061
 11
-158.999908
 21
88.000046
  0
LINE
  8
0
  6
CENTER
 62
     2
 10
-211.000000
 20
-53.232483
 11
-211.000000
 21
-36.634609
  0
LINE
  8
0
  6
CENTER
 62
     2
 10
-202.751083
 20
-45.000000
 11
-218.242172
 21
-45.000000
  0
LINE
  8
0
 10
-190.000000
 20
-36.535927
 11
-193.000000
 21
-38.267979
  0
LINE
  8
0
 10
-193.000015
 20
-38.267952
 11
-193.000015
 21
-41.732048
  0
LINE
  8
0
 10
-190.000015
 20
-43.464092
 11
-193.000015
 21
-41.732037
  0
LINE
  8
0
 10
-186.999969
 20
-41.732048
 11
-190.000000
 21
-43.464115
  0
LINE
  8
0
 10
-187.000000
 20
-38.267952
 11
-187.000000
 21
-41.732048
  0
LINE
  8
0
 10
-190.000000
 20
-36.535873
 11
-186.999969
 21
-38.267944
  0
LINE
  8
0
 10
-189.999969
 20
73.464081
 11
-193.000000
 21
71.732018
  0
LINE
  8
0
 10
-193.000015
 20
71.732048
 11
-193.000015
 21
68.267952
  0
LINE
  8
0
 10
-190.000031
 20
66.535904
 11
-193.000031
 21
68.267960
  0
LINE
  8
0
 10
-187.000000
 20
68.267952
 11
-189.999985
 21
66.535904
  0
LINE
  8
0
 10
-187.000000
 20
71.732048
 11
-187.000000
 21
68.267952
  0
LINE
  8
0
 10
-189.999985
 20
73.464111
 11
-186.999985
 21
71.732063
  0
LINE
  8
0
 10
-190.000000
 20
18.464102
 11
-193.000015
 21
16.732035
  0
LINE
  8
0
 10
-193.000015
 20
16.732048
 11
-193.000015
 21
13.267956
  0
LINE
  8
0
 10
-190.000000
 20
11.535905
 11
-193.000015
 21
13.267966
  0
LINE
  8
0
 10
-187.000000
 20
13.267948
 11
-190.000000
 21
11.535895
  0
LINE
  8
0
 10
-187.000000
 20
16.732048
 11
-187.000000
 21
13.267956
  0
LINE
  8
0
 10
-190.000000
 20
18.464138
 11
-187.000000
 21
16.732077
  0
LINE
  8
0
 10
-221.000000
 20
88.000000
 11
-221.000000
 21
-58.000000
  0
LINE
  8
0
 10
-159.000015
 20
87.999992
 11
-159.000015
 21
-58.000000
  0
LINE
  8
0
  6
CENTER
 62
     2
 10
-211.000000
 20
83.232491
 11
-211.000000
 21
66.634613
  0
LINE
  8
0
  6
CENTER
 62
     2
 10
-202.751083
 20
75.000000
 11
-218.242172
 21
75.000000
  0
LINE
  8
0
  6
CENTER
 62
     2
 10
-169.000015
 20
-53.232483
 11
-169.000015
 21
-36.634609
  0
LINE
  8
0
  6
CENTER
 62
     2
 10
-177.248932
 20
-45.000000
 11
-161.757843
 21
-45.000000
  0
LINE
  8
0
  6
CENTER
 62
     2
 10
-169.000015
 20
83.232491
 11
-169.000015
 21
66.634613
  0
LINE
  8
0
  6
CENTER
 62
     2
 10
-177.248932
 20
75.000000
 11
-161.757843
 21
75.000000
  0
LINE
  8
0
  6
CENTER
 62
     2
 10
-202.058701
 20
70.000000
 11
-178.002960
 21
70.000000
  0
LINE
  8
0
  6
CENTER
 62
     2
 10
-202.058701
 20
-40.000000
 11
-178.002960
 21
-40.000000
  0
LINE
  8
0
 10
160.000122
 20
49.732021
 11
160.000122
 21
46.267925
  0
LINE
  8
0
 10
160.000092
 20
49.731949
 11
163.000153
 21
51.464020
  0
LINE
  8
0
 10
163.000229
 20
51.464279
 11
166.000198
 21
49.732239
  0
LINE
  8
0
 10
166.000137
 20
49.732021
 11
166.000137
 21
46.267925
  0
LINE
  8
0
 10
163.000107
 20
44.535770
 11
166.000137
 21
46.267834
  0
LINE
  8
0
 10
160.000259
 20
46.268120
 11
163.000259
 21
44.536076
  0
LINE
  8
0
 10
204.000107
 20
-19.731934
 11
207.000137
 21
-21.464006
  0
LINE
  8
0
 10
204.000107
 20
-16.267979
 11
204.000107
 21
-19.732075
  0
LINE
  8
0
 10
204.000198
 20
-16.268131
 11
207.000153
 21
-14.536106
  0
LINE
  8
0
 10
207.000198
 20
-14.535834
 11
210.000168
 21
-16.267879
  0
LINE
  8
0
 10
210.000153
 20
-16.267979
 11
210.000153
 21
-19.732075
  0
LINE
  8
0
 10
207.000275
 20
-21.464235
 11
210.000244
 21
-19.732191
  0
LINE
  8
0
 10
159.100067
 20
27.399975
 11
159.100067
 21
2.599969
  0
LINE
  8
0
 10
210.900131
 20
27.399975
 11
210.900131
 21
2.599969
  0
LINE
  8
0
 10
154.000061
 20
55.999973
 11
159.455734
 21
55.999973
  0
LINE
  8
0
 10
154.000015
 20
-26.000027
 11
203.455688
 21
-26.000027
  0
LINE
  8
0
 10
170.000076
 20
23.660233
 11
170.000076
 21
6.339717
  0
LINE
  8
0
 10
200.000076
 20
23.660233
 11
200.000076
 21
6.339717
  0
LINE
  8
0
 10
170.000092
 20
23.660183
 11
185.000092
 21
32.320435
  0
LINE
  8
0
 10
185.000122
 20
-2.320589
 11
200.000107
 21
6.339660
  0
LINE
  8
0
 10
185.000137
 20
32.320580
 11
200.000107
 21
23.660341
  0
LINE
  8
0
 10
170.000107
 20
6.339762
 11
185.000076
 21
-2.320474
  0
LINE
  8
0
 10
171.500107
 20
22.794197
 11
171.500107
 21
7.205741
  0
LINE
  8
0
 10
198.500092
 20
22.794209
 11
198.500092
 21
7.205741
  0
LINE
  8
0
 10
171.500046
 20
22.794142
 11
185.000061
 21
30.588373
  0
LINE
  8
0
 10
185.000122
 20
-0.588535
 11
198.500153
 21
7.205706
  0
LINE
  8
0
 10
185.000153
 20
30.588549
 11
198.500153
 21
22.794323
  0
LINE
  8
0
 10
171.500092
 20
7.205787
 11
185.000076
 21
-0.588432
  0
LINE
  8
0
 10
154.000061
 20
0.099973
 11
156.600067
 21
0.099973
  0
LINE
  8
0
 10
154.000061
 20
29.899975
 11
156.600067
 21
29.899975
  0
LINE
  8
0
 10
213.400131
 20
29.899975
 11
216.000061
 21
29.899975
  0
LINE
  8
0
 10
213.400131
 20
0.099973
 11
216.000061
 21
0.099973
  0
LINE
  8
0
 10
155.000031
 20
-60.000027
 11
215.000031
 21
-60.000027
  0
LINE
  8
0
  6
CENTER
 62
     2
 10
167.093170
 20
69.999992
 11
201.575882
 21
69.999992
  0
LINE
  8
0
  6
CENTER
 62
     2
 10
167.636734
 20
-40.000027
 11
201.575882
 21
-40.000027
  0
LINE
  8
0
 10
155.000168
 20
89.999962
 11
152.000153
 21
86.999939
  0
LINE
  8
0
 10
214.999786
 20
89.999710
 11
217.999802
 21
86.999710
  0
LINE
  8
0
 10
218.000168
 20
-57.000164
 11
215.000168
 21
-60.000164
  0
LINE
  8
0
 10
152.000031
 20
-6.999974
 11
152.000031
 21
-57.000019
  0
LINE
  8
0
 10
218.000031
 20
-7.000018
 11
218.000031
 21
-30.850029
  0
LINE
  8
0
 10
218.000031
 20
-39.150024
 11
218.000031
 21
-57.000103
  0
LINE
  8
0
 10
154.000046
 20
25.799973
 11
154.500031
 21
25.799973
  0
LINE
  8
0
 10
154.500076
 20
25.800053
 11
155.000061
 21
25.300060
  0
LINE
  8
0
 10
155.000031
 20
25.299961
 11
156.600037
 21
25.299961
  0
LINE
  8
0
 10
155.000031
 20
29.499966
 11
156.600037
 21
29.499966
  0
LINE
  8
0
 10
154.500015
 20
28.999989
 11
155.000000
 21
29.499981
  0
LINE
  8
0
 10
154.000046
 20
28.999958
 11
154.500031
 21
28.999958
  0
LINE
  8
0
 10
153.999954
 20
34.999794
 11
151.999954
 21
36.999779
  0
LINE
  8
0
 10
154.000015
 20
55.999973
 11
154.000015
 21
-26.000027
  0
LINE
  8
0
 10
154.000046
 20
4.199977
 11
154.500031
 21
4.199977
  0
LINE
  8
0
 10
154.500015
 20
4.199914
 11
155.000000
 21
4.699907
  0
LINE
  8
0
 10
155.000031
 20
4.699985
 11
156.600037
 21
4.699985
  0
LINE
  8
0
 10
155.000031
 20
0.499982
 11
156.600052
 21
0.499982
  0
LINE
  8
0
 10
154.500046
 20
1.000005
 11
155.000046
 21
0.500014
  0
LINE
  8
0
 10
154.000046
 20
0.999990
 11
154.500031
 21
0.999990
  0
LINE
  8
0
 10
216.000061
 20
25.799973
 11
215.500046
 21
25.799973
  0
LINE
  8
0
 10
215.500183
 20
25.799927
 11
215.000168
 21
25.299906
  0
LINE
  8
0
 10
215.000031
 20
25.299961
 11
213.400040
 21
25.299961
  0
LINE
  8
0
 10
215.000031
 20
29.499966
 11
213.400040
 21
29.499966
  0
LINE
  8
0
 10
215.500336
 20
29.000238
 11
215.000320
 21
29.500256
  0
LINE
  8
0
 10
216.000061
 20
28.999958
 11
215.500046
 21
28.999958
  0
LINE
  8
0
 10
216.000061
 20
4.199977
 11
215.500046
 21
4.199977
  0
LINE
  8
0
 10
215.500351
 20
4.200155
 11
215.000351
 21
4.700140
  0
LINE
  8
0
 10
215.000031
 20
4.699985
 11
213.400040
 21
4.699985
  0
LINE
  8
0
 10
215.000031
 20
0.499982
 11
213.400040
 21
0.499982
  0
LINE
  8
0
 10
215.500137
 20
0.999765
 11
215.000153
 21
0.499772
  0
LINE
  8
0
 10
216.000061
 20
0.999990
 11
215.500046
 21
0.999990
  0
LINE
  8
0
 10
154.000046
 20
-5.000039
 11
152.087357
 21
-6.912714
  0
LINE
  8
0
 10
215.999908
 20
35.000019
 11
217.912613
 21
36.912704
  0
LINE
  8
0
 10
216.000015
 20
55.999973
 11
216.000015
 21
-26.000027
  0
LINE
  8
0
 10
216.000015
 20
-30.850029
 11
216.000015
 21
-39.150024
  0
LINE
  8
0
 10
215.999924
 20
-5.000028
 11
217.912643
 21
-6.912737
  0
LINE
  8
0
 10
206.500046
 20
-28.350029
 11
213.500061
 21
-28.350029
  0
LINE
  8
0
 10
213.500015
 20
-28.350029
 11
213.500015
 21
-30.850029
  0
LINE
  8
0
 10
213.500061
 20
-30.850029
 11
218.000046
 21
-30.850029
  0
LINE
  8
0
 10
213.500061
 20
-39.150024
 11
218.000046
 21
-39.150024
  0
LINE
  8
0
 10
213.500015
 20
-39.150024
 11
213.500015
 21
-41.650024
  0
LINE
  8
0
 10
206.500015
 20
-28.350029
 11
206.500015
 21
-41.650024
  0
LINE
  8
0
 10
206.500046
 20
-41.650024
 11
213.500061
 21
-41.650024
  0
LINE
  8
0
  6
CENTER
 62
     2
 10
155.897980
 20
-50.000027
 11
170.052658
 21
-50.000027
  0
LINE
  8
0
  6
CENTER
 62
     2
 10
206.999985
 20
-43.000057
 11
206.999985
 21
-57.000042
  0
LINE
  8
0
 10
155.000031
 20
89.999954
 11
215.000031
 21
89.999954
  0
LINE
  8
0
 10
152.000107
 20
-57.000031
 11
155.000107
 21
-60.000034
  0
LINE
  8
0
 62
     2
 10
163.000046
 20
-46.730854
 11
163.000046
 21
-61.042812
  0
LINE
  8
0
 10
186.500015
 20
89.999954
 11
186.500015
 21
83.919365
  0
LINE
  8
0
 10
183.500015
 20
89.999954
 11
183.500015
 21
83.919365
  0
LINE
  8
0
 10
154.000046
 20
67.649963
 11
154.000046
 21
62.349941
  0
LINE
  8
0
 10
216.000031
 20
69.149948
 11
216.000031
 21
60.849957
  0
LINE
  8
0
 10
152.000031
 20
86.999985
 11
152.000031
 21
67.649963
  0
LINE
  8
0
 10
152.000031
 20
67.649963
 11
155.000031
 21
67.649963
  0
LINE
  8
0
 10
155.000015
 20
69.149994
 11
155.000015
 21
67.649963
  0
LINE
  8
0
 10
159.500031
 20
69.149994
 11
159.500031
 21
60.849995
  0
LINE
  8
0
 10
155.000015
 20
62.349941
 11
155.000015
 21
60.849995
  0
LINE
  8
0
 10
152.000031
 20
62.349941
 11
155.000031
 21
62.349941
  0
LINE
  8
0
 10
152.000031
 20
62.349941
 11
152.000031
 21
36.999966
  0
LINE
  8
0
 10
218.000031
 20
69.149948
 11
218.000031
 21
87.000069
  0
LINE
  8
0
 10
213.500061
 20
69.149948
 11
218.000046
 21
69.149948
  0
LINE
  8
0
 10
213.500015
 20
69.149948
 11
213.500015
 21
71.649948
  0
LINE
  8
0
 10
206.500046
 20
71.649948
 11
213.500061
 21
71.649948
  0
LINE
  8
0
 10
206.500015
 20
58.349957
 11
206.500015
 21
71.649948
  0
LINE
  8
0
 10
206.500046
 20
58.350002
 11
213.500061
 21
58.350002
  0
LINE
  8
0
 10
213.500061
 20
60.850002
 11
218.000046
 21
60.850002
  0
LINE
  8
0
 10
213.500015
 20
58.349957
 11
213.500015
 21
60.849957
  0
LINE
  8
0
 10
218.000031
 20
36.999966
 11
218.000031
 21
60.849957
  0
LINE
  8
0
  6
CENTER
 62
     2
 10
155.857269
 20
79.999992
 11
170.296234
 21
79.999992
  0
LINE
  8
0
  6
CENTER
 62
     2
 10
206.999985
 20
87.550957
 11
206.999985
 21
72.630127
  0
LINE
  8
0
  6
CENTER
 62
     2
 10
199.536346
 20
79.999992
 11
214.457153
 21
79.999992
  0
LINE
  8
0
  6
CENTER
 62
     2
 10
163.000061
 20
87.161682
 11
163.000061
 21
72.889656
  0
LINE
  8
0
  6
CENTER
 62
     2
 10
199.680817
 20
-50.000027
 11
214.187180
 21
-50.000027
  0
LINE
  8
0
  6
DASHED
 62
     2
 10
156.584503
 20
-54.868782
 11
156.454163
 21
-59.845951
  0
LINE
  8
0
  6
DASHED
 62
     2
 10
156.299942
 20
-59.999889
 11
157.299942
 21
-58.999897
  0
LINE
  8
0
  6
DASHED
 62
     2
 10
157.300064
 20
-54.868786
 11
157.300064
 21
-59.000011
  0
LINE
  8
0
  6
DASHED
 62
     2
 10
168.700058
 20
-59.000011
 11
157.300064
 21
-59.000011
  0
LINE
  8
0
  6
DASHED
 62
     2
 10
168.699966
 20
-59.000107
 11
169.699951
 21
-60.000095
  0
LINE
  8
0
  6
DASHED
 62
     2
 10
169.415726
 20
-54.868786
 11
169.550079
 21
-60.000019
  0
LINE
  8
0
  6
DASHED
 62
     2
 10
168.700027
 20
-54.868786
 11
168.700027
 21
-59.000011
  0
LINE
  8
0
  6
CENTER
 62
     2
 10
163.000061
 20
-43.566181
 11
163.000061
 21
-57.000042
  0
LINE
  8
0
  6
CENTER
 62
     2
 10
163.000092
 20
59.374973
 11
163.000092
 21
36.624973
  0
LINE
  8
0
  6
CENTER
 62
     2
 10
151.625092
 20
47.999973
 11
174.375092
 21
47.999973
  0
LINE
  8
0
  6
CENTER
 62
     2
 10
168.997833
 20
-37.500027
 11
162.010529
 21
-37.500027
  0
LINE
  8
0
  6
CENTER
 62
     2
 10
165.500046
 20
-34.029415
 11
165.500046
 21
-41.016674
  0
LINE
  8
0
  6
CENTER
 62
     2
 10
203.438080
 20
-35.000027
 11
213.500061
 21
-35.000027
  0
LINE
  8
0
  6
CENTER
 62
     2
 10
203.829987
 20
64.999992
 11
213.500061
 21
64.999992
  0
LINE
  8
0
  6
CENTER
 62
     2
 10
155.000031
 20
64.999992
 11
162.172195
 21
64.999992
  0
LINE
  8
0
 10
183.500031
 20
-53.919445
 11
183.500031
 21
-60.000027
  0
LINE
  8
0
 10
186.500046
 20
-53.919445
 11
186.500046
 21
-60.000027
  0
LINE
  8
0
 10
166.544449
 20
55.999973
 11
216.000015
 21
55.999973
  0
LINE
  8
0
 10
210.544449
 20
-26.000027
 11
216.000061
 21
-26.000027
  0
LINE
  8
0
  6
CENTER
 62
     2
 10
185.000031
 20
95.122414
 11
185.000031
 21
-63.631817
  0
LINE
  8
0
  6
CENTER
 62
     2
 10
149.792862
 20
14.999972
 11
220.839340
 21
14.999972
  0
LINE
  8
0
  6
CENTER
 62
     2
 10
207.000076
 20
-6.625030
 11
207.000076
 21
-29.375027
  0
LINE
  8
0
  6
CENTER
 62
     2
 10
195.625076
 20
-18.000027
 11
218.375076
 21
-18.000027
  0
LINE
  8
0
 10
155.000031
 20
69.149994
 11
159.500031
 21
69.149994
  0
LINE
  8
0
 10
155.000031
 20
60.849995
 11
159.500031
 21
60.849995
  0
LINE
  8
0
 10
-281.250000
 20
195.500000
 11
282.099976
 21
195.500000
  0
LINE
  8
0
 10
-281.250000
 20
195.500000
 11
-281.250000
 21
-195.000000
  0
LINE
  8
0
 10
282.099976
 20
195.500000
 11
282.099976
 21
-195.000000
  0
LINE
  8
0
 10
-281.250000
 20
-195.000000
 11
282.099976
 21
-195.000000
  0
LINE
  8
0
 10
162.099976
 20
-175.000000
 11
162.099976
 21
-195.000000
  0
LINE
  8
0
 10
162.099976
 20
-175.000000
 11
282.099976
 21
-175.000000
  0
LINE
  8
0
 10
162.099976
 20
175.500000
 11
282.099976
 21
175.500000
  0
LINE
  8
0
 10
-281.250000
 20
175.500000
 11
-121.250000
 21
175.500000
  0
LINE
  8
0
 10
162.099976
 20
195.500000
 11
162.099976
 21
175.500000
  0
LINE
  8
0
 10
-121.250000
 20
195.500000
 11
-121.250000
 21
175.500000
  0
LINE
  8
0
 10
-271.250000
 20
-185.000000
 11
-31.250000
 21
-185.000000
  0
LINE
  8
0
 10
-271.250000
 20
-144.000000
 11
-271.250000
 21
-185.000000
  0
LINE
  8
0
 10
-231.250000
 20
-144.000000
 11
-231.250000
 21
-185.000000
  0
LINE
  8
0
 10
-271.250000
 20
-151.000000
 11
-235.001297
 21
-151.000000
  0
LINE
  8
0
 10
-271.250000
 20
-165.000000
 11
-31.250000
 21
-165.000000
  0
LINE
  8
0
 10
-271.250000
 20
-144.000000
 11
-31.250000
 21
-144.000000
  0
LINE
  8
0
 10
-231.250015
 20
-165.000015
 11
-235.001312
 21
-151.000000
  0
LINE
  8
0
 10
-211.250000
 20
-144.000000
 11
-211.250000
 21
-185.000000
  0
LINE
  8
0
 10
-191.250000
 20
-144.000000
 11
-191.250000
 21
-185.000000
  0
LINE
  8
0
 10
-171.250000
 20
-144.000000
 11
-171.250000
 21
-185.000000
  0
LINE
  8
0
 10
-151.250000
 20
-144.000000
 11
-151.250000
 21
-185.000000
  0
LINE
  8
0
 10
-131.250000
 20
-144.000000
 11
-131.250000
 21
-185.000000
  0
LINE
  8
0
 10
-111.250000
 20
-144.000000
 11
-111.250000
 21
-185.000000
  0
LINE
  8
0
 10
-271.250000
 20
-175.000000
 11
-31.250000
 21
-175.000000
  0
LINE
  8
0
 10
-91.250000
 20
-144.000000
 11
-91.250000
 21
-185.000000
  0
LINE
  8
0
 10
-71.250000
 20
-144.000000
 11
-71.250000
 21
-185.000000
  0
LINE
  8
0
 10
-51.250000
 20
-144.000000
 11
-51.250000
 21
-185.000000
  0
LINE
  8
0
 10
-31.250000
 20
-144.000000
 11
-31.250000
 21
-185.000000
  0
ARC
  8
0
 10
42.799988
 20
-20.500008
 40
6.500000
 50
270.000031
 51
323.130127
  0
ARC
  8
0
 10
42.799988
 20
-15.500006
 40
6.500000
 50
36.869884
 51
89.999969
  0
ARC
  8
0
 10
42.799988
 20
45.499992
 40
6.500000
 50
270.000031
 51
323.130127
  0
ARC
  8
0
 10
42.799988
 20
50.499992
 40
6.499999
 50
36.869877
 51
89.999969
  0
ARC
  8
0
 10
-38.999989
 20
15.000000
 40
9.999995
 50
334.158081
 51
25.842075
  0
CIRCLE
  8
0
 10
-18.999994
 20
47.999992
 40
7.000000
  0
CIRCLE
  8
0
  6
DASHED
 62
     2
 10
-18.999994
 20
47.999992
 40
5.000000
  0
CIRCLE
  8
0
 10
-18.999994
 20
47.999992
 40
4.300000
  0
CIRCLE
  8
0
 10
0.999996
 20
47.999992
 40
7.000000
  0
CIRCLE
  8
0
 10
0.999996
 20
47.999992
 40
4.300000
  0
CIRCLE
  8
0
  6
DASHED
 62
     2
 10
0.999996
 20
47.999992
 40
5.000000
  0
CIRCLE
  8
0
 10
1.000008
 20
-18.000008
 40
4.300000
  0
CIRCLE
  8
0
 10
-18.999973
 20
-18.000008
 40
7.000000
  0
CIRCLE
  8
0
 10
-18.999973
 20
-18.000008
 40
4.300000
  0
CIRCLE
  8
0
  6
DASHED
 62
     2
 10
-18.999973
 20
-18.000008
 40
5.000000
  0
CIRCLE
  8
0
 10
1.000008
 20
-18.000008
 40
7.000000
  0
CIRCLE
  8
0
  6
DASHED
 62
     2
 10
1.000008
 20
-18.000008
 40
5.000000
  0
CIRCLE
  8
0
 10
15.000015
 20
-37.499977
 40
5.750000
  0
CIRCLE
  8
0
 10
-11.499969
 20
-37.499977
 40
5.750000
  0
CIRCLE
  8
0
 62
     2
 10
15.000015
 20
-37.499977
 40
6.600000
  0
CIRCLE
  8
0
 62
     2
 10
-11.499969
 20
-37.499977
 40
6.600000
  0
ARC
  8
0
 10
51.339859
 20
15.000003
 40
28.660143
 50
342.411957
 51
17.588030
  0
ARC
  8
0
 10
69.928322
 20
15.000002
 40
21.071709
 50
338.291107
 51
21.708889
  0
ARC
  8
0
 10
101.072495
 20
14.999998
 40
21.072493
 50
158.291992
 51
201.707993
  0
ARC
  8
0
 10
85.171677
 20
26.691345
 40
5.828351
 50
318.037292
 51
0.000000
  0
ARC
  8
0
 10
72.332565
 20
27.990385
 40
7.667435
 50
325.615601
 51
0.000000
  0
ARC
  8
0
 10
85.828537
 20
26.691341
 40
5.828537
 50
179.999985
 51
221.961121
  0
ARC
  8
0
 10
72.332565
 20
2.009615
 40
7.667435
 50
359.999939
 51
34.384335
  0
ARC
  8
0
 10
85.828537
 20
3.308659
 40
5.828539
 50
138.038834
 51
179.999969
  0
ARC
  8
0
 10
85.171677
 20
3.308655
 40
5.828346
 50
359.999939
 51
41.962673
  0
CIRCLE
  8
0
 10
-190.000000
 20
15.000000
 40
8.750000
  0
CIRCLE
  8
0
 10
-190.000000
 20
70.000000
 40
8.750000
  0
CIRCLE
  8
0
 10
-190.000000
 20
15.000000
 40
5.600000
  0
CIRCLE
  8
0
 10
-190.000000
 20
70.000000
 40
5.600000
  0
CIRCLE
  8
0
 10
-190.000000
 20
15.000000
 40
10.000000
  0
CIRCLE
  8
0
 10
-190.000000
 20
-40.000000
 40
10.000000
  0
CIRCLE
  8
0
 10
-190.000000
 20
70.000000
 40
10.000000
  0
CIRCLE
  8
0
 62
     2
 10
-211.000000
 20
-45.000000
 40
5.000000
  0
CIRCLE
  8
0
 10
-211.000000
 20
-45.000000
 40
4.250000
  0
CIRCLE
  8
0
 10
-211.000000
 20
75.000000
 40
4.250000
  0
CIRCLE
  8
0
 62
     2
 10
-211.000000
 20
75.000000
 40
5.000000
  0
CIRCLE
  8
0
 10
-169.000015
 20
-45.000000
 40
4.250000
  0
CIRCLE
  8
0
 62
     2
 10
-169.000015
 20
-45.000000
 40
5.000000
  0
CIRCLE
  8
0
 10
-169.000015
 20
75.000000
 40
4.250000
  0
CIRCLE
  8
0
 62
     2
 10
-169.000015
 20
75.000000
 40
5.000000
  0
CIRCLE
  8
0
 10
-190.000000
 20
-40.000000
 40
8.750000
  0
CIRCLE
  8
0
 10
-190.000000
 20
-40.000000
 40
5.600000
  0
CIRCLE
  8
0
 10
185.000031
 20
-40.000027
 40
10.000000
  0
CIRCLE
  8
0
 10
185.000031
 20
69.999992
 40
10.000000
  0
ARC
  8
0
 10
185.000122
 20
14.999972
 40
26.000000
 50
180.000000
 51
185.025192
  0
CIRCLE
  8
0
 10
163.000092
 20
47.999973
 40
8.750000
  0
CIRCLE
  8
0
 10
207.000076
 20
-18.000027
 40
8.750000
  0
ARC
  8
0
 10
156.600067
 20
2.599973
 40
2.500000
 50
270.000000
 51
0.000000
  0
ARC
  8
0
 10
156.600067
 20
27.399975
 40
2.500000
 50
0.000000
 51
90.000000
  0
ARC
  8
0
 10
213.400131
 20
27.399975
 40
2.500000
 50
90.000000
 51
179.999954
  0
ARC
  8
0
 10
213.400131
 20
2.599973
 40
2.500000
 50
179.999985
 51
270.000000
  0
ARC
  8
0
 10
185.000076
 20
14.999972
 40
15.000000
 50
334.158081
 51
25.841932
  0
CIRCLE
  8
0
 10
185.000076
 20
14.999972
 40
13.500000
  0
ARC
  8
0
 10
185.000076
 20
14.999972
 40
15.000000
 50
94.158096
 51
145.841965
  0
ARC
  8
0
 10
185.000076
 20
14.999972
 40
14.999999
 50
154.158081
 51
205.841904
  0
ARC
  8
0
 10
185.000076
 20
14.999972
 40
15.000004
 50
214.158035
 51
265.841919
  0
ARC
  8
0
 10
185.000076
 20
14.999972
 40
15.000000
 50
274.158081
 51
325.841888
  0
ARC
  8
0
 10
185.000076
 20
14.999972
 40
14.999994
 50
34.158085
 51
85.841904
  0
CIRCLE
  8
0
 10
185.000076
 20
14.999972
 40
18.000000
  0
CIRCLE
  8
0
 10
163.000092
 20
47.999973
 40
6.400000
  0
CIRCLE
  8
0
 10
207.000076
 20
-18.000027
 40
6.400000
  0
ARC
  8
0
 10
185.000122
 20
14.999972
 40
25.999990
 50
174.974808
 51
179.999969
  0
ARC
  8
0
 10
185.000122
 20
14.999972
 40
25.999996
 50
354.973145
 51
5.026845
  0
CIRCLE
  8
0
 10
185.000076
 20
14.999972
 40
9.000000
  0
CIRCLE
  8
0
 62
     2
 10
185.000076
 20
14.999972
 40
8.250000
  0
CIRCLE
  8
0
 10
185.000031
 20
-40.000027
 40
14.000001
  0
CIRCLE
  8
0
 10
185.000031
 20
69.999992
 40
14.000001
  0
ARC
  8
0
 10
156.600037
 20
27.399963
 40
2.100000
 50
270.000000
 51
90.000000
  0
ARC
  8
0
 10
156.600037
 20
2.599984
 40
2.100000
 50
270.000000
 51
90.000000
  0
ARC
  8
0
 10
213.400040
 20
27.399963
 40
2.100000
 50
90.000000
 51
270.000000
  0
ARC
  8
0
 10
213.400040
 20
2.599984
 40
2.100000
 50
90.000000
 51
270.000000
  0
CIRCLE
  8
0
 62
     2
 10
163.000061
 20
-50.000027
 40
5.000000
  0
CIRCLE
  8
0
 10
163.000061
 20
-50.000027
 40
4.250000
  0
CIRCLE
  8
0
 62
     2
 10
206.999985
 20
-50.000027
 40
5.000000
  0
CIRCLE
  8
0
 10
206.999985
 20
-50.000027
 40
4.250000
  0
CIRCLE
  8
0
 62
     2
 10
163.000061
 20
79.999992
 40
5.000000
  0
CIRCLE
  8
0
 10
163.000061
 20
79.999992
 40
4.250000
  0
CIRCLE
  8
0
 62
     2
 10
206.999985
 20
79.999992
 40
5.000000
  0
CIRCLE
  8
0
 10
206.999985
 20
79.999992
 40
4.250000
  0
CIRCLE
  8
0
 10
165.500046
 20
-37.500027
 40
1.500000
  0
CIRCLE
  8
0
 10
165.500046
 20
-37.500027
 40
2.000000
  0
TEXT
  8
0
 10
196.250259
 20
180.830002
 40
6.300000
  1
Ver. 1.0
 50
0.000000
 41
1.052632
 51
0.000000
  7
STANDARD
  0
TEXT
  8
0
 10
167.564667
 20
-192.100006
 40
9.000000
  1
KOGANEI CORP.
 50
0.000000
 41
1.052632
 51
0.000000
  7
STANDARD
  0
TEXT
  8
0
 10
-274.349731
 20
180.830002
 40
6.300000
  1
JIG CYLINDER WITH GUIDE
 50
0.000000
 41
1.052632
 51
0.000000
  7
STANDARD
  0
TEXT
  8
0
 10
-270.049713
 20
155.830002
 40
6.300000
  1
MODEL:SGDAPQ50*ST(10)
 50
0.000000
 41
1.052632
 51
0.000000
  7
STANDARD
  0
TEXT
  8
0
 62
     3
 10
1.357136
 20
112.699997
 40
4.500000
  1
STRETCH LINE A
 50
0.000000
 41
1.052632
 51
0.000000
  7
STANDARD
  0
TEXT
  8
0
 62
     3
 10
-20.892664
 20
126.199997
 40
4.500000
  1
STRETCH LINE B
 50
0.000000
 41
1.052632
 51
0.000000
  7
STANDARD
  0
TEXT
  8
0
 10
-226.142654
 20
-157.550003
 40
4.500000
  1
10
 50
0.000000
 41
1.052632
 51
0.000000
  7
STANDARD
  0
TEXT
  8
0
 10
-206.142654
 20
-157.550003
 40
4.500000
  1
20
 50
0.000000
 41
1.052632
 51
0.000000
  7
STANDARD
  0
TEXT
  8
0
 10
-186.142654
 20
-157.550003
 40
4.500000
  1
30
 50
0.000000
 41
1.052632
 51
0.000000
  7
STANDARD
  0
TEXT
  8
0
 10
-166.142654
 20
-157.550003
 40
4.500000
  1
50
 50
0.000000
 41
1.052632
 51
0.000000
  7
STANDARD
  0
TEXT
  8
0
 10
-146.142654
 20
-157.550003
 40
4.500000
  1
75
 50
0.000000
 41
1.052632
 51
0.000000
  7
STANDARD
  0
TEXT
  8
0
 10
-128.392654
 20
-157.550003
 40
4.500000
  1
100
 50
0.000000
 41
1.052632
 51
0.000000
  7
STANDARD
  0
TEXT
  8
0
 10
-265.142670
 20
-150.550003
 40
4.500000
  1
STROKE
 50
0.000000
 41
1.052632
 51
0.000000
  7
STANDARD
  0
TEXT
  8
0
 10
-267.392670
 20
-156.324997
 40
4.500000
  1
STRETCH
 50
0.000000
 41
1.052632
 51
0.000000
  7
STANDARD
  0
TEXT
  8
0
 10
-267.392670
 20
-163.074997
 40
4.500000
  1
  PLACE
 50
0.000000
 41
1.052632
 51
0.000000
  7
STANDARD
  0
TEXT
  8
0
 10
-253.892654
 20
-173.050003
 40
4.500000
  1
A
 50
0.000000
 41
1.052632
 51
0.000000
  7
STANDARD
  0
TEXT
  8
0
 10
-253.892654
 20
-183.050003
 40
4.500000
  1
B
 50
0.000000
 41
1.052632
 51
0.000000
  7
STANDARD
  0
TEXT
  8
0
 10
-168.642654
 20
-142.050003
 40
4.500000
  1
STRETCH LIST
 50
0.000000
 41
1.052632
 51
0.000000
  7
STANDARD
  0
TEXT
  8
0
 10
-50.642658
 20
-144.050003
 40
4.500000
  1
(mm)
 50
0.000000
 41
1.052632
 51
0.000000
  7
STANDARD
  0
TEXT
  8
0
 10
-108.392654
 20
-157.550003
 40
4.500000
  1
125
 50
0.000000
 41
1.052632
 51
0.000000
  7
STANDARD
  0
TEXT
  8
0
 10
-88.392654
 20
-157.550003
 40
4.500000
  1
150
 50
0.000000
 41
1.052632
 51
0.000000
  7
STANDARD
  0
TEXT
  8
0
 10
-68.392654
 20
-157.550003
 40
4.500000
  1
175
 50
0.000000
 41
1.052632
 51
0.000000
  7
STANDARD
  0
TEXT
  8
0
 10
-48.392658
 20
-157.550003
 40
4.500000
  1
200
 50
0.000000
 41
1.052632
 51
0.000000
  7
STANDARD
  0
TEXT
  8
0
 10
-206.142654
 20
-183.050003
 40
4.500000
  1
10
 50
0.000000
 41
1.052632
 51
0.000000
  7
STANDARD
  0
TEXT
  8
0
 10
-186.142654
 20
-183.050003
 40
4.500000
  1
20
 50
0.000000
 41
1.052632
 51
0.000000
  7
STANDARD
  0
TEXT
  8
0
 10
-166.142654
 20
-183.050003
 40
4.500000
  1
40
 50
0.000000
 41
1.052632
 51
0.000000
  7
STANDARD
  0
TEXT
  8
0
 10
-146.142654
 20
-183.050003
 40
4.500000
  1
40
 50
0.000000
 41
1.052632
 51
0.000000
  7
STANDARD
  0
TEXT
  8
0
 10
-126.142654
 20
-183.050003
 40
4.500000
  1
40
 50
0.000000
 41
1.052632
 51
0.000000
  7
STANDARD
  0
TEXT
  8
0
 10
-106.142654
 20
-183.050003
 40
4.500000
  1
90
 50
0.000000
 41
1.052632
 51
0.000000
  7
STANDARD
  0
TEXT
  8
0
 10
-86.142654
 20
-183.050003
 40
4.500000
  1
90
 50
0.000000
 41
1.052632
 51
0.000000
  7
STANDARD
  0
TEXT
  8
0
 10
-66.142654
 20
-183.050003
 40
4.500000
  1
90
 50
0.000000
 41
1.052632
 51
0.000000
  7
STANDARD
  0
TEXT
  8
0
 10
-46.142658
 20
-183.050003
 40
4.500000
  1
90
 50
0.000000
 41
1.052632
 51
0.000000
  7
STANDARD
  0
TEXT
  8
0
 10
-223.892654
 20
-183.050003
 40
4.500000
  1
0
 50
0.000000
 41
1.052632
 51
0.000000
  7
STANDARD
  0
TEXT
  8
0
 10
-223.892654
 20
-173.050003
 40
4.500000
  1
0
 50
0.000000
 41
1.052632
 51
0.000000
  7
STANDARD
  0
TEXT
  8
0
 10
-48.392658
 20
-173.050003
 40
4.500000
  1
100
 50
0.000000
 41
1.052632
 51
0.000000
  7
STANDARD
  0
TEXT
  8
0
 10
-66.142654
 20
-173.050003
 40
4.500000
  1
75
 50
0.000000
 41
1.052632
 51
0.000000
  7
STANDARD
  0
TEXT
  8
0
 10
-86.142654
 20
-173.050003
 40
4.500000
  1
50
 50
0.000000
 41
1.052632
 51
0.000000
  7
STANDARD
  0
TEXT
  8
0
 10
-106.142654
 20
-173.050003
 40
4.500000
  1
25
 50
0.000000
 41
1.052632
 51
0.000000
  7
STANDARD
  0
TEXT
  8
0
 10
-126.142654
 20
-173.050003
 40
4.500000
  1
50
 50
0.000000
 41
1.052632
 51
0.000000
  7
STANDARD
  0
TEXT
  8
0
 10
-146.142654
 20
-173.050003
 40
4.500000
  1
25
 50
0.000000
 41
1.052632
 51
0.000000
  7
STANDARD
  0
TEXT
  8
0
 10
-163.892654
 20
-173.050003
 40
4.500000
  1
0
 50
0.000000
 41
1.052632
 51
0.000000
  7
STANDARD
  0
TEXT
  8
0
 10
-183.892654
 20
-173.050003
 40
4.500000
  1
0
 50
0.000000
 41
1.052632
 51
0.000000
  7
STANDARD
  0
TEXT
  8
0
 10
-203.892654
 20
-173.050003
 40
4.500000
  1
0
 50
0.000000
 41
1.052632
 51
0.000000
  7
STANDARD
  0
TEXT
  8
0
 62
     2
 10
81.500412
 20
-89.000000
 40
3.200000
  1
STROKE=75-200
 50
0.000000
 41
1.052632
 51
0.000000
  7
STANDARD
  0
LINE
  8
0
 62
     2
 10
68.499985
 20
-90.000000
 11
122.850418
 21
-90.000000
  0
LINE
  8
0
 62
     2
 10
29.999992
 20
-90.000000
 11
68.499985
 21
-90.000000
  0
LINE
  8
0
 62
     2
 10
29.999992
 20
-90.000000
 11
32.897770
 21
-89.223541
  0
LINE
  8
0
 62
     2
 10
29.999992
 20
-90.000000
 11
32.897770
 21
-90.776459
  0
LINE
  8
0
 62
     2
 10
68.499985
 20
-90.000000
 11
65.602211
 21
-90.776459
  0
LINE
  8
0
 62
     2
 10
68.499985
 20
-90.000000
 11
65.602211
 21
-89.223541
  0
LINE
  8
0
 62
     2
 10
29.999992
 20
-59.499969
 11
29.999992
 21
-91.500000
  0
LINE
  8
0
 62
     2
 10
68.499985
 20
-52.500000
 11
68.499985
 21
-91.500000
  0
ENDSEC
  0
EOF
