  0
SECTION
  2
HEADER
  0
ENDSEC
  0
SECTION
  2
TABLES
  0
TABLE
  2
LTYPE
 70
     4
  0
LTYPE
  2
CONTINUOUS
 70
    64
  3
Solid line
 72
    65
 73
     0
 40
0.000000
  0
LTYPE
  2
DASHED
 70
    64
  3
__ __ __ __ __ __ __ __ __ __ __ __ __ __ __
 72
    65
 73
     2
 40
3.500000
 49
2.000000
 49
-1.500000
  0
LTYPE
  2
CENTER
 70
    64
  3
____ _ ____ _ ____ _ ____ _ ____ _ ____ _ ____
 72
    65
 73
     4
 40
17.500000
 49
13.000000
 49
-1.500000
 49
1.500000
 49
-1.500000
  0
LTYPE
  2
PHANTOM
 70
    64
  3
_____ _ _ _____ _ _ _____ _ _ _____ _ _ ____  
 72
    65
 73
     6
 40
15.500000
 49
8.000000
 49
-1.500000
 49
1.500000
 49
-1.500000
 49
1.500000
 49
-1.500000
  0
LTYPE
  2
DASHED1
 70
    64
  3
__ __ __ __ __ __ __ __ __ __ __ __ __ __ __
 72
    65
 73
     2
 40
1.500000
 49
1.000000
 49
-0.500000
  0
LTYPE
  2
DASHED2
 70
    64
  3
__ __ __ __ __ __ __ __ __ __ __ __ __ __ __
 72
    65
 73
     2
 40
3.500000
 49
2.500000
 49
-1.000000
  0
LTYPE
  2
DASHED3
 70
    64
  3
__ __ __ __ __ __ __ __ __ __ __ __ __ __ __
 72
    65
 73
     2
 40
6.000000
 49
4.000000
 49
-2.000000
  0
LTYPE
  2
DASHED4
 70
    64
  3
__ __ __ __ __ __ __ __ __ __ __ __ __ __ __
 72
    65
 73
     2
 40
12.000000
 49
10.000000
 49
-2.000000
  0
LTYPE
  2
DASHED5
 70
    64
  3
__ __ __ __ __ __ __ __ __ __ __ __ __ __ __
 72
    65
 73
     2
 40
17.000000
 49
15.000000
 49
-2.000000
  0
LTYPE
  2
DASHED6
 70
    64
  3
__ __ __ __ __ __ __ __ __ __ __ __ __ __ __
 72
    65
 73
     2
 40
29.000000
 49
27.000000
 49
-2.000000
  0
LTYPE
  2
PHANTOM1
 70
    64
  3
_____ _ _ _____ _ _ _____ _ _ _____ _ _ ____  
 72
    65
 73
     6
 40
31.000000
 49
25.000000
 49
-1.500000
 49
1.000000
 49
-1.000000
 49
1.000000
 49
-1.500000
  0
LTYPE
  2
PHANTOM2
 70
    64
  3
_____ _ _ _____ _ _ _____ _ _ _____ _ _ ____  
 72
    65
 73
     6
 40
36.000000
 49
27.000000
 49
-1.500000
 49
2.500000
 49
-1.000000
 49
2.500000
 49
-1.500000
  0
LTYPE
  2
PHANTOM3
 70
    64
  3
_____ _ _ _____ _ _ _____ _ _ _____ _ _ ____  
 72
    65
 73
     6
 40
78.000000
 49
64.000000
 49
-2.000000
 49
4.000000
 49
-2.000000
 49
4.000000
 49
-2.000000
  0
LTYPE
  2
CENTER1
 70
    64
  3
____ _ ____ _ ____ _ ____ _ ____ _ ____ _ ____
 72
    65
 73
     4
 40
19.000000
 49
14.000000
 49
-1.000000
 49
3.000000
 49
-1.000000
  0
LTYPE
  2
CENTER2
 70
    64
  3
____ _ ____ _ ____ _ ____ _ ____ _ ____ _ ____
 72
    65
 73
     4
 40
28.500000
 49
25.000000
 49
-1.000000
 49
1.500000
 49
-1.000000
  0
LTYPE
  2
CENTER3
 70
    64
  3
____ _ ____ _ ____ _ ____ _ ____ _ ____ _ ____
 72
    65
 73
     4
 40
31.500000
 49
27.000000
 49
-1.000000
 49
2.500000
 49
-1.000000
  0
LTYPE
  2
CENTER4
 70
    64
  3
____ _ ____ _ ____ _ ____ _ ____ _ ____ _ ____
 72
    65
 73
     4
 40
50.000000
 49
45.000000
 49
-1.000000
 49
3.000000
 49
-1.000000
  0
LTYPE
  2
CENTER5
 70
    64
  3
____ _ ____ _ ____ _ ____ _ ____ _ ____ _ ____
 72
    65
 73
     4
 40
100.000000
 49
92.000000
 49
-2.000000
 49
4.000000
 49
-2.000000
  0
LTYPE
  2
SBK1
 70
    64
  3
______ _ _ _ ______ _ _ _ ______ _ _ _ _____  
 72
    65
 73
     8
 40
60.500000
 49
45.000000
 49
-2.000000
 49
2.500000
 49
-2.000000
 49
2.500000
 49
-2.000000
 49
2.500000
 49
-2.000000
  0
LTYPE
  2
SBK2
 70
    64
  3
______ _ _ _ ______ _ _ _ ______ _ _ _ _____  
 72
    65
 73
     8
 40
84.000000
 49
64.000000
 49
-2.000000
 49
4.000000
 49
-2.000000
 49
4.000000
 49
-2.000000
 49
4.000000
 49
-2.000000
  0
LTYPE
  2
STCH
 70
    64
  3
__ __ __ __ __ __ __ __ __ __ __ __ __ __ __
 72
    65
 73
     2
 40
3.000000
 49
1.000000
 49
-2.000000
  0
LTYPE
  2
MTCH
 70
    64
  3
_____ _ _ _____ _ _ _____ _ _ _____ _ _ ____  
 72
    65
 73
     6
 40
80.000000
 49
66.000000
 49
-2.000000
 49
4.000000
 49
-2.000000
 49
4.000000
 49
-2.000000
  0
ENDTAB
  0
TABLE
  2
LAYER
 70
     1
  0
LAYER
  2
0
 70
     0
 62
     7
  6
CONTINUOUS
  0
ENDTAB
  0
TABLE
  2
STYLE
 70
     1
  0
STYLE
  2
STANDARD
 70
     0
 40
0.000000
 41
1.000000
 50
0.000000
 71
     0
 42
0.200000
  3
txt
  4
BIGFONT
  0
ENDTAB
  0
TABLE
  2
VIEW
 70
     0
  0
ENDTAB
  0
ENDSEC
  0
SECTION
  2
BLOCKS
  0
ENDSEC
  0
SECTION
  2
ENTITIES
  0
LINE
  8
0
  6
DASHED
 62
     2
 10
40.142883
 20
-27.500031
 11
40.142883
 21
-42.500004
  0
LINE
  8
0
  6
DASHED
 62
     2
 10
8.142868
 20
-27.000000
 11
39.642868
 21
-27.000000
  0
LINE
  8
0
  6
DASHED
 62
     2
 10
8.142868
 20
-43.000000
 11
39.642868
 21
-43.000000
  0
LINE
  8
0
  6
DASHED
 62
     2
 10
39.642857
 20
-27.000008
 11
40.142849
 21
-27.500000
  0
LINE
  8
0
  6
DASHED
 62
     2
 10
40.142841
 20
-42.499977
 11
39.642845
 21
-42.999969
  0
LINE
  8
0
  6
DASHED
 62
     2
 10
39.642868
 20
-27.000000
 11
39.642868
 21
-43.000000
  0
LINE
  8
0
  6
DASHED
 62
     2
 10
40.142883
 20
62.500000
 11
40.142883
 21
47.500015
  0
LINE
  8
0
  6
DASHED
 62
     2
 10
8.142868
 20
63.000000
 11
39.642868
 21
63.000000
  0
LINE
  8
0
  6
DASHED
 62
     2
 10
8.142868
 20
47.000000
 11
39.642868
 21
47.000000
  0
LINE
  8
0
  6
DASHED
 62
     2
 10
39.642834
 20
62.999977
 11
40.142830
 21
62.499981
  0
LINE
  8
0
  6
DASHED
 62
     2
 10
40.142868
 20
47.500000
 11
39.642876
 21
47.000011
  0
LINE
  8
0
  6
DASHED
 62
     2
 10
39.642868
 20
63.000000
 11
39.642868
 21
47.000000
  0
LINE
  8
0
 10
18.142868
 20
43.499996
 11
18.142868
 21
-23.500000
  0
LINE
  8
0
 10
18.142868
 20
2.000000
 11
28.142868
 21
2.000000
  0
LINE
  8
0
 10
28.142868
 20
-4.000000
 11
30.642868
 21
-4.000000
  0
LINE
  8
0
 10
28.142868
 20
24.000004
 11
28.142868
 21
-3.999998
  0
LINE
  8
0
 10
30.642868
 20
24.000004
 11
30.642868
 21
-3.849998
  0
LINE
  8
0
 10
30.642868
 20
-3.500000
 11
42.642853
 21
-3.500000
  0
LINE
  8
0
 10
42.642853
 20
2.205772
 11
53.437103
 21
2.205772
  0
LINE
  8
0
 10
42.642853
 20
-5.588455
 11
53.437103
 21
-5.588455
  0
LINE
  8
0
 10
30.642868
 20
-3.500000
 11
42.642853
 21
-3.500000
  0
LINE
  8
0
 10
53.437088
 20
-5.588482
 11
54.642860
 21
-3.500027
  0
LINE
  8
0
 10
42.642853
 20
25.588455
 11
42.642853
 21
-5.588455
  0
LINE
  8
0
 10
54.642853
 20
23.500080
 11
54.642853
 21
-3.500004
  0
LINE
  8
0
 10
55.984833
 20
3.937826
 11
61.300919
 21
3.937826
  0
LINE
  8
0
 10
55.984833
 20
-2.124352
 11
61.300919
 21
-2.124352
  0
LINE
  8
0
 10
61.300911
 20
-2.124373
 11
62.642879
 21
0.199981
  0
LINE
  8
0
 10
54.642883
 20
0.200031
 11
55.984848
 21
-2.124320
  0
LINE
  8
0
 10
62.642853
 20
19.799995
 11
62.642853
 21
0.200005
  0
LINE
  8
0
 10
65.142853
 20
16.000004
 11
65.142853
 21
4.000000
  0
LINE
  8
0
 10
65.142845
 20
4.000022
 11
64.142853
 21
3.000030
  0
LINE
  8
0
 62
     2
 10
62.642853
 20
3.750000
 11
64.892883
 21
3.750000
  0
LINE
  8
0
 10
62.642853
 20
3.000002
 11
64.142838
 21
3.000002
  0
LINE
  8
0
 10
64.142838
 20
17.000000
 11
64.142838
 21
3.000002
  0
LINE
  8
0
 10
23.142868
 20
-10.715141
 11
23.142868
 21
-21.284859
  0
LINE
  8
0
 10
18.142868
 20
-9.000000
 11
18.942863
 21
-9.000000
  0
LINE
  8
0
 10
18.942863
 20
-9.000000
 11
18.942863
 21
-23.000000
  0
LINE
  8
0
 10
18.142868
 20
-22.999996
 11
18.942863
 21
-22.999996
  0
LINE
  8
0
 10
23.142868
 20
41.284863
 11
23.142868
 21
30.715141
  0
LINE
  8
0
 10
18.142868
 20
43.000004
 11
18.942863
 21
43.000004
  0
LINE
  8
0
 10
18.942863
 20
43.000004
 11
18.942863
 21
29.000000
  0
LINE
  8
0
 10
18.142868
 20
29.000000
 11
18.942863
 21
29.000000
  0
LINE
  8
0
 10
18.142868
 20
18.000000
 11
28.142868
 21
18.000000
  0
LINE
  8
0
 10
28.142868
 20
24.000004
 11
30.642868
 21
24.000004
  0
LINE
  8
0
 10
30.642868
 20
23.500000
 11
42.642853
 21
23.500000
  0
LINE
  8
0
 10
42.642853
 20
17.794228
 11
53.437103
 21
17.794228
  0
LINE
  8
0
 10
42.642853
 20
25.588455
 11
53.437103
 21
25.588455
  0
LINE
  8
0
 10
30.642868
 20
23.500000
 11
42.642853
 21
23.500000
  0
LINE
  8
0
 10
53.437134
 20
25.588509
 11
54.642902
 21
23.500057
  0
LINE
  8
0
 10
55.984833
 20
16.062176
 11
61.300919
 21
16.062176
  0
LINE
  8
0
 10
55.984833
 20
22.124355
 11
61.300919
 21
22.124355
  0
LINE
  8
0
 10
61.300903
 20
22.124352
 11
62.642864
 21
19.800007
  0
LINE
  8
0
 10
54.642872
 20
19.799978
 11
55.984852
 21
22.124359
  0
LINE
  8
0
 10
65.142830
 20
15.999941
 11
64.142838
 21
16.999929
  0
LINE
  8
0
 62
     2
 10
62.642853
 20
16.250000
 11
64.892883
 21
16.250000
  0
LINE
  8
0
 10
62.642853
 20
17.000000
 11
64.142838
 21
17.000000
  0
LINE
  8
0
 10
8.142868
 20
43.499996
 11
18.142868
 21
43.499996
  0
LINE
  8
0
 10
8.142868
 20
-23.500000
 11
18.142868
 21
-23.500000
  0
LINE
  8
0
 10
8.142868
 20
21.599998
 11
18.142868
 21
21.599998
  0
LINE
  8
0
 10
8.142868
 20
-1.599998
 11
18.142868
 21
-1.599998
  0
LINE
  8
0
 10
-49.857143
 20
1.999992
 11
-45.857143
 21
1.999992
  0
LINE
  8
0
  6
CENTER
 62
     2
 10
-67.575722
 20
-35.000000
 11
-43.549938
 21
-35.000000
  0
LINE
  8
0
  6
CENTER
 62
     2
 10
-67.314575
 20
55.000000
 11
-43.505783
 21
55.000000
  0
LINE
  8
0
 10
-63.857147
 20
71.000000
 11
-50.857147
 21
71.000000
  0
LINE
  8
0
 10
-63.857147
 20
-50.999996
 11
-50.857147
 21
-50.999996
  0
LINE
  8
0
 10
-49.857143
 20
-50.000000
 11
-49.857143
 21
69.999977
  0
LINE
  8
0
 10
-64.857147
 20
69.999977
 11
-64.857147
 21
-50.000000
  0
LINE
  8
0
 10
-49.857143
 20
6.127014
 11
-48.357143
 21
6.127014
  0
LINE
  8
0
 10
-48.357140
 20
13.873009
 11
-48.357140
 21
6.127014
  0
LINE
  8
0
 10
-48.357155
 20
6.127073
 11
-49.857166
 21
11.936584
  0
LINE
  8
0
 10
-48.357178
 20
13.873075
 11
-49.857193
 21
8.063539
  0
LINE
  8
0
 10
-64.857117
 20
-49.999969
 11
-63.857101
 21
-50.999981
  0
LINE
  8
0
 10
-50.857151
 20
-51.000019
 11
-49.857147
 21
-50.000015
  0
LINE
  8
0
 10
-63.857098
 20
70.999954
 11
-64.857101
 21
69.999954
  0
LINE
  8
0
 10
-50.857185
 20
70.999969
 11
-49.857185
 21
69.999969
  0
LINE
  8
0
 10
-45.357132
 20
72.000015
 11
7.642883
 21
72.000015
  0
LINE
  8
0
 10
8.142883
 20
69.999977
 11
-45.857140
 21
69.999977
  0
LINE
  8
0
 10
8.142883
 20
53.650017
 11
-45.857140
 21
53.650017
  0
LINE
  8
0
 10
8.142883
 20
48.350021
 11
-45.857140
 21
48.350021
  0
LINE
  8
0
 10
8.142883
 20
26.999992
 11
-45.857140
 21
26.999992
  0
LINE
  8
0
 10
8.142883
 20
25.999996
 11
-45.857140
 21
25.999996
  0
LINE
  8
0
 10
8.142883
 20
20.700008
 11
-45.857140
 21
20.700008
  0
LINE
  8
0
 10
8.142883
 20
17.500000
 11
-45.857140
 21
17.500000
  0
LINE
  8
0
 10
-45.357006
 20
71.999832
 11
-45.857006
 21
71.499832
  0
LINE
  8
0
 10
7.642990
 20
72.000107
 11
8.142998
 21
71.500107
  0
LINE
  8
0
 10
-49.857143
 20
17.999989
 11
-45.857143
 21
17.999989
  0
LINE
  8
0
 10
-49.857143
 20
13.873051
 11
-48.357143
 21
13.873051
  0
LINE
  8
0
  6
CENTER
 62
     2
 10
-38.857128
 20
43.499996
 11
-38.857128
 21
28.499996
  0
LINE
  8
0
  6
CENTER
 62
     2
 10
-46.357128
 20
35.999996
 11
-31.357128
 21
35.999996
  0
LINE
  8
0
  6
CENTER
 62
     2
 10
-18.857124
 20
43.499996
 11
-18.857124
 21
28.499996
  0
LINE
  8
0
  6
CENTER
 62
     2
 10
-26.357128
 20
35.999996
 11
-11.357124
 21
35.999996
  0
LINE
  8
0
  6
CENTER
 62
     2
 10
68.591080
 20
10.000000
 11
-67.309502
 21
10.000000
  0
LINE
  8
0
 10
-45.857140
 20
71.499962
 11
-45.857140
 21
-51.499985
  0
LINE
  8
0
 10
-45.357109
 20
-51.999992
 11
7.642853
 21
-51.999992
  0
LINE
  8
0
 10
8.142868
 20
2.500000
 11
-45.857140
 21
2.500000
  0
LINE
  8
0
 10
8.142868
 20
-0.699986
 11
-45.857140
 21
-0.699986
  0
LINE
  8
0
 10
8.142868
 20
-5.999973
 11
-45.857140
 21
-5.999973
  0
LINE
  8
0
 10
8.142860
 20
-6.999947
 11
-45.857140
 21
-6.999947
  0
LINE
  8
0
 10
8.142868
 20
-50.000000
 11
-45.857140
 21
-50.000000
  0
LINE
  8
0
  6
CENTER
 62
     2
 10
-18.857147
 20
-8.500017
 11
-18.857147
 21
-23.500015
  0
LINE
  8
0
  6
CENTER
 62
     2
 10
-25.726219
 20
-16.000017
 11
-11.357147
 21
-16.000017
  0
LINE
  8
0
  6
CENTER
 62
     2
 10
-38.857147
 20
-8.500017
 11
-38.857147
 21
-23.500015
  0
LINE
  8
0
  6
CENTER
 62
     2
 10
-46.357147
 20
-16.000017
 11
-31.357147
 21
-16.000017
  0
LINE
  8
0
  6
CENTER
 62
     2
 10
-31.857159
 20
-23.787415
 11
-31.857159
 21
-38.130409
  0
LINE
  8
0
  6
CENTER
 62
     2
 10
-4.857143
 20
-23.404709
 11
-4.857143
 21
-38.201164
  0
LINE
  8
0
  6
DASHED
 62
     2
 10
-22.108879
 20
-48.376213
 11
-22.425920
 21
-52.000008
  0
LINE
  8
0
  6
DASHED
 62
     2
 10
-20.957150
 20
-48.376213
 11
-20.957150
 21
-51.999992
  0
LINE
  8
0
  6
DASHED
 62
     2
 10
-12.757141
 20
-48.376213
 11
-12.757141
 21
-51.999992
  0
LINE
  8
0
  6
DASHED
 62
     2
 10
-11.605314
 20
-48.376213
 11
-11.288286
 21
-51.999947
  0
LINE
  8
0
  6
CENTER
 62
     2
 10
-11.004951
 20
-30.000023
 11
2.370651
 21
-30.000023
  0
LINE
  8
0
 10
8.143010
 20
-51.500084
 11
7.643005
 21
-52.000088
  0
LINE
  8
0
 10
-45.857075
 20
-51.499935
 11
-45.357040
 21
-51.999939
  0
LINE
  8
0
  6
DASHED
 62
     2
 10
-37.108894
 20
-48.376213
 11
-37.425930
 21
-51.999928
  0
LINE
  8
0
  6
DASHED
 62
     2
 10
-35.957150
 20
-48.376213
 11
-35.957150
 21
-51.999992
  0
LINE
  8
0
  6
CENTER
 62
     2
 10
-37.857151
 20
-30.000023
 11
-25.857140
 21
-30.000023
  0
LINE
  8
0
  6
DASHED
 62
     2
 10
-27.757141
 20
-48.376213
 11
-27.757141
 21
-51.999992
  0
LINE
  8
0
  6
DASHED
 62
     2
 10
-26.605368
 20
-48.376209
 11
-26.288332
 21
-52.000019
  0
LINE
  8
0
  6
CENTER
 62
     2
 10
-31.857147
 20
-47.228100
 11
-31.857147
 21
-53.828999
  0
LINE
  8
0
 10
8.142838
 20
71.500053
 11
8.142838
 21
-51.499985
  0
LINE
  8
0
 10
-49.857143
 20
63.000000
 11
-45.857143
 21
63.000000
  0
LINE
  8
0
 10
-49.857143
 20
47.000000
 11
-45.857143
 21
47.000000
  0
LINE
  8
0
 10
-49.857143
 20
-27.000000
 11
-45.857143
 21
-27.000000
  0
LINE
  8
0
 10
-49.857143
 20
-43.000000
 11
-45.857143
 21
-43.000000
  0
LINE
  8
0
  6
PHANTOM
 62
     3
 10
-29.357147
 20
96.624992
 11
-29.357147
 21
-22.577499
  0
LINE
  8
0
  6
PHANTOM
 62
     3
 10
-24.857143
 20
-22.577499
 11
-24.857143
 21
-62.000015
  0
LINE
  8
0
  6
PHANTOM
 62
     3
 10
-29.357147
 20
-22.577499
 11
-24.857143
 21
-22.577499
  0
LINE
  8
0
  6
PHANTOM
 62
     3
 10
-23.107143
 20
-24.715000
 11
-23.107143
 21
-62.000015
  0
LINE
  8
0
  6
PHANTOM
 62
     3
 10
-23.107143
 20
-24.715000
 11
-7.982147
 21
-24.715000
  0
LINE
  8
0
  6
PHANTOM
 62
     3
 10
-7.982147
 20
85.374992
 11
-7.982147
 21
-24.715000
  0
LINE
  8
0
  6
CENTER
 62
     2
 10
-16.857147
 20
-47.228100
 11
-16.857147
 21
-53.828999
  0
LINE
  8
0
  6
CENTER
 62
     2
 10
-109.513123
 20
10.000000
 11
-169.882431
 21
10.000000
  0
LINE
  8
0
 10
-113.857132
 20
17.500000
 11
-114.357132
 21
17.500000
  0
LINE
  8
0
 10
-114.356995
 20
17.499996
 11
-114.857018
 21
16.999975
  0
LINE
  8
0
 10
-114.357018
 20
20.700212
 11
-114.857002
 21
21.200195
  0
LINE
  8
0
 10
-113.857132
 20
20.699997
 11
-114.357132
 21
20.699997
  0
LINE
  8
0
 10
-113.857086
 20
17.500011
 11
-113.857086
 21
10.000000
  0
LINE
  8
0
 10
-114.857147
 20
-51.999992
 11
-164.857056
 21
-51.999992
  0
LINE
  8
0
 10
-114.857147
 20
71.999992
 11
-164.857056
 21
71.999992
  0
LINE
  8
0
 10
-166.857147
 20
70.000023
 11
-166.857147
 21
54.150002
  0
LINE
  8
0
 10
-112.857117
 20
70.000023
 11
-112.857117
 21
53.650017
  0
LINE
  8
0
 10
-113.857132
 20
2.500000
 11
-114.357132
 21
2.500000
  0
LINE
  8
0
 10
-114.356911
 20
2.500135
 11
-114.856903
 21
3.000128
  0
LINE
  8
0
 10
-114.356941
 20
-0.700189
 11
-114.856964
 21
-1.200211
  0
LINE
  8
0
 10
-113.857132
 20
-0.699997
 11
-114.357132
 21
-0.699997
  0
LINE
  8
0
 10
-113.857086
 20
-5.999963
 11
-113.857086
 21
-0.699986
  0
LINE
  8
0
 10
-113.857086
 20
2.500011
 11
-113.857086
 21
10.000000
  0
LINE
  8
0
 10
-112.857170
 20
-7.000078
 11
-113.857170
 21
-6.000070
  0
LINE
  8
0
 10
-165.857086
 20
17.500000
 11
-165.357071
 21
17.500000
  0
LINE
  8
0
 10
-165.357178
 20
17.499966
 11
-164.857178
 21
16.999979
  0
LINE
  8
0
 10
-165.357285
 20
20.700052
 11
-164.857285
 21
21.200073
  0
LINE
  8
0
 10
-165.857086
 20
20.699997
 11
-165.357071
 21
20.699997
  0
LINE
  8
0
 10
-165.857086
 20
25.999996
 11
-165.857086
 21
20.700008
  0
LINE
  8
0
 10
-165.857086
 20
17.500011
 11
-165.857086
 21
10.000000
  0
LINE
  8
0
 10
-166.857117
 20
27.000019
 11
-165.857117
 21
26.000017
  0
LINE
  8
0
 10
-165.857086
 20
2.500000
 11
-165.357071
 21
2.500000
  0
LINE
  8
0
 10
-165.357254
 20
2.500129
 11
-164.857208
 21
3.000183
  0
LINE
  8
0
 10
-165.357254
 20
-0.700122
 11
-164.857269
 21
-1.200109
  0
LINE
  8
0
 10
-165.857086
 20
-0.699997
 11
-165.357071
 21
-0.699997
  0
LINE
  8
0
 10
-165.857086
 20
-5.999985
 11
-165.857086
 21
-0.699986
  0
LINE
  8
0
 10
-165.857086
 20
2.500011
 11
-165.857086
 21
10.000000
  0
LINE
  8
0
 10
-166.857117
 20
-7.000090
 11
-165.857086
 21
-6.000055
  0
LINE
  8
0
 10
-112.857117
 20
-6.999992
 11
-112.857117
 21
-50.000000
  0
LINE
  8
0
 10
-166.857147
 20
-6.999992
 11
-166.857147
 21
-27.849991
  0
LINE
  8
0
 10
-112.857155
 20
-50.000008
 11
-114.857162
 21
-52.000023
  0
LINE
  8
0
 10
-164.857010
 20
-51.999935
 11
-166.857010
 21
-49.999935
  0
LINE
  8
0
 10
-112.857018
 20
69.999939
 11
-114.857040
 21
71.999962
  0
LINE
  8
0
 10
-164.857040
 20
71.999969
 11
-166.857025
 21
69.999985
  0
LINE
  8
0
 10
-112.857071
 20
48.350021
 11
-114.857147
 21
48.350021
  0
LINE
  8
0
 10
-112.857071
 20
53.650009
 11
-114.857147
 21
53.650009
  0
LINE
  8
0
 10
-164.857147
 20
-27.850014
 11
-166.857147
 21
-27.850014
  0
LINE
  8
0
 10
-164.857147
 20
-34.149998
 11
-166.857147
 21
-34.149998
  0
LINE
  8
0
 10
-166.857147
 20
-34.150009
 11
-166.857147
 21
-50.000000
  0
LINE
  8
0
 10
-164.857147
 20
47.850014
 11
-166.857147
 21
47.850014
  0
LINE
  8
0
 10
-164.857147
 20
54.150002
 11
-166.857147
 21
54.150002
  0
LINE
  8
0
 10
-166.857147
 20
47.850014
 11
-166.857147
 21
26.999992
  0
LINE
  8
0
 10
-113.857086
 20
26.000019
 11
-113.857086
 21
20.700008
  0
LINE
  8
0
 10
-112.857063
 20
26.999975
 11
-113.857101
 21
25.999935
  0
LINE
  8
0
 10
-112.857117
 20
48.350021
 11
-112.857117
 21
26.999992
  0
LINE
  8
0
 10
-163.857147
 20
71.000000
 11
-115.856903
 21
71.000000
  0
LINE
  8
0
 10
-163.857147
 20
-51.000000
 11
-115.857208
 21
-51.000000
  0
LINE
  8
0
 10
-163.857056
 20
70.999931
 11
-164.857056
 21
69.999931
  0
LINE
  8
0
 10
-115.857048
 20
71.000076
 11
-114.857048
 21
70.000076
  0
LINE
  8
0
 10
-164.857071
 20
-49.999939
 11
-163.857071
 21
-50.999939
  0
LINE
  8
0
 10
-114.857132
 20
-49.999981
 11
-115.857132
 21
-50.999985
  0
LINE
  8
0
  6
CENTER
 62
     2
 10
-122.857162
 20
-48.579903
 11
-122.857162
 21
-37.112000
  0
LINE
  8
0
  6
CENTER
 62
     2
 10
-117.431595
 20
63.000000
 11
-128.232742
 21
63.000000
  0
LINE
  8
0
  6
CENTER
 62
     2
 10
-156.857147
 20
-48.579903
 11
-156.857147
 21
-37.112000
  0
LINE
  8
0
  6
CENTER
 62
     2
 10
-117.431595
 20
-43.000000
 11
-128.232742
 21
-43.000000
  0
LINE
  8
0
 10
-114.857147
 20
70.000000
 11
-114.857147
 21
-50.000000
  0
LINE
  8
0
 10
-164.857147
 20
70.000000
 11
-164.857147
 21
-50.000000
  0
LINE
  8
0
  6
CENTER
 62
     2
 10
-139.857147
 20
77.358528
 11
-139.857147
 21
-57.295418
  0
LINE
  8
0
 10
-139.857178
 20
-32.113190
 11
-142.357208
 21
-33.556583
  0
LINE
  8
0
 10
-142.357147
 20
-33.556629
 11
-142.357147
 21
-36.443375
  0
LINE
  8
0
 10
-139.857162
 20
-37.886780
 11
-142.357178
 21
-36.443382
  0
LINE
  8
0
 10
-137.357178
 20
-36.443317
 11
-139.857193
 21
-37.886711
  0
LINE
  8
0
 10
-137.357147
 20
-33.556629
 11
-137.357147
 21
-36.443375
  0
LINE
  8
0
 10
-139.857162
 20
-32.113285
 11
-137.357162
 21
-33.556667
  0
LINE
  8
0
 10
-139.857178
 20
57.886829
 11
-142.357178
 21
56.443443
  0
LINE
  8
0
 10
-142.357147
 20
56.443375
 11
-142.357147
 21
53.556633
  0
LINE
  8
0
 10
-139.857132
 20
52.113235
 11
-142.357132
 21
53.556622
  0
LINE
  8
0
 10
-137.357193
 20
53.556667
 11
-139.857193
 21
52.113285
  0
LINE
  8
0
 10
-137.357147
 20
56.443375
 11
-137.357147
 21
53.556633
  0
LINE
  8
0
 10
-139.857117
 20
57.886734
 11
-137.357117
 21
56.443356
  0
LINE
  8
0
 10
-139.857162
 20
12.886834
 11
-142.357178
 21
11.443445
  0
LINE
  8
0
 10
-142.357147
 20
11.443373
 11
-142.357147
 21
8.556627
  0
LINE
  8
0
 10
-139.857147
 20
7.113220
 11
-142.357162
 21
8.556608
  0
LINE
  8
0
 10
-137.357178
 20
8.556661
 11
-139.857178
 21
7.113273
  0
LINE
  8
0
 10
-137.357147
 20
11.443373
 11
-137.357147
 21
8.556627
  0
LINE
  8
0
 10
-139.857162
 20
12.886730
 11
-137.357178
 21
11.443349
  0
LINE
  8
0
  6
CENTER
 62
     2
 10
-151.431595
 20
-43.000000
 11
-162.232742
 21
-43.000000
  0
LINE
  8
0
  6
CENTER
 62
     2
 10
-151.431595
 20
63.000000
 11
-162.232742
 21
63.000000
  0
LINE
  8
0
  6
CENTER
 62
     2
 10
-149.444504
 20
55.000000
 11
-130.450562
 21
55.000000
  0
LINE
  8
0
  6
CENTER
 62
     2
 10
-149.444504
 20
-35.000000
 11
-130.450562
 21
-35.000000
  0
LINE
  8
0
  6
CENTER
 62
     2
 10
-156.857147
 20
68.168777
 11
-156.857147
 21
57.614799
  0
LINE
  8
0
  6
CENTER
 62
     2
 10
-122.857162
 20
68.168777
 11
-122.857162
 21
57.434395
  0
LINE
  8
0
  6
CENTER
 62
     2
 10
101.042870
 20
36.000004
 11
119.242867
 21
36.000004
  0
LINE
  8
0
 10
156.142853
 20
-23.500000
 11
156.142853
 21
-19.605555
  0
LINE
  8
0
 10
104.142868
 20
43.499996
 11
104.142868
 21
39.605560
  0
LINE
  8
0
 10
107.642868
 20
34.556629
 11
107.642868
 21
37.443375
  0
LINE
  8
0
 10
112.642868
 20
34.556629
 11
112.642868
 21
37.443375
  0
LINE
  8
0
 10
107.642883
 20
37.443356
 11
110.142868
 21
38.886726
  0
LINE
  8
0
 10
110.142860
 20
33.113194
 11
112.642899
 21
34.556591
  0
LINE
  8
0
 10
107.642876
 20
34.556541
 11
110.142853
 21
33.113178
  0
LINE
  8
0
 10
110.142891
 20
38.886646
 11
112.642899
 21
37.443268
  0
LINE
  8
0
 10
147.642960
 20
-14.556723
 11
150.142960
 21
-13.113349
  0
LINE
  8
0
 10
147.642853
 20
-17.443371
 11
147.642853
 21
-14.556618
  0
LINE
  8
0
 10
147.642899
 20
-17.443413
 11
150.142899
 21
-18.886787
  0
LINE
  8
0
 10
150.142960
 20
-18.886837
 11
152.642929
 21
-17.443478
  0
LINE
  8
0
 10
152.642853
 20
-17.443373
 11
152.642853
 21
-14.556618
  0
LINE
  8
0
 10
150.142868
 20
-13.113273
 11
152.642868
 21
-14.556646
  0
LINE
  8
0
 10
104.142868
 20
21.599998
 11
106.742859
 21
21.599998
  0
LINE
  8
0
 10
104.142868
 20
-1.599998
 11
106.742859
 21
-1.599998
  0
LINE
  8
0
 10
153.542862
 20
21.599998
 11
156.142853
 21
21.599998
  0
LINE
  8
0
 10
153.542862
 20
-1.599998
 11
156.142853
 21
-1.599998
  0
LINE
  8
0
 10
109.242859
 20
19.099998
 11
109.242859
 21
0.900002
  0
LINE
  8
0
 10
151.042877
 20
19.099998
 11
151.042877
 21
0.900002
  0
LINE
  8
0
 10
116.642853
 20
17.794182
 11
130.142868
 21
25.588417
  0
LINE
  8
0
 10
130.142899
 20
-5.588521
 11
143.642914
 21
2.205712
  0
LINE
  8
0
 10
130.142929
 20
25.588533
 11
143.642944
 21
17.794296
  0
LINE
  8
0
 10
116.642883
 20
2.205809
 11
130.142899
 21
-5.588428
  0
LINE
  8
0
 10
119.642868
 20
16.062134
 11
130.142853
 21
22.124298
  0
LINE
  8
0
 10
130.142853
 20
-2.124389
 11
140.642868
 21
3.937799
  0
LINE
  8
0
 10
130.142883
 20
22.124393
 11
140.642899
 21
16.062204
  0
LINE
  8
0
 10
119.642883
 20
3.937831
 11
130.142853
 21
-2.124332
  0
LINE
  8
0
 10
116.642838
 20
17.794228
 11
116.642838
 21
2.205769
  0
LINE
  8
0
 10
119.642853
 20
16.062183
 11
119.642853
 21
3.937820
  0
LINE
  8
0
 10
140.642822
 20
16.062183
 11
140.642822
 21
3.937826
  0
LINE
  8
0
 10
143.642883
 20
17.794228
 11
143.642883
 21
2.205772
  0
LINE
  8
0
 10
104.142868
 20
43.499996
 11
156.142853
 21
43.499996
  0
LINE
  8
0
 10
104.142868
 20
-23.500000
 11
156.142853
 21
-23.500000
  0
LINE
  8
0
 10
104.142868
 20
-23.500000
 11
104.142868
 21
-0.699986
  0
LINE
  8
0
 10
156.142853
 20
43.499996
 11
156.142853
 21
20.700008
  0
LINE
  8
0
 10
104.142883
 20
17.500000
 11
104.642868
 21
17.500000
  0
LINE
  8
0
 10
104.642868
 20
17.500034
 11
105.142860
 21
17.000046
  0
LINE
  8
0
 10
105.142868
 20
17.000015
 11
106.742859
 21
17.000015
  0
LINE
  8
0
 10
105.142868
 20
21.200016
 11
106.742859
 21
21.200016
  0
LINE
  8
0
 10
104.642731
 20
20.700151
 11
105.142731
 21
21.200146
  0
LINE
  8
0
 10
104.142883
 20
20.700008
 11
104.642868
 21
20.700008
  0
LINE
  8
0
 10
104.142868
 20
17.500023
 11
104.142868
 21
10.000000
  0
LINE
  8
0
 10
105.142868
 20
-51.999992
 11
155.142868
 21
-51.999992
  0
LINE
  8
0
 10
105.142868
 20
72.000015
 11
155.142868
 21
72.000015
  0
LINE
  8
0
  6
CENTER
 62
     2
 10
115.256546
 20
55.000000
 11
144.819107
 21
55.000000
  0
LINE
  8
0
  6
CENTER
 62
     2
 10
115.296692
 20
-35.000000
 11
144.586395
 21
-35.000000
  0
LINE
  8
0
 10
104.142883
 20
2.500000
 11
104.642868
 21
2.500000
  0
LINE
  8
0
 10
104.642807
 20
2.500052
 11
105.142815
 21
3.000057
  0
LINE
  8
0
 10
105.142868
 20
3.000010
 11
106.742859
 21
3.000010
  0
LINE
  8
0
 10
105.142868
 20
-1.200016
 11
106.742859
 21
-1.200016
  0
LINE
  8
0
 10
104.642784
 20
-0.700046
 11
105.142776
 21
-1.200034
  0
LINE
  8
0
 10
104.142883
 20
-0.700006
 11
104.642868
 21
-0.700006
  0
LINE
  8
0
 10
104.142868
 20
2.500023
 11
104.142868
 21
10.000000
  0
LINE
  8
0
 10
103.142822
 20
-7.000041
 11
104.142838
 21
-6.000031
  0
LINE
  8
0
 10
156.142838
 20
17.500000
 11
155.642853
 21
17.500000
  0
LINE
  8
0
 10
155.642960
 20
17.499887
 11
155.142960
 21
16.999887
  0
LINE
  8
0
 10
155.142868
 20
17.000015
 11
153.542847
 21
17.000015
  0
LINE
  8
0
 10
155.142868
 20
21.200016
 11
153.542847
 21
21.200016
  0
LINE
  8
0
 10
155.643097
 20
20.700171
 11
155.143097
 21
21.200172
  0
LINE
  8
0
 10
156.142838
 20
20.700008
 11
155.642853
 21
20.700008
  0
LINE
  8
0
 10
156.142853
 20
17.500023
 11
156.142853
 21
10.000000
  0
LINE
  8
0
 10
157.142868
 20
26.999979
 11
156.142853
 21
25.999969
  0
LINE
  8
0
 10
156.142838
 20
2.500000
 11
155.642853
 21
2.500000
  0
LINE
  8
0
 10
155.643082
 20
2.500174
 11
155.143082
 21
3.000165
  0
LINE
  8
0
 10
155.142868
 20
3.000010
 11
153.542847
 21
3.000010
  0
LINE
  8
0
 10
155.142868
 20
-1.200016
 11
153.542847
 21
-1.200016
  0
LINE
  8
0
 10
155.643066
 20
-0.700158
 11
155.143066
 21
-1.200160
  0
LINE
  8
0
 10
156.142838
 20
-0.700006
 11
155.642853
 21
-0.700006
  0
LINE
  8
0
 10
156.142853
 20
2.500023
 11
156.142853
 21
10.000000
  0
LINE
  8
0
 10
157.142792
 20
-7.000097
 11
156.142792
 21
-6.000095
  0
LINE
  8
0
 10
103.142868
 20
-6.999992
 11
103.142868
 21
-50.000000
  0
LINE
  8
0
 10
157.142853
 20
-6.999992
 11
157.142853
 21
-27.849991
  0
LINE
  8
0
 10
103.142807
 20
-50.000038
 11
105.142807
 21
-52.000042
  0
LINE
  8
0
 10
155.142853
 20
-51.999958
 11
157.142853
 21
-49.999966
  0
LINE
  8
0
 10
103.142883
 20
69.999985
 11
105.142876
 21
71.999977
  0
LINE
  8
0
 10
155.142715
 20
71.999931
 11
157.142731
 21
69.999916
  0
LINE
  8
0
 10
154.142838
 20
-27.850014
 11
157.142853
 21
-27.850014
  0
LINE
  8
0
 10
154.142838
 20
-34.149998
 11
157.142853
 21
-34.149998
  0
LINE
  8
0
 10
148.642853
 20
-25.850002
 11
154.142838
 21
-25.850002
  0
LINE
  8
0
 10
148.642853
 20
-36.149990
 11
154.142838
 21
-36.149990
  0
LINE
  8
0
 10
148.642853
 20
-25.850002
 11
148.642853
 21
-36.149990
  0
LINE
  8
0
 10
154.142853
 20
-25.850002
 11
154.142853
 21
-27.849991
  0
LINE
  8
0
 10
157.142853
 20
-34.150021
 11
157.142853
 21
-50.000000
  0
LINE
  8
0
 10
154.142853
 20
-34.149979
 11
154.142853
 21
-36.149990
  0
LINE
  8
0
 10
103.142792
 20
26.999960
 11
104.142815
 21
25.999931
  0
LINE
  8
0
  6
CENTER
 62
     2
 10
110.142868
 20
67.999992
 11
110.142868
 21
57.999992
  0
LINE
  8
0
  6
CENTER
 62
     2
 10
105.142868
 20
62.999992
 11
115.142868
 21
62.999992
  0
LINE
  8
0
 10
128.642853
 20
72.000015
 11
128.642853
 21
66.401764
  0
LINE
  8
0
 10
131.642838
 20
72.000015
 11
131.642838
 21
66.401764
  0
LINE
  8
0
 10
131.642838
 20
-52.000015
 11
131.642838
 21
-46.401760
  0
LINE
  8
0
 10
128.642853
 20
-52.000015
 11
128.642853
 21
-46.401760
  0
LINE
  8
0
 10
105.142868
 20
53.650017
 11
105.142868
 21
48.350021
  0
LINE
  8
0
 10
155.142853
 20
54.150002
 11
155.142853
 21
47.850014
  0
LINE
  8
0
 10
105.142868
 20
21.200016
 11
105.142868
 21
17.000015
  0
LINE
  8
0
 10
105.142868
 20
2.999987
 11
105.142868
 21
-1.200016
  0
LINE
  8
0
 10
155.142853
 20
2.999987
 11
155.142853
 21
-1.200016
  0
LINE
  8
0
 10
155.142853
 20
-27.850014
 11
155.142853
 21
-34.149998
  0
LINE
  8
0
 10
155.142853
 20
21.200016
 11
155.142853
 21
17.000015
  0
LINE
  8
0
 10
106.142883
 20
55.150002
 11
106.142883
 21
53.650017
  0
LINE
  8
0
 10
103.142868
 20
53.650017
 11
106.142853
 21
53.650017
  0
LINE
  8
0
 10
103.142868
 20
70.000023
 11
103.142868
 21
53.650017
  0
LINE
  8
0
 10
110.642868
 20
55.150002
 11
110.642868
 21
46.849998
  0
LINE
  8
0
 10
106.142883
 20
48.350021
 11
106.142883
 21
46.849998
  0
LINE
  8
0
 10
103.142868
 20
48.350021
 11
106.142853
 21
48.350021
  0
LINE
  8
0
 10
103.142868
 20
48.350021
 11
103.142868
 21
26.999992
  0
LINE
  8
0
 10
157.142853
 20
70.000023
 11
157.142853
 21
54.150002
  0
LINE
  8
0
 10
154.142838
 20
54.150002
 11
157.142853
 21
54.150002
  0
LINE
  8
0
 10
154.142853
 20
54.150002
 11
154.142853
 21
56.149971
  0
LINE
  8
0
 10
148.642853
 20
56.149994
 11
154.142838
 21
56.149994
  0
LINE
  8
0
 10
148.642853
 20
45.850021
 11
148.642853
 21
56.149971
  0
LINE
  8
0
 10
148.642853
 20
45.850006
 11
154.142838
 21
45.850006
  0
LINE
  8
0
 10
154.142853
 20
45.850021
 11
154.142853
 21
47.850014
  0
LINE
  8
0
 10
154.142838
 20
47.850014
 11
157.142853
 21
47.850014
  0
LINE
  8
0
 10
157.142853
 20
47.850014
 11
157.142853
 21
26.999992
  0
LINE
  8
0
  6
DASHED
 62
     2
 10
117.394424
 20
-48.376217
 11
117.711456
 21
-52.000023
  0
LINE
  8
0
  6
DASHED
 62
     2
 10
116.242874
 20
-48.376213
 11
116.242874
 21
-52.000015
  0
LINE
  8
0
  6
DASHED
 62
     2
 10
108.042862
 20
-48.376213
 11
108.042862
 21
-52.000015
  0
LINE
  8
0
  6
DASHED
 62
     2
 10
106.891273
 20
-48.376209
 11
106.574234
 21
-51.999962
  0
LINE
  8
0
  6
CENTER
 62
     2
 10
110.142868
 20
45.100006
 11
110.142868
 21
26.900005
  0
LINE
  8
0
  6
CENTER
 62
     2
 10
150.142853
 20
67.999992
 11
150.142853
 21
57.999992
  0
LINE
  8
0
  6
CENTER
 62
     2
 10
155.142868
 20
62.999992
 11
145.142868
 21
62.999992
  0
LINE
  8
0
  6
CENTER
 62
     2
 10
110.142868
 20
-47.999985
 11
110.142868
 21
-37.999985
  0
LINE
  8
0
  6
CENTER
 62
     2
 10
105.142868
 20
-42.999985
 11
115.142868
 21
-42.999985
  0
LINE
  8
0
  6
CENTER
 62
     2
 10
150.142853
 20
-47.999985
 11
150.142853
 21
-37.999985
  0
LINE
  8
0
  6
CENTER
 62
     2
 10
155.142868
 20
-42.999985
 11
145.142868
 21
-42.999985
  0
LINE
  8
0
  6
CENTER
 62
     2
 10
112.142853
 20
-26.925919
 11
112.142853
 21
-32.969883
  0
LINE
  8
0
  6
CENTER
 62
     2
 10
109.152847
 20
-30.000000
 11
115.136993
 21
-30.000000
  0
LINE
  8
0
  6
CENTER
 62
     2
 10
106.142853
 20
51.000000
 11
113.150833
 21
51.000000
  0
LINE
  8
0
  6
CENTER
 62
     2
 10
145.625198
 20
51.000000
 11
154.142838
 21
51.000000
  0
LINE
  8
0
  6
CENTER
 62
     2
 10
145.402756
 20
-30.999996
 11
154.142838
 21
-30.999996
  0
LINE
  8
0
  6
CENTER
 62
     2
 10
112.142853
 20
-47.233536
 11
112.142853
 21
-54.503159
  0
LINE
  8
0
 10
104.142868
 20
32.394444
 11
104.142868
 21
20.700008
  0
LINE
  8
0
 10
156.142853
 20
-12.394436
 11
156.142853
 21
-0.699986
  0
LINE
  8
0
  6
CENTER
 62
     2
 10
130.142868
 20
74.803795
 11
130.142868
 21
-55.175583
  0
LINE
  8
0
  6
CENTER
 62
     2
 10
101.856293
 20
10.000000
 11
158.777283
 21
10.000000
  0
LINE
  8
0
  6
CENTER
 62
     2
 10
150.142853
 20
-6.899996
 11
150.142853
 21
-25.099995
  0
LINE
  8
0
  6
CENTER
 62
     2
 10
141.042847
 20
-15.999996
 11
159.242859
 21
-15.999996
  0
LINE
  8
0
 10
106.142853
 20
55.150002
 11
110.642868
 21
55.150002
  0
LINE
  8
0
 10
106.142853
 20
46.849998
 11
110.642868
 21
46.849998
  0
LINE
  8
0
 10
-194.250000
 20
132.600006
 11
194.800003
 21
132.600006
  0
LINE
  8
0
 10
194.800003
 20
132.600006
 11
194.800003
 21
-133.500000
  0
LINE
  8
0
 10
-194.250000
 20
132.600006
 11
-194.250000
 21
-133.500000
  0
LINE
  8
0
 10
-194.250000
 20
-133.500000
 11
194.800003
 21
-133.500000
  0
LINE
  8
0
 10
109.800003
 20
-118.500000
 11
109.800003
 21
-133.500000
  0
LINE
  8
0
 10
109.800003
 20
-118.500000
 11
194.800003
 21
-118.500000
  0
LINE
  8
0
 10
109.800003
 20
132.600006
 11
109.800003
 21
117.600006
  0
LINE
  8
0
 10
109.800003
 20
117.600006
 11
194.800003
 21
117.600006
  0
LINE
  8
0
 10
-194.250000
 20
117.600006
 11
-84.250000
 21
117.600006
  0
LINE
  8
0
 10
-84.250000
 20
132.600006
 11
-84.250000
 21
117.600006
  0
LINE
  8
0
 10
-184.250000
 20
-123.500000
 11
-39.250000
 21
-123.500000
  0
LINE
  8
0
 10
-184.250000
 20
-123.500000
 11
-184.250000
 21
-92.500000
  0
LINE
  8
0
 10
-184.250000
 20
-115.500000
 11
-39.250000
 21
-115.500000
  0
LINE
  8
0
 10
-184.250000
 20
-107.500000
 11
-39.250000
 21
-107.500000
  0
LINE
  8
0
 10
-159.250000
 20
-123.500000
 11
-159.250000
 21
-92.500000
  0
LINE
  8
0
 10
-135.250000
 20
-123.500000
 11
-135.250000
 21
-92.500000
  0
LINE
  8
0
 10
-147.250000
 20
-123.500000
 11
-147.250000
 21
-92.500000
  0
LINE
  8
0
 10
-123.250000
 20
-123.500000
 11
-123.250000
 21
-92.500000
  0
LINE
  8
0
 10
-111.250000
 20
-123.500000
 11
-111.250000
 21
-92.500000
  0
LINE
  8
0
 10
-99.250000
 20
-123.500000
 11
-99.250000
 21
-92.500000
  0
LINE
  8
0
 10
-159.250046
 20
-107.500015
 11
-161.929535
 21
-97.500023
  0
LINE
  8
0
 10
-184.250000
 20
-97.500000
 11
-161.929489
 21
-97.500000
  0
LINE
  8
0
 10
-184.250000
 20
-92.500000
 11
-39.250000
 21
-92.500000
  0
LINE
  8
0
 10
-87.250000
 20
-123.500000
 11
-87.250000
 21
-92.500000
  0
LINE
  8
0
 10
-75.250000
 20
-123.500000
 11
-75.250000
 21
-92.500000
  0
LINE
  8
0
 10
-63.250000
 20
-123.500000
 11
-63.250000
 21
-92.500000
  0
LINE
  8
0
 10
-51.250000
 20
-123.500000
 11
-51.250000
 21
-92.500000
  0
LINE
  8
0
 10
-39.250000
 20
-123.500000
 11
-39.250000
 21
-92.500000
  0
ARC
  8
0
 10
18.942863
 20
-14.999996
 40
6.000000
 50
45.573009
 51
89.999985
  0
ARC
  8
0
 10
18.942863
 20
-17.000000
 40
6.000000
 50
270.000031
 51
314.427002
  0
ARC
  8
0
 10
18.942863
 20
36.999996
 40
6.000000
 50
45.573013
 51
89.999985
  0
ARC
  8
0
 10
18.942863
 20
34.999996
 40
6.000000
 50
270.000031
 51
314.427002
  0
ARC
  8
0
 10
-55.357143
 20
10.000000
 40
8.000003
 50
331.044952
 51
28.955107
  0
CIRCLE
  8
0
 10
-38.857128
 20
35.999996
 40
5.500000
  0
CIRCLE
  8
0
 10
-18.857124
 20
35.999996
 40
5.500000
  0
CIRCLE
  8
0
  6
DASHED
 62
     2
 10
-18.857124
 20
35.999996
 40
4.000000
  0
CIRCLE
  8
0
  6
DASHED
 62
     2
 10
-38.857128
 20
35.999996
 40
4.000000
  0
CIRCLE
  8
0
 10
-18.857147
 20
-16.000017
 40
5.500000
  0
CIRCLE
  8
0
 10
-38.857147
 20
-16.000017
 40
5.500000
  0
CIRCLE
  8
0
  6
DASHED
 62
     2
 10
-38.857147
 20
-16.000017
 40
4.000000
  0
CIRCLE
  8
0
  6
DASHED
 62
     2
 10
-18.857147
 20
-16.000017
 40
4.000000
  0
CIRCLE
  8
0
 10
-38.857128
 20
35.999996
 40
3.400000
  0
CIRCLE
  8
0
 10
-18.857121
 20
35.999996
 40
3.400000
  0
CIRCLE
  8
0
 10
-38.857128
 20
-15.999996
 40
3.400000
  0
CIRCLE
  8
0
 10
-18.857121
 20
-15.999996
 40
3.400000
  0
CIRCLE
  8
0
 62
     2
 10
-31.857159
 20
-30.000023
 40
4.865000
  0
CIRCLE
  8
0
 10
-31.857159
 20
-30.000023
 40
4.285000
  0
CIRCLE
  8
0
 62
     2
 10
-4.857143
 20
-30.000023
 40
4.865000
  0
CIRCLE
  8
0
 10
-4.857143
 20
-30.000023
 40
4.285000
  0
ARC
  8
0
 10
47.742043
 20
21.691345
 40
6.900810
 50
325.616302
 51
0.000000
  0
ARC
  8
0
 10
58.548653
 20
19.093266
 40
4.094200
 50
312.239838
 51
0.000000
  0
ARC
  8
0
 10
58.736946
 20
19.093262
 40
4.094097
 50
179.999969
 51
227.761703
  0
ARC
  8
0
 10
47.742043
 20
-1.691345
 40
6.900810
 50
0.000000
 51
34.383698
  0
ARC
  8
0
 10
58.736946
 20
0.906738
 40
4.094098
 50
132.238312
 51
180.000015
  0
ARC
  8
0
 10
58.548653
 20
0.906734
 40
4.094200
 50
0.000000
 51
47.760174
  0
ARC
  8
0
 10
48.278976
 20
10.000002
 40
14.363873
 50
335.036346
 51
24.963640
  0
ARC
  8
0
 10
69.006287
 20
10.000001
 40
14.363431
 50
155.035553
 51
204.964432
  0
ARC
  8
0
 10
28.848160
 20
10.000004
 40
25.794687
 50
342.412384
 51
17.587635
  0
CIRCLE
  8
0
 10
-139.857147
 20
10.000000
 40
7.000000
  0
CIRCLE
  8
0
 10
-139.857147
 20
55.000000
 40
7.000000
  0
CIRCLE
  8
0
 10
-139.857147
 20
10.000000
 40
4.600000
  0
CIRCLE
  8
0
 10
-139.857147
 20
55.000000
 40
4.600000
  0
CIRCLE
  8
0
 10
-139.857147
 20
10.000000
 40
7.500000
  0
CIRCLE
  8
0
 10
-139.857147
 20
-35.000000
 40
7.500000
  0
CIRCLE
  8
0
 10
-139.857147
 20
55.000000
 40
7.500000
  0
CIRCLE
  8
0
 62
     2
 10
-122.857162
 20
63.000000
 40
4.000000
  0
CIRCLE
  8
0
 10
-122.857162
 20
63.000000
 40
3.375000
  0
CIRCLE
  8
0
 62
     2
 10
-122.857162
 20
-43.000000
 40
4.000000
  0
CIRCLE
  8
0
 10
-122.857162
 20
-43.000000
 40
3.375000
  0
CIRCLE
  8
0
 62
     2
 10
-156.857147
 20
63.000000
 40
4.000000
  0
CIRCLE
  8
0
 10
-156.857147
 20
63.000000
 40
3.375000
  0
CIRCLE
  8
0
 62
     2
 10
-156.857147
 20
-43.000000
 40
4.000000
  0
CIRCLE
  8
0
 10
-156.857147
 20
-43.000000
 40
3.375000
  0
CIRCLE
  8
0
 10
-139.857147
 20
-35.000000
 40
7.000000
  0
CIRCLE
  8
0
 10
-139.857147
 20
-35.000000
 40
4.600000
  0
CIRCLE
  8
0
 10
130.142853
 20
55.000000
 40
8.000000
  0
CIRCLE
  8
0
 10
130.142853
 20
-35.000000
 40
8.000000
  0
ARC
  8
0
 10
130.142868
 20
10.000000
 40
21.000000
 50
180.000000
 51
185.593475
  0
CIRCLE
  8
0
 10
110.142868
 20
36.000004
 40
7.000000
  0
CIRCLE
  8
0
 10
110.142868
 20
36.000004
 40
4.600000
  0
CIRCLE
  8
0
 10
150.142853
 20
-15.999996
 40
7.000000
  0
CIRCLE
  8
0
 10
150.142853
 20
-15.999996
 40
4.600000
  0
ARC
  8
0
 10
106.742859
 20
19.099998
 40
2.500000
 50
0.000000
 51
90.000000
  0
ARC
  8
0
 10
106.742859
 20
0.900002
 40
2.500000
 50
270.000000
 51
0.000000
  0
ARC
  8
0
 10
153.542877
 20
0.900002
 40
2.500000
 50
179.999985
 51
270.000000
  0
ARC
  8
0
 10
153.542877
 20
19.099998
 40
2.500000
 50
90.000000
 51
179.999954
  0
CIRCLE
  8
0
 10
130.142868
 20
10.000000
 40
10.500000
  0
CIRCLE
  8
0
 10
130.142868
 20
10.000000
 40
13.500000
  0
CIRCLE
  8
0
 10
130.142868
 20
10.000000
 40
7.000000
  0
CIRCLE
  8
0
 62
     2
 10
130.142868
 20
10.000000
 40
6.250000
  0
ARC
  8
0
 10
130.142868
 20
10.000000
 40
21.000002
 50
174.406509
 51
180.000015
  0
ARC
  8
0
 10
130.142868
 20
10.000000
 40
21.000002
 50
354.406494
 51
5.593511
  0
ARC
  8
0
 10
106.742859
 20
19.100018
 40
2.100000
 50
270.000000
 51
90.000000
  0
ARC
  8
0
 10
106.742859
 20
0.899986
 40
2.100000
 50
270.000000
 51
90.000000
  0
ARC
  8
0
 10
153.542877
 20
19.100018
 40
2.100000
 50
90.000000
 51
270.000000
  0
ARC
  8
0
 10
153.542877
 20
0.899986
 40
2.100000
 50
90.000000
 51
270.000000
  0
CIRCLE
  8
0
 62
     2
 10
110.142868
 20
62.999992
 40
4.000000
  0
CIRCLE
  8
0
 10
130.142868
 20
55.000000
 40
11.500002
  0
CIRCLE
  8
0
 10
130.142868
 20
-35.000000
 40
11.500002
  0
CIRCLE
  8
0
 10
110.142868
 20
62.999992
 40
3.375000
  0
CIRCLE
  8
0
 62
     2
 10
150.142853
 20
62.999992
 40
4.000000
  0
CIRCLE
  8
0
 10
150.142853
 20
62.999992
 40
3.375000
  0
CIRCLE
  8
0
 62
     2
 10
110.142868
 20
-42.999985
 40
4.000000
  0
CIRCLE
  8
0
 10
110.142868
 20
-42.999985
 40
3.375000
  0
CIRCLE
  8
0
 62
     2
 10
150.142853
 20
-42.999985
 40
4.000000
  0
CIRCLE
  8
0
 10
150.142853
 20
-42.999985
 40
3.375000
  0
CIRCLE
  8
0
 10
112.142853
 20
-30.000000
 40
1.500000
  0
TEXT
  8
0
 10
133.907150
 20
122.050003
 40
4.500000
  1
Ver. 1.0
 50
0.000000
 41
1.052631
 51
0.000000
  7
STANDARD
  0
TEXT
  8
0
 10
113.700279
 20
-130.669998
 40
6.300000
  1
KOGANEI CORP.
 50
0.000000
 41
1.052632
 51
0.000000
  7
STANDARD
  0
TEXT
  8
0
 10
-191.392654
 20
122.050003
 40
4.500000
  1
JIG CYLINDER WITH GUIDE
 50
0.000000
 41
1.052632
 51
0.000000
  7
STANDARD
  0
TEXT
  8
0
 10
-186.892654
 20
104.550003
 40
4.500000
  1
MODEL:SGDAPQ40*ST(10)
 50
0.000000
 41
1.052632
 51
0.000000
  7
STANDARD
  0
TEXT
  8
0
 62
     3
 10
-18.864290
 20
88.720009
 40
3.200000
  1
STRETCH LINE A
 50
0.000000
 41
1.052631
 51
0.000000
  7
STANDARD
  0
TEXT
  8
0
 62
     3
 10
-40.664146
 20
99.920006
 40
3.200000
  1
STRETCH LINE B
 50
0.000000
 41
1.052632
 51
0.000000
  7
STANDARD
  0
TEXT
  8
0
 10
-181.557144
 20
-96.879997
 40
3.200000
  1
STROKE
 50
0.000000
 41
1.052631
 51
0.000000
  7
STANDARD
  0
TEXT
  8
0
 10
-173.557144
 20
-113.379997
 40
3.200000
  1
A
 50
0.000000
 41
1.052631
 51
0.000000
  7
STANDARD
  0
TEXT
  8
0
 10
-184.496872
 20
-101.019997
 40
3.200000
  1
STRETCH
 50
0.000000
 41
1.052631
 51
0.000000
  7
STANDARD
  0
TEXT
  8
0
 10
-184.496872
 20
-105.820000
 40
3.200000
  1
  PLACE
 50
0.000000
 41
1.052631
 51
0.000000
  7
STANDARD
  0
TEXT
  8
0
 10
-156.657150
 20
-101.879997
 40
3.200000
  1
10
 50
0.000000
 41
1.052631
 51
0.000000
  7
STANDARD
  0
TEXT
  8
0
 10
-144.657150
 20
-101.879997
 40
3.200000
  1
20
 50
0.000000
 41
1.052631
 51
0.000000
  7
STANDARD
  0
TEXT
  8
0
 10
-132.657150
 20
-101.879997
 40
3.200000
  1
30
 50
0.000000
 41
1.052631
 51
0.000000
  7
STANDARD
  0
TEXT
  8
0
 10
-120.657158
 20
-101.879997
 40
3.200000
  1
50
 50
0.000000
 41
1.052631
 51
0.000000
  7
STANDARD
  0
TEXT
  8
0
 10
-108.657158
 20
-101.879997
 40
3.200000
  1
75
 50
0.000000
 41
1.052631
 51
0.000000
  7
STANDARD
  0
TEXT
  8
0
 10
-51.857143
 20
-91.379997
 40
3.200000
  1
(mm)
 50
0.000000
 41
1.052631
 51
0.000000
  7
STANDARD
  0
TEXT
  8
0
 10
-131.157135
 20
-91.379997
 40
3.200000
  1
STRETCH LIST
 50
0.000000
 41
1.052631
 51
0.000000
  7
STANDARD
  0
TEXT
  8
0
 10
-173.557007
 20
-121.379997
 40
3.200000
  1
B
 50
0.000000
 41
1.052632
 51
0.000000
  7
STANDARD
  0
TEXT
  8
0
 10
-98.257156
 20
-101.879997
 40
3.200000
  1
100
 50
0.000000
 41
1.052631
 51
0.000000
  7
STANDARD
  0
TEXT
  8
0
 10
-86.257156
 20
-101.879997
 40
3.200000
  1
125
 50
0.000000
 41
1.052631
 51
0.000000
  7
STANDARD
  0
TEXT
  8
0
 10
-74.257156
 20
-101.879997
 40
3.200000
  1
150
 50
0.000000
 41
1.052631
 51
0.000000
  7
STANDARD
  0
TEXT
  8
0
 10
-62.257156
 20
-101.879997
 40
3.200000
  1
175
 50
0.000000
 41
1.052631
 51
0.000000
  7
STANDARD
  0
TEXT
  8
0
 10
-50.257156
 20
-101.879997
 40
3.200000
  1
200
 50
0.000000
 41
1.052631
 51
0.000000
  7
STANDARD
  0
TEXT
  8
0
 10
-155.057007
 20
-113.379997
 40
3.200000
  1
0
 50
0.000000
 41
1.052632
 51
0.000000
  7
STANDARD
  0
TEXT
  8
0
 10
-143.057007
 20
-113.379997
 40
3.200000
  1
0
 50
0.000000
 41
1.052632
 51
0.000000
  7
STANDARD
  0
TEXT
  8
0
 10
-131.057007
 20
-113.379997
 40
3.200000
  1
0
 50
0.000000
 41
1.052632
 51
0.000000
  7
STANDARD
  0
TEXT
  8
0
 10
-119.056999
 20
-113.379997
 40
3.200000
  1
0
 50
0.000000
 41
1.052632
 51
0.000000
  7
STANDARD
  0
TEXT
  8
0
 10
-108.656998
 20
-113.379997
 40
3.200000
  1
25
 50
0.000000
 41
1.052632
 51
0.000000
  7
STANDARD
  0
TEXT
  8
0
 10
-96.656998
 20
-113.379997
 40
3.200000
  1
50
 50
0.000000
 41
1.052632
 51
0.000000
  7
STANDARD
  0
TEXT
  8
0
 10
-84.656998
 20
-113.379997
 40
3.200000
  1
25
 50
0.000000
 41
1.052632
 51
0.000000
  7
STANDARD
  0
TEXT
  8
0
 10
-72.656998
 20
-113.379997
 40
3.200000
  1
50
 50
0.000000
 41
1.052632
 51
0.000000
  7
STANDARD
  0
TEXT
  8
0
 10
-60.657001
 20
-113.379997
 40
3.200000
  1
75
 50
0.000000
 41
1.052632
 51
0.000000
  7
STANDARD
  0
TEXT
  8
0
 10
-50.257000
 20
-113.379997
 40
3.200000
  1
100
 50
0.000000
 41
1.052632
 51
0.000000
  7
STANDARD
  0
TEXT
  8
0
 10
-155.057007
 20
-121.379997
 40
3.200000
  1
0
 50
0.000000
 41
1.052632
 51
0.000000
  7
STANDARD
  0
TEXT
  8
0
 10
-144.656998
 20
-121.379997
 40
3.200000
  1
10
 50
0.000000
 41
1.052632
 51
0.000000
  7
STANDARD
  0
TEXT
  8
0
 10
-132.656998
 20
-121.379997
 40
3.200000
  1
20
 50
0.000000
 41
1.052632
 51
0.000000
  7
STANDARD
  0
TEXT
  8
0
 10
-120.656998
 20
-121.379997
 40
3.200000
  1
40
 50
0.000000
 41
1.052632
 51
0.000000
  7
STANDARD
  0
TEXT
  8
0
 10
-108.656998
 20
-121.379997
 40
3.200000
  1
40
 50
0.000000
 41
1.052632
 51
0.000000
  7
STANDARD
  0
TEXT
  8
0
 10
-96.656998
 20
-121.379997
 40
3.200000
  1
40
 50
0.000000
 41
1.052632
 51
0.000000
  7
STANDARD
  0
TEXT
  8
0
 10
-84.656998
 20
-121.379997
 40
3.200000
  1
90
 50
0.000000
 41
1.052632
 51
0.000000
  7
STANDARD
  0
TEXT
  8
0
 10
-72.656998
 20
-121.379997
 40
3.200000
  1
90
 50
0.000000
 41
1.052632
 51
0.000000
  7
STANDARD
  0
TEXT
  8
0
 10
-60.657001
 20
-121.379997
 40
3.200000
  1
90
 50
0.000000
 41
1.052632
 51
0.000000
  7
STANDARD
  0
TEXT
  8
0
 10
-48.657001
 20
-121.379997
 40
3.200000
  1
90
 50
0.000000
 41
1.052632
 51
0.000000
  7
STANDARD
  0
TEXT
  8
0
 62
     2
 10
45.609303
 20
-70.999992
 40
3.200000
  1
STROKE=75-200
 50
0.000000
 41
1.052632
 51
0.000000
  7
STANDARD
  0
LINE
  8
0
 62
     2
 10
40.142868
 20
-71.999992
 11
86.959305
 21
-71.999992
  0
LINE
  8
0
 62
     2
 10
40.142868
 20
-71.999992
 11
8.142838
 21
-71.999992
  0
LINE
  8
0
 62
     2
 10
40.142868
 20
-71.999992
 11
37.245090
 21
-72.776451
  0
LINE
  8
0
 62
     2
 10
40.142868
 20
-71.999992
 11
37.245090
 21
-71.223534
  0
LINE
  8
0
 62
     2
 10
8.142838
 20
-71.999992
 11
11.040615
 21
-71.223534
  0
LINE
  8
0
 62
     2
 10
8.142838
 20
-71.999992
 11
11.040615
 21
-72.776451
  0
LINE
  8
0
 62
     2
 10
40.142868
 20
-44.500000
 11
40.142868
 21
-73.499992
  0
LINE
  8
0
 62
     2
 10
8.142838
 20
-51.499985
 11
8.142838
 21
-73.499992
  0
ENDSEC
  0
EOF
