  0
SECTION
  2
HEADER
  0
ENDSEC
  0
SECTION
  2
TABLES
  0
TABLE
  2
LTYPE
 70
     4
  0
LTYPE
  2
CONTINUOUS
 70
    64
  3
Solid line
 72
    65
 73
     0
 40
0.000000
  0
LTYPE
  2
DASHED
 70
    64
  3
__ __ __ __ __ __ __ __ __ __ __ __ __ __ __
 72
    65
 73
     2
 40
3.500000
 49
2.000000
 49
-1.500000
  0
LTYPE
  2
CENTER
 70
    64
  3
____ _ ____ _ ____ _ ____ _ ____ _ ____ _ ____
 72
    65
 73
     4
 40
17.500000
 49
13.000000
 49
-1.500000
 49
1.500000
 49
-1.500000
  0
LTYPE
  2
PHANTOM
 70
    64
  3
_____ _ _ _____ _ _ _____ _ _ _____ _ _ ____  
 72
    65
 73
     6
 40
15.500000
 49
8.000000
 49
-1.500000
 49
1.500000
 49
-1.500000
 49
1.500000
 49
-1.500000
  0
LTYPE
  2
DASHED1
 70
    64
  3
__ __ __ __ __ __ __ __ __ __ __ __ __ __ __
 72
    65
 73
     2
 40
1.500000
 49
1.000000
 49
-0.500000
  0
LTYPE
  2
DASHED2
 70
    64
  3
__ __ __ __ __ __ __ __ __ __ __ __ __ __ __
 72
    65
 73
     2
 40
3.500000
 49
2.500000
 49
-1.000000
  0
LTYPE
  2
DASHED3
 70
    64
  3
__ __ __ __ __ __ __ __ __ __ __ __ __ __ __
 72
    65
 73
     2
 40
6.000000
 49
4.000000
 49
-2.000000
  0
LTYPE
  2
DASHED4
 70
    64
  3
__ __ __ __ __ __ __ __ __ __ __ __ __ __ __
 72
    65
 73
     2
 40
12.000000
 49
10.000000
 49
-2.000000
  0
LTYPE
  2
DASHED5
 70
    64
  3
__ __ __ __ __ __ __ __ __ __ __ __ __ __ __
 72
    65
 73
     2
 40
17.000000
 49
15.000000
 49
-2.000000
  0
LTYPE
  2
DASHED6
 70
    64
  3
__ __ __ __ __ __ __ __ __ __ __ __ __ __ __
 72
    65
 73
     2
 40
29.000000
 49
27.000000
 49
-2.000000
  0
LTYPE
  2
PHANTOM1
 70
    64
  3
_____ _ _ _____ _ _ _____ _ _ _____ _ _ ____  
 72
    65
 73
     6
 40
31.000000
 49
25.000000
 49
-1.500000
 49
1.000000
 49
-1.000000
 49
1.000000
 49
-1.500000
  0
LTYPE
  2
PHANTOM2
 70
    64
  3
_____ _ _ _____ _ _ _____ _ _ _____ _ _ ____  
 72
    65
 73
     6
 40
36.000000
 49
27.000000
 49
-1.500000
 49
2.500000
 49
-1.000000
 49
2.500000
 49
-1.500000
  0
LTYPE
  2
PHANTOM3
 70
    64
  3
_____ _ _ _____ _ _ _____ _ _ _____ _ _ ____  
 72
    65
 73
     6
 40
78.000000
 49
64.000000
 49
-2.000000
 49
4.000000
 49
-2.000000
 49
4.000000
 49
-2.000000
  0
LTYPE
  2
CENTER1
 70
    64
  3
____ _ ____ _ ____ _ ____ _ ____ _ ____ _ ____
 72
    65
 73
     4
 40
19.000000
 49
14.000000
 49
-1.000000
 49
3.000000
 49
-1.000000
  0
LTYPE
  2
CENTER2
 70
    64
  3
____ _ ____ _ ____ _ ____ _ ____ _ ____ _ ____
 72
    65
 73
     4
 40
28.500000
 49
25.000000
 49
-1.000000
 49
1.500000
 49
-1.000000
  0
LTYPE
  2
CENTER3
 70
    64
  3
____ _ ____ _ ____ _ ____ _ ____ _ ____ _ ____
 72
    65
 73
     4
 40
31.500000
 49
27.000000
 49
-1.000000
 49
2.500000
 49
-1.000000
  0
LTYPE
  2
CENTER4
 70
    64
  3
____ _ ____ _ ____ _ ____ _ ____ _ ____ _ ____
 72
    65
 73
     4
 40
50.000000
 49
45.000000
 49
-1.000000
 49
3.000000
 49
-1.000000
  0
LTYPE
  2
CENTER5
 70
    64
  3
____ _ ____ _ ____ _ ____ _ ____ _ ____ _ ____
 72
    65
 73
     4
 40
100.000000
 49
92.000000
 49
-2.000000
 49
4.000000
 49
-2.000000
  0
LTYPE
  2
SBK1
 70
    64
  3
______ _ _ _ ______ _ _ _ ______ _ _ _ _____  
 72
    65
 73
     8
 40
60.500000
 49
45.000000
 49
-2.000000
 49
2.500000
 49
-2.000000
 49
2.500000
 49
-2.000000
 49
2.500000
 49
-2.000000
  0
LTYPE
  2
SBK2
 70
    64
  3
______ _ _ _ ______ _ _ _ ______ _ _ _ _____  
 72
    65
 73
     8
 40
84.000000
 49
64.000000
 49
-2.000000
 49
4.000000
 49
-2.000000
 49
4.000000
 49
-2.000000
 49
4.000000
 49
-2.000000
  0
LTYPE
  2
STCH
 70
    64
  3
__ __ __ __ __ __ __ __ __ __ __ __ __ __ __
 72
    65
 73
     2
 40
3.000000
 49
1.000000
 49
-2.000000
  0
LTYPE
  2
MTCH
 70
    64
  3
_____ _ _ _____ _ _ _____ _ _ _____ _ _ ____  
 72
    65
 73
     6
 40
80.000000
 49
66.000000
 49
-2.000000
 49
4.000000
 49
-2.000000
 49
4.000000
 49
-2.000000
  0
ENDTAB
  0
TABLE
  2
LAYER
 70
     1
  0
LAYER
  2
0
 70
     0
 62
     7
  6
CONTINUOUS
  0
ENDTAB
  0
TABLE
  2
STYLE
 70
     1
  0
STYLE
  2
STANDARD
 70
     0
 40
0.000000
 41
1.000000
 50
0.000000
 71
     0
 42
0.200000
  3
txt
  4
BIGFONT
  0
ENDTAB
  0
TABLE
  2
VIEW
 70
     0
  0
ENDTAB
  0
ENDSEC
  0
SECTION
  2
BLOCKS
  0
ENDSEC
  0
SECTION
  2
ENTITIES
  0
LINE
  8
0
  6
DASHED
 62
     2
 10
14.714333
 20
-21.999994
 11
50.214333
 21
-21.999994
  0
LINE
  8
0
  6
DASHED
 62
     2
 10
14.714333
 20
-38.000000
 11
50.214333
 21
-38.000000
  0
LINE
  8
0
  6
DASHED
 62
     2
 10
50.714325
 20
-22.500015
 11
50.714325
 21
-37.500004
  0
LINE
  8
0
  6
DASHED
 62
     2
 10
50.214314
 20
-22.000013
 11
50.714306
 21
-22.500000
  0
LINE
  8
0
  6
DASHED
 62
     2
 10
50.714310
 20
-37.499981
 11
50.214310
 21
-37.999977
  0
LINE
  8
0
  6
DASHED
 62
     2
 10
50.214325
 20
-21.999994
 11
50.214325
 21
-38.000000
  0
LINE
  8
0
  6
DASHED
 62
     2
 10
14.714333
 20
58.000000
 11
50.214333
 21
58.000000
  0
LINE
  8
0
  6
DASHED
 62
     2
 10
14.714333
 20
41.999992
 11
50.214333
 21
41.999992
  0
LINE
  8
0
  6
DASHED
 62
     2
 10
50.714325
 20
57.500008
 11
50.714325
 21
42.499992
  0
LINE
  8
0
  6
DASHED
 62
     2
 10
50.214287
 20
57.999962
 11
50.714283
 21
57.499969
  0
LINE
  8
0
  6
DASHED
 62
     2
 10
50.714325
 20
42.499992
 11
50.214325
 21
41.999992
  0
LINE
  8
0
  6
DASHED
 62
     2
 10
50.214325
 20
58.000000
 11
50.214325
 21
41.999992
  0
LINE
  8
0
 10
24.714317
 20
38.999992
 11
24.714317
 21
-19.000000
  0
LINE
  8
0
 10
24.714317
 20
2.000000
 11
34.714310
 21
2.000000
  0
LINE
  8
0
 10
34.714310
 20
-3.999998
 11
37.214310
 21
-3.999998
  0
LINE
  8
0
 10
34.714310
 20
23.999996
 11
34.714310
 21
-4.000002
  0
LINE
  8
0
 10
37.214310
 20
23.999996
 11
37.214310
 21
-3.850002
  0
LINE
  8
0
 10
37.214310
 20
-3.500000
 11
49.214310
 21
-3.500000
  0
LINE
  8
0
 10
49.214310
 20
2.205772
 11
60.008545
 21
2.205772
  0
LINE
  8
0
 10
49.214310
 20
-5.588455
 11
60.008545
 21
-5.588455
  0
LINE
  8
0
 10
60.008595
 20
-5.588446
 11
61.214355
 21
-3.500007
  0
LINE
  8
0
 10
49.214310
 20
25.588455
 11
49.214310
 21
-5.588457
  0
LINE
  8
0
 10
61.214294
 20
23.500050
 11
61.214294
 21
-3.500006
  0
LINE
  8
0
 10
62.556290
 20
3.937824
 11
67.872360
 21
3.937824
  0
LINE
  8
0
 10
62.556290
 20
-2.124350
 11
67.872360
 21
-2.124350
  0
LINE
  8
0
 10
67.872375
 20
-2.124359
 11
69.214340
 21
0.199992
  0
LINE
  8
0
 10
61.214367
 20
0.200031
 11
62.556335
 21
-2.124327
  0
LINE
  8
0
 10
69.214310
 20
19.800045
 11
69.214310
 21
0.200003
  0
LINE
  8
0
 10
73.214287
 20
15.999996
 11
73.214287
 21
3.999996
  0
LINE
  8
0
 10
69.214310
 20
3.000000
 11
72.214310
 21
3.000000
  0
LINE
  8
0
 10
73.214317
 20
3.999992
 11
72.214317
 21
2.999999
  0
LINE
  8
0
 62
     2
 10
69.214310
 20
3.750000
 11
72.964310
 21
3.750000
  0
LINE
  8
0
 62
     2
 10
72.214310
 20
17.000004
 11
72.214310
 21
3.000000
  0
LINE
  8
0
 10
24.714317
 20
39.000000
 11
25.514305
 21
39.000000
  0
LINE
  8
0
 10
25.514305
 20
38.999992
 11
25.514305
 21
25.000000
  0
LINE
  8
0
 10
29.714310
 20
37.284851
 11
29.714310
 21
26.715145
  0
LINE
  8
0
 10
24.714317
 20
25.000000
 11
25.514305
 21
25.000000
  0
LINE
  8
0
 10
24.714317
 20
-19.000000
 11
25.514305
 21
-19.000000
  0
LINE
  8
0
 10
24.714317
 20
-5.000000
 11
25.514305
 21
-5.000000
  0
LINE
  8
0
 10
29.714310
 20
-6.715151
 11
29.714310
 21
-17.284863
  0
LINE
  8
0
 10
25.514305
 20
-5.000002
 11
25.514305
 21
-19.000000
  0
LINE
  8
0
 10
24.714317
 20
18.000000
 11
34.714310
 21
18.000000
  0
LINE
  8
0
 10
34.714310
 20
24.000000
 11
37.214310
 21
24.000000
  0
LINE
  8
0
 10
49.214310
 20
25.588455
 11
60.008545
 21
25.588455
  0
LINE
  8
0
 10
37.214310
 20
23.500004
 11
49.214310
 21
23.500004
  0
LINE
  8
0
 10
49.214310
 20
17.794228
 11
60.008545
 21
17.794228
  0
LINE
  8
0
 10
60.008598
 20
25.588446
 11
61.214355
 21
23.500015
  0
LINE
  8
0
 10
62.556290
 20
16.062176
 11
67.872360
 21
16.062176
  0
LINE
  8
0
 10
62.556290
 20
22.124352
 11
67.872360
 21
22.124352
  0
LINE
  8
0
 10
67.872406
 20
22.124369
 11
69.214378
 21
19.800005
  0
LINE
  8
0
 10
61.214355
 20
19.799978
 11
62.556332
 21
22.124348
  0
LINE
  8
0
 10
69.214310
 20
17.000004
 11
72.214310
 21
17.000004
  0
LINE
  8
0
 10
73.214287
 20
15.999966
 11
72.214287
 21
16.999968
  0
LINE
  8
0
 62
     2
 10
69.214310
 20
16.250000
 11
72.964310
 21
16.250000
  0
LINE
  8
0
 10
14.714333
 20
38.500000
 11
24.714317
 21
38.500000
  0
LINE
  8
0
 10
14.714333
 20
-18.500000
 11
24.714317
 21
-18.500000
  0
LINE
  8
0
 10
14.714333
 20
-4.499979
 11
24.714317
 21
-4.499979
  0
LINE
  8
0
 10
14.714333
 20
24.500057
 11
24.714317
 21
24.500057
  0
LINE
  8
0
 10
-39.285717
 20
17.999989
 11
-35.285717
 21
17.999989
  0
LINE
  8
0
 10
-39.285717
 20
1.999992
 11
-35.285717
 21
1.999992
  0
LINE
  8
0
  6
CENTER
 62
     2
 10
-57.290894
 20
-30.000000
 11
-31.599930
 21
-30.000000
  0
LINE
  8
0
 10
-53.285748
 20
-45.999996
 11
-40.285683
 21
-45.999996
  0
LINE
  8
0
 10
-39.285717
 20
-45.000000
 11
-39.285717
 21
65.000046
  0
LINE
  8
0
 10
-53.285713
 20
66.000000
 11
-40.285717
 21
66.000000
  0
LINE
  8
0
 10
-54.285713
 20
65.000000
 11
-54.285713
 21
-45.000000
  0
LINE
  8
0
  6
CENTER
 62
     2
 10
-57.290894
 20
50.000000
 11
-31.599930
 21
50.000000
  0
LINE
  8
0
 10
-39.285717
 20
6.127014
 11
-37.785717
 21
6.127014
  0
LINE
  8
0
 10
-37.785717
 20
6.127014
 11
-37.785717
 21
13.872967
  0
LINE
  8
0
 10
-37.785679
 20
6.127052
 11
-39.285713
 21
11.936648
  0
LINE
  8
0
 10
-37.785679
 20
13.872868
 11
-39.285656
 21
8.063481
  0
LINE
  8
0
 10
-53.285618
 20
65.999886
 11
-54.285625
 21
64.999878
  0
LINE
  8
0
 10
-40.285698
 20
66.000092
 11
-39.285671
 21
65.000061
  0
LINE
  8
0
 10
-54.285770
 20
-45.000076
 11
-53.285767
 21
-46.000092
  0
LINE
  8
0
 10
-39.285763
 20
-45.000011
 11
-40.285740
 21
-46.000004
  0
LINE
  8
0
 10
-35.285740
 20
40.349998
 11
14.714310
 21
40.349998
  0
LINE
  8
0
 10
-35.285732
 20
45.649986
 11
14.714310
 21
45.649986
  0
LINE
  8
0
 10
-34.298691
 20
66.999992
 11
13.727295
 21
66.999992
  0
LINE
  8
0
 10
-35.285740
 20
22.500023
 11
14.714310
 21
22.500023
  0
LINE
  8
0
 10
-35.285740
 20
20.700008
 11
14.714310
 21
20.700008
  0
LINE
  8
0
 10
-35.285740
 20
17.500000
 11
14.714310
 21
17.500000
  0
LINE
  8
0
 10
13.727296
 20
67.000061
 11
14.714302
 21
66.013062
  0
LINE
  8
0
 10
-34.298565
 20
66.999878
 11
-35.285557
 21
66.012894
  0
LINE
  8
0
  6
CENTER
 62
     2
 10
-21.395615
 20
31.999992
 11
-35.047268
 21
31.999992
  0
LINE
  8
0
 10
-39.285717
 20
13.872879
 11
-37.785717
 21
13.872879
  0
LINE
  8
0
 10
-35.285717
 20
64.999939
 11
14.714333
 21
64.999939
  0
LINE
  8
0
  6
CENTER
 62
     2
 10
75.834297
 20
10.000000
 11
-57.030212
 21
10.000000
  0
LINE
  8
0
 10
-34.298691
 20
-47.000015
 11
13.727295
 21
-47.000015
  0
LINE
  8
0
 10
-35.285721
 20
-4.500013
 11
14.714294
 21
-4.500013
  0
LINE
  8
0
 10
-35.285721
 20
-2.500044
 11
14.714302
 21
-2.500044
  0
LINE
  8
0
 10
-35.285721
 20
-0.700006
 11
14.714294
 21
-0.700006
  0
LINE
  8
0
 10
-35.285721
 20
2.500000
 11
14.714294
 21
2.500000
  0
LINE
  8
0
 10
-35.285717
 20
66.012947
 11
-35.285717
 21
-45.986961
  0
LINE
  8
0
 10
13.727346
 20
-47.000050
 11
14.714351
 21
-46.013054
  0
LINE
  8
0
 10
-34.298656
 20
-46.999931
 11
-35.285645
 21
-46.012951
  0
LINE
  8
0
  6
CENTER
 62
     2
 10
-28.285725
 20
-5.208702
 11
-28.285725
 21
-18.707722
  0
LINE
  8
0
  6
CENTER
 62
     2
 10
-21.424278
 20
-11.999990
 11
-34.958000
 21
-11.999990
  0
LINE
  8
0
  6
CENTER
 62
     2
 10
-8.285736
 20
-5.486317
 11
-8.285736
 21
-18.638319
  0
LINE
  8
0
  6
DASHED
 62
     2
 10
-21.285717
 20
-45.999973
 11
-29.285736
 21
-45.999973
  0
LINE
  8
0
  6
DASHED
 62
     2
 10
-30.285744
 20
-47.000008
 11
-29.285734
 21
-46.000004
  0
LINE
  8
0
  6
DASHED
 62
     2
 10
-29.285744
 20
-45.999996
 11
-29.285744
 21
-42.860218
  0
LINE
  8
0
  6
DASHED
 62
     2
 10
-30.285624
 20
-47.000038
 11
-30.068665
 21
-42.860207
  0
LINE
  8
0
  6
DASHED
 62
     2
 10
-21.285713
 20
-45.999996
 11
-21.285713
 21
-42.860218
  0
LINE
  8
0
  6
DASHED
 62
     2
 10
-20.285583
 20
-46.999981
 11
-20.502541
 21
-42.860207
  0
LINE
  8
0
  6
DASHED
 62
     2
 10
-20.285793
 20
-47.000103
 11
-21.285801
 21
-46.000092
  0
LINE
  8
0
  6
CENTER
 62
     2
 10
-22.285728
 20
-32.148155
 11
-22.285728
 21
-18.638319
  0
LINE
  8
0
  6
CENTER
 62
     2
 10
-16.010788
 20
-25.000000
 11
-28.503456
 21
-25.000000
  0
LINE
  8
0
  6
CENTER
 62
     2
 10
9.265339
 20
-25.000000
 11
-3.448715
 21
-25.000000
  0
LINE
  8
0
  6
CENTER
 62
     2
 10
2.714287
 20
-32.021507
 11
2.714287
 21
-18.655199
  0
LINE
  8
0
  6
CENTER
 62
     2
 10
-0.455063
 20
-12.000013
 11
-15.177940
 21
-12.000013
  0
LINE
  8
0
  6
CENTER
 62
     2
 10
-10.285706
 20
-41.610947
 11
-10.285706
 21
-49.366585
  0
LINE
  8
0
  6
DASHED
 62
     2
 10
-15.285663
 20
-47.000023
 11
-15.068704
 21
-42.860210
  0
LINE
  8
0
  6
DASHED
 62
     2
 10
-14.285721
 20
-45.999996
 11
-14.285721
 21
-42.860218
  0
LINE
  8
0
  6
DASHED
 62
     2
 10
-6.285706
 20
-45.999973
 11
-14.285721
 21
-45.999973
  0
LINE
  8
0
  6
DASHED
 62
     2
 10
-15.285744
 20
-47.000000
 11
-14.285731
 21
-45.999989
  0
LINE
  8
0
  6
DASHED
 62
     2
 10
-5.285806
 20
-47.000099
 11
-6.285795
 21
-46.000111
  0
LINE
  8
0
  6
DASHED
 62
     2
 10
-6.285698
 20
-45.999996
 11
-6.285698
 21
-42.860218
  0
LINE
  8
0
  6
DASHED
 62
     2
 10
-5.285595
 20
-47.000023
 11
-5.502554
 21
-42.860214
  0
LINE
  8
0
  6
CENTER
 62
     2
 10
-25.285740
 20
-48.239464
 11
-25.285740
 21
-41.749760
  0
LINE
  8
0
 10
-35.285721
 20
-45.000000
 11
14.714294
 21
-45.000000
  0
LINE
  8
0
 10
14.714294
 20
66.013008
 11
14.714294
 21
-46.013008
  0
LINE
  8
0
  6
CENTER
 62
     2
 10
-8.285698
 20
39.357239
 11
-8.285698
 21
25.380257
  0
LINE
  8
0
  6
CENTER
 62
     2
 10
-28.285702
 20
39.510719
 11
-28.285702
 21
25.380257
  0
LINE
  8
0
  6
CENTER
 62
     2
 10
-14.993992
 20
31.999992
 11
-0.676765
 21
31.999992
  0
LINE
  8
0
 10
-39.285717
 20
57.999977
 11
-35.285717
 21
57.999977
  0
LINE
  8
0
 10
-39.285717
 20
41.999985
 11
-35.285717
 21
41.999985
  0
LINE
  8
0
 10
-39.285717
 20
-22.000023
 11
-35.285717
 21
-22.000023
  0
LINE
  8
0
 10
-39.285717
 20
-38.000023
 11
-35.285717
 21
-38.000023
  0
LINE
  8
0
  6
PHANTOM
 62
     3
 10
-18.285713
 20
86.999992
 11
-18.285713
 21
-17.180000
  0
LINE
  8
0
  6
PHANTOM
 62
     3
 10
0.714287
 20
76.999992
 11
0.714287
 21
-19.080002
  0
LINE
  8
0
  6
PHANTOM
 62
     3
 10
-18.285713
 20
-17.180000
 11
-14.285709
 21
-17.180000
  0
LINE
  8
0
  6
PHANTOM
 62
     3
 10
-5.285709
 20
-19.080002
 11
-5.285709
 21
-35.180000
  0
LINE
  8
0
  6
PHANTOM
 62
     3
 10
-14.285709
 20
-17.180000
 11
-14.285709
 21
-32.180000
  0
LINE
  8
0
  6
PHANTOM
 62
     3
 10
-5.285709
 20
-19.080002
 11
0.714287
 21
-19.080002
  0
LINE
  8
0
  6
PHANTOM
 62
     3
 10
-16.285709
 20
-35.180000
 11
-5.285709
 21
-35.180000
  0
LINE
  8
0
  6
PHANTOM
 62
     3
 10
-16.285709
 20
-35.180000
 11
-16.285709
 21
-54.000015
  0
LINE
  8
0
  6
PHANTOM
 62
     3
 10
-18.785713
 20
-32.180000
 11
-14.285709
 21
-32.180000
  0
LINE
  8
0
  6
PHANTOM
 62
     3
 10
-18.785713
 20
-32.180000
 11
-18.785713
 21
-54.000015
  0
LINE
  8
0
 10
-120.285736
 20
64.999939
 11
-120.285736
 21
45.649998
  0
LINE
  8
0
  6
CENTER
 62
     2
 10
-118.466202
 20
10.000020
 11
-170.328217
 21
10.000020
  0
LINE
  8
0
 10
-122.285675
 20
22.500008
 11
-120.285683
 21
24.499998
  0
LINE
  8
0
 10
-122.285744
 20
-2.500041
 11
-120.373055
 21
-4.412724
  0
LINE
  8
0
 10
-120.285751
 20
45.649998
 11
-122.285751
 21
45.649998
  0
LINE
  8
0
 10
-120.285751
 20
40.350010
 11
-122.285751
 21
40.350010
  0
LINE
  8
0
 10
-120.285736
 20
40.350010
 11
-120.285736
 21
24.499947
  0
LINE
  8
0
 10
-166.285690
 20
22.500074
 11
-168.285660
 21
24.500042
  0
LINE
  8
0
 10
-166.285767
 20
-2.500018
 11
-168.198456
 21
-4.412700
  0
LINE
  8
0
 10
-168.285721
 20
64.999916
 11
-168.285721
 21
45.649998
  0
LINE
  8
0
 10
-168.285721
 20
40.350010
 11
-168.285721
 21
24.499947
  0
LINE
  8
0
 10
-168.285721
 20
-45.000069
 11
-168.285721
 21
-25.649960
  0
LINE
  8
0
 10
-168.285721
 20
-20.349972
 11
-168.285721
 21
-4.500058
  0
LINE
  8
0
 10
-122.285751
 20
67.000015
 11
-166.285767
 21
67.000015
  0
LINE
  8
0
 10
-122.285721
 20
-46.999973
 11
-166.285751
 21
-46.999973
  0
LINE
  8
0
 10
-168.285675
 20
-44.999958
 11
-166.285675
 21
-46.999962
  0
LINE
  8
0
 10
-168.285629
 20
64.999863
 11
-166.285645
 21
66.999855
  0
LINE
  8
0
 10
-120.285751
 20
-45.000027
 11
-122.285744
 21
-47.000027
  0
LINE
  8
0
 10
-120.285873
 20
64.999985
 11
-122.285873
 21
66.999977
  0
LINE
  8
0
 10
-120.285736
 20
-45.000069
 11
-120.285736
 21
-4.500058
  0
LINE
  8
0
 10
-168.285736
 20
45.649998
 11
-166.285736
 21
45.649998
  0
LINE
  8
0
 10
-168.285736
 20
40.350010
 11
-166.285736
 21
40.350010
  0
LINE
  8
0
 10
-168.285736
 20
-25.649960
 11
-166.285736
 21
-25.649960
  0
LINE
  8
0
 10
-168.285736
 20
-20.349972
 11
-166.285736
 21
-20.349972
  0
LINE
  8
0
 10
-165.285736
 20
66.000023
 11
-123.285736
 21
66.000023
  0
LINE
  8
0
 10
-165.285736
 20
-45.999981
 11
-123.285736
 21
-45.999981
  0
LINE
  8
0
 10
-165.285660
 20
65.999947
 11
-166.285645
 21
64.999954
  0
LINE
  8
0
 10
-123.285645
 20
66.000092
 11
-122.285637
 21
65.000099
  0
LINE
  8
0
 10
-166.285706
 20
-44.999935
 11
-165.285690
 21
-45.999943
  0
LINE
  8
0
 10
-122.285751
 20
-44.999954
 11
-123.285751
 21
-45.999958
  0
LINE
  8
0
  6
CENTER
 62
     2
 10
-130.285736
 20
-43.579884
 11
-130.285736
 21
-32.111980
  0
LINE
  8
0
  6
CENTER
 62
     2
 10
-152.860168
 20
58.000019
 11
-163.661346
 21
58.000019
  0
LINE
  8
0
  6
CENTER
 62
     2
 10
-158.285736
 20
-43.579884
 11
-158.285736
 21
-32.111980
  0
LINE
  8
0
  6
CENTER
 62
     2
 10
-152.860168
 20
-37.999981
 11
-163.661346
 21
-37.999981
  0
LINE
  8
0
 10
-144.285751
 20
-27.113140
 11
-146.785797
 21
-28.556532
  0
LINE
  8
0
 10
-146.785736
 20
-28.556602
 11
-146.785736
 21
-31.443359
  0
LINE
  8
0
 10
-144.285767
 20
-32.886826
 11
-146.785767
 21
-31.443453
  0
LINE
  8
0
 10
-141.785797
 20
-31.443316
 11
-144.285797
 21
-32.886688
  0
LINE
  8
0
 10
-141.785736
 20
-28.556606
 11
-141.785736
 21
-31.443359
  0
LINE
  8
0
 10
-144.285782
 20
-27.113289
 11
-141.785782
 21
-28.556664
  0
LINE
  8
0
 10
-146.785736
 20
51.443401
 11
-146.785736
 21
48.556644
  0
LINE
  8
0
 10
-144.285767
 20
47.113251
 11
-146.785767
 21
48.556622
  0
LINE
  8
0
 10
-141.785812
 20
48.556740
 11
-144.285828
 21
47.113361
  0
LINE
  8
0
 10
-141.785736
 20
51.443394
 11
-141.785736
 21
48.556644
  0
LINE
  8
0
 10
-144.285721
 20
52.886738
 11
-141.785751
 21
51.443375
  0
LINE
  8
0
 10
-144.285782
 20
52.886887
 11
-146.785797
 21
51.443508
  0
LINE
  8
0
 10
-146.785736
 20
11.443398
 11
-146.785736
 21
8.556642
  0
LINE
  8
0
 10
-144.285797
 20
7.113225
 11
-146.785797
 21
8.556597
  0
LINE
  8
0
 10
-141.785797
 20
8.556717
 11
-144.285797
 21
7.113345
  0
LINE
  8
0
 10
-141.785736
 20
11.443395
 11
-141.785736
 21
8.556642
  0
LINE
  8
0
 10
-144.285782
 20
12.886727
 11
-141.785782
 21
11.443353
  0
LINE
  8
0
 10
-144.285782
 20
12.886863
 11
-146.785797
 21
11.443484
  0
LINE
  8
0
 10
-166.285736
 20
65.000023
 11
-166.285736
 21
-44.999981
  0
LINE
  8
0
 10
-122.285751
 20
65.000023
 11
-122.285751
 21
-44.999981
  0
LINE
  8
0
  6
CENTER
 62
     2
 10
-144.285736
 20
71.250023
 11
-144.285736
 21
-51.449692
  0
LINE
  8
0
  6
CENTER
 62
     2
 10
-158.285736
 20
63.259922
 11
-158.285736
 21
52.598431
  0
LINE
  8
0
  6
CENTER
 62
     2
 10
-130.285736
 20
63.428257
 11
-130.285736
 21
52.486210
  0
LINE
  8
0
  6
CENTER
 62
     2
 10
-135.673691
 20
58.000019
 11
-124.899994
 21
58.000019
  0
LINE
  8
0
  6
CENTER
 62
     2
 10
-153.012634
 20
50.000019
 11
-135.280914
 21
50.000019
  0
LINE
  8
0
  6
CENTER
 62
     2
 10
-153.243118
 20
-29.999981
 11
-135.239624
 21
-29.999981
  0
LINE
  8
0
  6
CENTER
 62
     2
 10
-135.666824
 20
-37.999981
 11
-124.559570
 21
-37.999981
  0
LINE
  8
0
 10
155.214264
 20
-13.443380
 11
155.214264
 21
-10.556631
  0
LINE
  8
0
 10
150.214264
 20
-13.443380
 11
150.214264
 21
-10.556631
  0
LINE
  8
0
 10
152.714233
 20
-14.886805
 11
155.214249
 21
-13.443414
  0
LINE
  8
0
 10
150.214249
 20
-10.556690
 11
152.714294
 21
-9.113292
  0
LINE
  8
0
 10
152.714264
 20
-9.113167
 11
155.214294
 21
-10.556568
  0
LINE
  8
0
 10
150.214279
 20
-13.443308
 11
152.714279
 21
-14.886689
  0
LINE
  8
0
 10
116.214233
 20
30.556622
 11
116.214233
 21
33.443375
  0
LINE
  8
0
 10
116.214233
 20
33.443336
 11
118.714272
 21
34.886734
  0
LINE
  8
0
 10
118.714317
 20
34.886894
 11
121.214317
 21
33.443520
  0
LINE
  8
0
 10
121.214233
 20
30.556622
 11
121.214233
 21
33.443375
  0
LINE
  8
0
 10
118.714272
 20
29.113239
 11
121.214310
 21
30.556637
  0
LINE
  8
0
 10
116.214256
 20
30.556732
 11
118.714256
 21
29.113359
  0
LINE
  8
0
 10
159.214218
 20
-4.499975
 11
155.114227
 21
-4.499975
  0
LINE
  8
0
 10
152.614227
 20
22.000057
 11
152.614227
 21
-1.999979
  0
LINE
  8
0
 10
159.214218
 20
24.500065
 11
155.114227
 21
24.500065
  0
LINE
  8
0
 10
159.214264
 20
-4.499979
 11
159.214264
 21
-9.401937
  0
LINE
  8
0
 10
112.214279
 20
38.500000
 11
112.214279
 21
34.598175
  0
LINE
  8
0
 10
159.214264
 20
38.500000
 11
159.214264
 21
24.500057
  0
LINE
  8
0
 10
122.214279
 20
17.794224
 11
122.214279
 21
2.205769
  0
LINE
  8
0
 10
149.214264
 20
17.794224
 11
149.214264
 21
2.205769
  0
LINE
  8
0
 10
122.214203
 20
17.794134
 11
135.714218
 21
25.588371
  0
LINE
  8
0
 10
135.714264
 20
-5.588550
 11
149.214279
 21
2.205687
  0
LINE
  8
0
 10
135.714294
 20
25.588566
 11
149.214294
 21
17.794331
  0
LINE
  8
0
 10
122.214218
 20
2.205816
 11
135.714233
 21
-5.588420
  0
LINE
  8
0
 10
125.214233
 20
16.062176
 11
125.214233
 21
3.937817
  0
LINE
  8
0
 10
146.214249
 20
16.062176
 11
146.214249
 21
3.937824
  0
LINE
  8
0
 10
125.214279
 20
16.062180
 11
135.714294
 21
22.124367
  0
LINE
  8
0
 10
135.714279
 20
-2.124429
 11
146.214264
 21
3.937735
  0
LINE
  8
0
 10
135.714340
 20
22.124435
 11
146.214294
 21
16.062279
  0
LINE
  8
0
 10
125.214287
 20
3.937898
 11
135.714264
 21
-2.124265
  0
LINE
  8
0
 10
112.214279
 20
-18.500000
 11
150.116165
 21
-18.500000
  0
LINE
  8
0
 10
112.214279
 20
38.500000
 11
116.116165
 21
38.500000
  0
LINE
  8
0
 10
118.814346
 20
22.000057
 11
118.814346
 21
-1.999979
  0
LINE
  8
0
 10
112.214355
 20
24.500065
 11
116.314346
 21
24.500065
  0
LINE
  8
0
 10
112.214355
 20
-4.499975
 11
116.314346
 21
-4.499975
  0
LINE
  8
0
 10
135.714294
 20
38.500000
 11
159.214264
 21
38.500000
  0
LINE
  8
0
 10
112.214279
 20
-4.499975
 11
112.214279
 21
-18.500000
  0
LINE
  8
0
 10
111.714279
 20
65.000023
 11
111.714279
 21
45.650024
  0
LINE
  8
0
  6
CENTER
 62
     2
 10
109.614235
 20
32.000004
 11
127.814232
 21
32.000004
  0
LINE
  8
0
 10
113.714294
 20
17.500000
 11
114.214279
 21
17.500000
  0
LINE
  8
0
 10
114.214302
 20
17.500019
 11
114.714302
 21
17.000017
  0
LINE
  8
0
 10
114.714294
 20
16.999992
 11
116.314285
 21
16.999992
  0
LINE
  8
0
 10
114.714294
 20
21.199997
 11
116.314285
 21
21.199997
  0
LINE
  8
0
 10
114.214195
 20
20.700117
 11
114.714203
 21
21.200130
  0
LINE
  8
0
 10
113.714294
 20
20.699986
 11
114.214279
 21
20.699986
  0
LINE
  8
0
 10
113.714256
 20
22.500006
 11
111.714272
 21
24.499985
  0
LINE
  8
0
 10
113.714294
 20
2.500000
 11
114.214279
 21
2.500000
  0
LINE
  8
0
 10
114.214233
 20
2.500068
 11
114.714249
 21
3.000083
  0
LINE
  8
0
 10
114.714294
 20
3.000008
 11
116.314285
 21
3.000008
  0
LINE
  8
0
 10
114.714294
 20
-1.199993
 11
116.314285
 21
-1.199993
  0
LINE
  8
0
 10
114.214272
 20
-0.700007
 11
114.714272
 21
-1.200013
  0
LINE
  8
0
 10
113.714294
 20
-0.700006
 11
114.214279
 21
-0.700006
  0
LINE
  8
0
 10
113.714294
 20
22.500065
 11
113.714294
 21
-2.499977
  0
LINE
  8
0
 10
113.714272
 20
-2.500012
 11
111.801582
 21
-4.412687
  0
LINE
  8
0
 10
119.214310
 20
47.150009
 11
119.214310
 21
39.000031
  0
LINE
  8
0
 10
114.714294
 20
47.150009
 11
114.714294
 21
45.650024
  0
LINE
  8
0
 10
111.714279
 20
45.650002
 11
114.714294
 21
45.650002
  0
LINE
  8
0
 10
111.714279
 20
40.349998
 11
114.714294
 21
40.349998
  0
LINE
  8
0
 10
111.714279
 20
40.350014
 11
111.714279
 21
24.500015
  0
LINE
  8
0
 10
114.714294
 20
40.350014
 11
114.714294
 21
38.850006
  0
LINE
  8
0
 10
157.714279
 20
17.500000
 11
157.214279
 21
17.500000
  0
LINE
  8
0
 10
157.214401
 20
17.499910
 11
156.714417
 21
16.999918
  0
LINE
  8
0
 10
156.714264
 20
16.999992
 11
155.114273
 21
16.999992
  0
LINE
  8
0
 10
156.714279
 20
21.199997
 11
155.114273
 21
21.199997
  0
LINE
  8
0
 10
157.214493
 20
20.700190
 11
156.714493
 21
21.200201
  0
LINE
  8
0
 10
157.714279
 20
20.699986
 11
157.214279
 21
20.699986
  0
LINE
  8
0
 10
157.714340
 20
22.500031
 11
159.714340
 21
24.500013
  0
LINE
  8
0
 10
157.714279
 20
2.500000
 11
157.214279
 21
2.500000
  0
LINE
  8
0
 10
157.214264
 20
2.499992
 11
156.714249
 21
3.000002
  0
LINE
  8
0
 10
156.714264
 20
3.000008
 11
155.114273
 21
3.000008
  0
LINE
  8
0
 10
156.714264
 20
-1.199993
 11
155.114273
 21
-1.199993
  0
LINE
  8
0
 10
157.214340
 20
-0.700040
 11
156.714355
 21
-1.200027
  0
LINE
  8
0
 10
157.714279
 20
-0.700006
 11
157.214279
 21
-0.700006
  0
LINE
  8
0
 10
157.714279
 20
22.500088
 11
157.714279
 21
-2.500000
  0
LINE
  8
0
 10
157.714447
 20
-2.499903
 11
159.627151
 21
-4.412592
  0
LINE
  8
0
 10
159.714279
 20
65.000023
 11
159.714279
 21
45.650024
  0
LINE
  8
0
 10
159.714279
 20
40.350014
 11
159.714279
 21
24.500015
  0
LINE
  8
0
 10
159.714279
 20
-44.999977
 11
159.714279
 21
-25.649979
  0
LINE
  8
0
 10
159.714279
 20
-20.349972
 11
159.714279
 21
-4.499990
  0
LINE
  8
0
 10
113.714294
 20
66.999992
 11
157.714279
 21
66.999992
  0
LINE
  8
0
 10
113.714279
 20
-47.000015
 11
157.714279
 21
-47.000015
  0
LINE
  8
0
 10
159.714218
 20
-44.999928
 11
157.714233
 21
-46.999924
  0
LINE
  8
0
 10
159.714401
 20
65.000076
 11
157.714401
 21
67.000092
  0
LINE
  8
0
 10
111.714325
 20
-44.999981
 11
113.714302
 21
-46.999969
  0
LINE
  8
0
 10
111.714302
 20
64.999962
 11
113.714317
 21
66.999977
  0
LINE
  8
0
 10
111.714279
 20
-44.999977
 11
111.714279
 21
-4.499969
  0
LINE
  8
0
  6
CENTER
 62
     2
 10
122.315063
 20
-30.000000
 11
149.133652
 21
-30.000000
  0
LINE
  8
0
  6
CENTER
 62
     2
 10
118.714233
 20
41.100006
 11
118.714233
 21
22.900005
  0
LINE
  8
0
  6
CENTER
 62
     2
 10
147.558685
 20
-40.000000
 11
158.829300
 21
-40.000000
  0
LINE
  8
0
  6
CENTER
 62
     2
 10
152.714279
 20
-34.710400
 11
152.714279
 21
-45.281647
  0
LINE
  8
0
  6
CENTER
 62
     2
 10
147.451248
 20
60.000000
 11
158.829285
 21
60.000000
  0
LINE
  8
0
 62
     2
 10
152.714279
 20
66.115028
 11
152.714279
 21
53.885017
  0
LINE
  8
0
  6
CENTER
 62
     2
 10
113.489014
 20
60.000000
 11
123.980759
 21
60.000000
  0
LINE
  8
0
  6
CENTER
 62
     2
 10
118.714294
 20
66.115028
 11
118.714294
 21
53.885017
  0
LINE
  8
0
  6
CENTER
 62
     2
 10
115.671692
 20
-25.000000
 11
121.567780
 21
-25.000000
  0
LINE
  8
0
  6
CENTER
 62
     2
 10
122.027023
 20
50.000000
 11
149.626495
 21
50.000000
  0
LINE
  8
0
  6
CENTER
 62
     2
 10
118.714294
 20
-49.114967
 11
118.714294
 21
-34.794300
  0
LINE
  8
0
 10
152.214279
 20
47.150009
 11
152.214279
 21
38.850006
  0
LINE
  8
0
 10
156.714279
 20
40.349998
 11
156.714279
 21
38.850006
  0
LINE
  8
0
 10
159.714279
 20
40.349998
 11
156.714264
 21
40.349998
  0
LINE
  8
0
 10
159.714279
 20
45.650002
 11
156.714264
 21
45.650002
  0
LINE
  8
0
 10
156.714279
 20
47.150009
 11
156.714279
 21
45.650024
  0
LINE
  8
0
 10
159.714279
 20
-25.650002
 11
156.714264
 21
-25.650002
  0
LINE
  8
0
 10
156.714279
 20
-27.150009
 11
156.714279
 21
-25.649979
  0
LINE
  8
0
 10
152.214279
 20
-27.150009
 11
152.214279
 21
-18.999981
  0
LINE
  8
0
 10
156.714279
 20
-20.349993
 11
156.714279
 21
-18.850008
  0
LINE
  8
0
 10
159.714279
 20
-20.349993
 11
156.714264
 21
-20.349993
  0
LINE
  8
0
  6
DASHED
 62
     2
 10
113.714211
 20
-47.000008
 11
113.931168
 21
-42.860214
  0
LINE
  8
0
  6
DASHED
 62
     2
 10
114.714294
 20
-45.999973
 11
114.714294
 21
-42.860218
  0
LINE
  8
0
  6
DASHED
 62
     2
 10
122.714279
 20
-45.999973
 11
114.714294
 21
-45.999973
  0
LINE
  8
0
  6
DASHED
 62
     2
 10
113.714249
 20
-46.999935
 11
114.714241
 21
-45.999947
  0
LINE
  8
0
  6
DASHED
 62
     2
 10
123.714165
 20
-47.000137
 11
122.714157
 21
-46.000130
  0
LINE
  8
0
  6
DASHED
 62
     2
 10
122.714279
 20
-45.999973
 11
122.714279
 21
-42.860218
  0
LINE
  8
0
  6
DASHED
 62
     2
 10
123.714272
 20
-47.000023
 11
123.497314
 21
-42.860214
  0
LINE
  8
0
  6
CENTER
 62
     2
 10
152.714279
 20
66.187096
 11
152.714279
 21
53.985970
  0
LINE
  8
0
 10
134.214279
 20
-41.401737
 11
134.214279
 21
-46.999992
  0
LINE
  8
0
 10
137.214279
 20
-41.401737
 11
137.214279
 21
-46.999992
  0
LINE
  8
0
 10
137.214279
 20
61.401787
 11
137.214279
 21
67.000038
  0
LINE
  8
0
 10
134.214279
 20
61.401787
 11
134.214279
 21
67.000038
  0
LINE
  8
0
  6
CENTER
 62
     2
 10
114.714294
 20
43.000008
 11
121.607437
 21
43.000008
  0
LINE
  8
0
  6
CENTER
 62
     2
 10
156.714264
 20
43.000008
 11
149.656631
 21
43.000008
  0
LINE
  8
0
  6
CENTER
 62
     2
 10
156.714264
 20
-23.000008
 11
149.463196
 21
-23.000008
  0
LINE
  8
0
  6
CENTER
 62
     2
 10
118.714294
 20
-27.689426
 11
118.714294
 21
-22.262924
  0
LINE
  8
0
 10
157.714279
 20
45.650024
 11
157.714279
 21
40.350014
  0
LINE
  8
0
 10
113.714294
 20
45.650024
 11
113.714294
 21
40.349998
  0
LINE
  8
0
 10
157.714279
 20
-20.349972
 11
157.714279
 21
-25.649979
  0
LINE
  8
0
 10
159.214264
 20
-14.598068
 11
159.214264
 21
-18.500000
  0
LINE
  8
0
 10
155.312347
 20
-18.500000
 11
159.214264
 21
-18.500000
  0
LINE
  8
0
 10
121.312302
 20
38.500000
 11
135.714294
 21
38.500000
  0
LINE
  8
0
 10
112.214279
 20
29.401829
 11
112.214279
 21
24.500065
  0
LINE
  8
0
  6
CENTER
 62
     2
 10
123.983109
 20
-40.000000
 11
113.635605
 21
-40.000000
  0
LINE
  8
0
  6
CENTER
 62
     2
 10
135.714294
 20
71.230034
 11
135.714294
 21
-51.229988
  0
LINE
  8
0
  6
CENTER
 62
     2
 10
107.484283
 20
10.000000
 11
163.944275
 21
10.000000
  0
LINE
  8
0
  6
CENTER
 62
     2
 10
143.614258
 20
-12.000004
 11
161.814270
 21
-12.000004
  0
LINE
  8
0
  6
CENTER
 62
     2
 10
152.714264
 20
-2.900003
 11
152.714264
 21
-21.100002
  0
LINE
  8
0
 10
114.714294
 20
47.150009
 11
119.214310
 21
47.150009
  0
LINE
  8
0
 10
114.714294
 20
38.850006
 11
117.272896
 21
38.850006
  0
LINE
  8
0
 10
156.714264
 20
38.850006
 11
152.214279
 21
38.850006
  0
LINE
  8
0
 10
156.714264
 20
47.150009
 11
152.214279
 21
47.150009
  0
LINE
  8
0
 10
156.714264
 20
-18.850008
 11
154.155594
 21
-18.850008
  0
LINE
  8
0
 10
156.714264
 20
-27.150009
 11
152.214279
 21
-27.150009
  0
LINE
  8
0
 10
-194.250000
 20
132.600006
 11
194.800003
 21
132.600006
  0
LINE
  8
0
 10
194.800003
 20
132.600006
 11
194.800003
 21
-133.500000
  0
LINE
  8
0
 10
-194.250000
 20
132.600006
 11
-194.250000
 21
-133.500000
  0
LINE
  8
0
 10
-194.250000
 20
-133.500000
 11
194.800003
 21
-133.500000
  0
LINE
  8
0
 10
109.800003
 20
-118.500000
 11
109.800003
 21
-133.500000
  0
LINE
  8
0
 10
109.800003
 20
-118.500000
 11
194.800003
 21
-118.500000
  0
LINE
  8
0
 10
109.800003
 20
132.600006
 11
109.800003
 21
117.600006
  0
LINE
  8
0
 10
109.800003
 20
117.600006
 11
194.800003
 21
117.600006
  0
LINE
  8
0
 10
-194.250000
 20
117.600006
 11
-84.250000
 21
117.600006
  0
LINE
  8
0
 10
-84.250000
 20
132.600006
 11
-84.250000
 21
117.600006
  0
LINE
  8
0
 10
-184.250000
 20
-123.500000
 11
-39.250000
 21
-123.500000
  0
LINE
  8
0
 10
-184.250000
 20
-123.500000
 11
-184.250000
 21
-92.500000
  0
LINE
  8
0
 10
-184.250000
 20
-115.500000
 11
-39.250000
 21
-115.500000
  0
LINE
  8
0
 10
-184.250000
 20
-107.500000
 11
-39.250000
 21
-107.500000
  0
LINE
  8
0
 10
-159.250000
 20
-123.500000
 11
-159.250000
 21
-92.500000
  0
LINE
  8
0
 10
-135.250000
 20
-123.500000
 11
-135.250000
 21
-92.500000
  0
LINE
  8
0
 10
-147.250000
 20
-123.500000
 11
-147.250000
 21
-92.500000
  0
LINE
  8
0
 10
-123.250000
 20
-123.500000
 11
-123.250000
 21
-92.500000
  0
LINE
  8
0
 10
-111.250000
 20
-123.500000
 11
-111.250000
 21
-92.500000
  0
LINE
  8
0
 10
-99.250000
 20
-123.500000
 11
-99.250000
 21
-92.500000
  0
LINE
  8
0
 10
-159.250046
 20
-107.500015
 11
-161.929535
 21
-97.500023
  0
LINE
  8
0
 10
-184.250000
 20
-97.500000
 11
-161.929489
 21
-97.500000
  0
LINE
  8
0
 10
-184.250000
 20
-92.500000
 11
-39.250000
 21
-92.500000
  0
LINE
  8
0
 10
-87.250000
 20
-123.500000
 11
-87.250000
 21
-92.500000
  0
LINE
  8
0
 10
-75.250000
 20
-123.500000
 11
-75.250000
 21
-92.500000
  0
LINE
  8
0
 10
-63.250000
 20
-123.500000
 11
-63.250000
 21
-92.500000
  0
LINE
  8
0
 10
-51.250000
 20
-123.500000
 11
-51.250000
 21
-92.500000
  0
LINE
  8
0
 10
-39.250000
 20
-123.500000
 11
-39.250000
 21
-92.500000
  0
ARC
  8
0
 10
25.514305
 20
33.000000
 40
6.000000
 50
45.573013
 51
89.999985
  0
ARC
  8
0
 10
25.514305
 20
31.000004
 40
6.000000
 50
270.000031
 51
314.427002
  0
ARC
  8
0
 10
25.514305
 20
-13.000000
 40
6.000000
 50
270.000031
 51
314.427002
  0
ARC
  8
0
 10
25.514305
 20
-11.000000
 40
6.000000
 50
45.573009
 51
89.999985
  0
ARC
  8
0
 10
-44.785713
 20
10.000000
 40
7.999995
 50
331.045044
 51
28.954950
  0
CIRCLE
  8
0
 10
-28.285702
 20
31.999992
 40
5.500000
  0
CIRCLE
  8
0
 10
-8.285698
 20
31.999992
 40
5.500000
  0
CIRCLE
  8
0
 10
-28.285725
 20
-11.999990
 40
5.500000
  0
CIRCLE
  8
0
 10
-8.285736
 20
-12.000013
 40
5.500000
  0
CIRCLE
  8
0
 62
     2
 10
2.714287
 20
-25.000000
 40
4.865000
  0
CIRCLE
  8
0
 62
     2
 10
-22.285728
 20
-25.000000
 40
4.865000
  0
CIRCLE
  8
0
 10
-22.285728
 20
-25.000000
 40
4.285000
  0
CIRCLE
  8
0
 10
2.714287
 20
-25.000000
 40
4.285000
  0
CIRCLE
  8
0
 10
-28.285702
 20
31.999992
 40
3.400000
  0
CIRCLE
  8
0
  6
DASHED
 62
     2
 10
-28.285702
 20
31.999992
 40
4.000000
  0
CIRCLE
  8
0
 10
-8.285694
 20
31.999992
 40
3.400000
  0
CIRCLE
  8
0
  6
DASHED
 62
     2
 10
-8.285694
 20
31.999992
 40
4.000000
  0
CIRCLE
  8
0
 10
-28.285702
 20
-11.999992
 40
3.400000
  0
CIRCLE
  8
0
  6
DASHED
 62
     2
 10
-28.285702
 20
-11.999992
 40
4.000000
  0
CIRCLE
  8
0
 10
-8.285694
 20
-11.999992
 40
3.400000
  0
CIRCLE
  8
0
  6
DASHED
 62
     2
 10
-8.285694
 20
-11.999992
 40
4.000000
  0
ARC
  8
0
 10
54.313484
 20
21.691345
 40
6.900810
 50
325.616302
 51
0.000000
  0
ARC
  8
0
 10
65.120239
 20
19.093264
 40
4.094070
 50
312.237854
 51
0.000000
  0
ARC
  8
0
 10
65.308365
 20
19.093264
 40
4.094070
 50
179.999969
 51
227.762115
  0
ARC
  8
0
 10
54.313484
 20
-1.691345
 40
6.900810
 50
0.000000
 51
34.383698
  0
ARC
  8
0
 10
65.308365
 20
0.906736
 40
4.094069
 50
132.237885
 51
180.000015
  0
ARC
  8
0
 10
65.120239
 20
0.906736
 40
4.094070
 50
0.000000
 51
47.762131
  0
ARC
  8
0
 10
35.419609
 20
10.000004
 40
25.794687
 50
342.412384
 51
17.587635
  0
ARC
  8
0
 10
54.851021
 20
10.000000
 40
14.363289
 50
335.035248
 51
24.964739
  0
ARC
  8
0
 10
75.577583
 20
10.000000
 40
14.363286
 50
155.035278
 51
204.964706
  0
CIRCLE
  8
0
 10
-144.285736
 20
10.000020
 40
7.000000
  0
CIRCLE
  8
0
 10
-144.285736
 20
50.000019
 40
7.000000
  0
CIRCLE
  8
0
 10
-144.285736
 20
10.000020
 40
4.600000
  0
CIRCLE
  8
0
 10
-144.285736
 20
50.000019
 40
4.600000
  0
CIRCLE
  8
0
 10
-144.285736
 20
10.000020
 40
7.500000
  0
CIRCLE
  8
0
 10
-144.285736
 20
-29.999981
 40
7.500000
  0
CIRCLE
  8
0
 10
-144.285736
 20
50.000019
 40
7.500000
  0
CIRCLE
  8
0
 62
     2
 10
-130.285736
 20
58.000019
 40
4.000000
  0
CIRCLE
  8
0
 10
-130.285736
 20
58.000019
 40
3.375000
  0
CIRCLE
  8
0
 62
     2
 10
-130.285736
 20
-37.999981
 40
4.000000
  0
CIRCLE
  8
0
 10
-130.285736
 20
-37.999981
 40
3.375000
  0
CIRCLE
  8
0
 62
     2
 10
-158.285736
 20
58.000019
 40
4.000000
  0
CIRCLE
  8
0
 10
-158.285736
 20
58.000019
 40
3.375000
  0
CIRCLE
  8
0
 62
     2
 10
-158.285736
 20
-37.999981
 40
4.000000
  0
CIRCLE
  8
0
 10
-158.285736
 20
-37.999981
 40
3.375000
  0
CIRCLE
  8
0
 10
-144.285736
 20
-29.999981
 40
7.000000
  0
CIRCLE
  8
0
 10
-144.285736
 20
-29.999981
 40
4.600000
  0
CIRCLE
  8
0
 10
135.714294
 20
-30.000000
 40
8.000000
  0
CIRCLE
  8
0
 10
135.714294
 20
50.000000
 40
8.000000
  0
CIRCLE
  8
0
 10
152.714264
 20
-12.000004
 40
7.000000
  0
CIRCLE
  8
0
 10
152.714264
 20
-12.000004
 40
4.600000
  0
CIRCLE
  8
0
 10
118.714233
 20
32.000004
 40
4.600000
  0
CIRCLE
  8
0
 10
118.714233
 20
32.000004
 40
7.000000
  0
ARC
  8
0
 10
155.114227
 20
-1.999975
 40
2.500000
 50
179.999969
 51
270.000000
  0
ARC
  8
0
 10
155.114227
 20
22.000065
 40
2.500000
 50
90.000000
 51
179.999954
  0
CIRCLE
  8
0
 10
135.714294
 20
10.000000
 40
7.000000
  0
CIRCLE
  8
0
 62
     2
 10
135.714294
 20
10.000000
 40
6.250000
  0
CIRCLE
  8
0
 10
135.714294
 20
10.000000
 40
13.500000
  0
CIRCLE
  8
0
 10
135.714294
 20
10.000000
 40
10.500000
  0
ARC
  8
0
 10
116.314346
 20
22.000065
 40
2.500000
 50
0.000000
 51
90.000000
  0
ARC
  8
0
 10
116.314346
 20
-1.999975
 40
2.500000
 50
270.000000
 51
0.000000
  0
ARC
  8
0
 10
116.314285
 20
19.099995
 40
2.100000
 50
270.000000
 51
90.000000
  0
ARC
  8
0
 10
116.314285
 20
0.900007
 40
2.100000
 50
270.000000
 51
90.000000
  0
ARC
  8
0
 10
155.114273
 20
19.099995
 40
2.100000
 50
90.000000
 51
270.000000
  0
ARC
  8
0
 10
155.114273
 20
0.900007
 40
2.100000
 50
90.000000
 51
270.000000
  0
CIRCLE
  8
0
 10
135.714294
 20
-30.000000
 40
11.500001
  0
CIRCLE
  8
0
 62
     2
 10
152.714279
 20
-40.000000
 40
4.000000
  0
CIRCLE
  8
0
 62
     2
 10
152.714279
 20
60.000000
 40
4.000000
  0
CIRCLE
  8
0
 62
     2
 10
118.714294
 20
60.000000
 40
4.000000
  0
CIRCLE
  8
0
 10
135.714294
 20
50.000000
 40
11.500001
  0
CIRCLE
  8
0
 10
118.714294
 20
-25.000000
 40
1.500000
  0
CIRCLE
  8
0
 62
     2
 10
118.714294
 20
-40.000000
 40
4.000000
  0
CIRCLE
  8
0
 10
118.714294
 20
60.000000
 40
3.375000
  0
CIRCLE
  8
0
 10
152.714294
 20
60.000000
 40
3.375000
  0
CIRCLE
  8
0
 10
118.714294
 20
-40.000000
 40
3.375000
  0
CIRCLE
  8
0
 10
152.714294
 20
-40.000000
 40
3.375000
  0
TEXT
  8
0
 10
133.907150
 20
122.050003
 40
4.500000
  1
Ver. 1.0
 50
0.000000
 41
1.052631
 51
0.000000
  7
STANDARD
  0
TEXT
  8
0
 10
113.700279
 20
-130.669998
 40
6.300000
  1
KOGANEI CORP.
 50
0.000000
 41
1.052632
 51
0.000000
  7
STANDARD
  0
TEXT
  8
0
 10
-191.392654
 20
122.050003
 40
4.500000
  1
JIG CYLINDER WITH GUIDE
 50
0.000000
 41
1.052632
 51
0.000000
  7
STANDARD
  0
TEXT
  8
0
 10
-186.892654
 20
104.550003
 40
4.500000
  1
MODEL:SGDAPQ32*ST(10)
 50
0.000000
 41
1.052632
 51
0.000000
  7
STANDARD
  0
TEXT
  8
0
 62
     3
 10
-13.292856
 20
79.720009
 40
3.200000
  1
STRETCH LINE A
 50
0.000000
 41
1.052631
 51
0.000000
  7
STANDARD
  0
TEXT
  8
0
 62
     3
 10
-30.092714
 20
89.920006
 40
3.200000
  1
STRETCH LINE B
 50
0.000000
 41
1.052632
 51
0.000000
  7
STANDARD
  0
TEXT
  8
0
 10
-181.557144
 20
-96.879997
 40
3.200000
  1
STROKE
 50
0.000000
 41
1.052631
 51
0.000000
  7
STANDARD
  0
TEXT
  8
0
 10
-173.557144
 20
-113.379997
 40
3.200000
  1
A
 50
0.000000
 41
1.052631
 51
0.000000
  7
STANDARD
  0
TEXT
  8
0
 10
-184.496872
 20
-101.019997
 40
3.200000
  1
STRETCH
 50
0.000000
 41
1.052631
 51
0.000000
  7
STANDARD
  0
TEXT
  8
0
 10
-184.496872
 20
-105.820000
 40
3.200000
  1
  PLACE
 50
0.000000
 41
1.052631
 51
0.000000
  7
STANDARD
  0
TEXT
  8
0
 10
-156.657150
 20
-101.879997
 40
3.200000
  1
10
 50
0.000000
 41
1.052631
 51
0.000000
  7
STANDARD
  0
TEXT
  8
0
 10
-144.657150
 20
-101.879997
 40
3.200000
  1
20
 50
0.000000
 41
1.052631
 51
0.000000
  7
STANDARD
  0
TEXT
  8
0
 10
-132.657150
 20
-101.879997
 40
3.200000
  1
30
 50
0.000000
 41
1.052631
 51
0.000000
  7
STANDARD
  0
TEXT
  8
0
 10
-120.657158
 20
-101.879997
 40
3.200000
  1
50
 50
0.000000
 41
1.052631
 51
0.000000
  7
STANDARD
  0
TEXT
  8
0
 10
-108.657158
 20
-101.879997
 40
3.200000
  1
75
 50
0.000000
 41
1.052631
 51
0.000000
  7
STANDARD
  0
TEXT
  8
0
 10
-51.857143
 20
-91.379997
 40
3.200000
  1
(mm)
 50
0.000000
 41
1.052631
 51
0.000000
  7
STANDARD
  0
TEXT
  8
0
 10
-131.157135
 20
-91.379997
 40
3.200000
  1
STRETCH LIST
 50
0.000000
 41
1.052631
 51
0.000000
  7
STANDARD
  0
TEXT
  8
0
 10
-173.557007
 20
-121.379997
 40
3.200000
  1
B
 50
0.000000
 41
1.052632
 51
0.000000
  7
STANDARD
  0
TEXT
  8
0
 10
-98.257156
 20
-101.879997
 40
3.200000
  1
100
 50
0.000000
 41
1.052631
 51
0.000000
  7
STANDARD
  0
TEXT
  8
0
 10
-86.257156
 20
-101.879997
 40
3.200000
  1
125
 50
0.000000
 41
1.052631
 51
0.000000
  7
STANDARD
  0
TEXT
  8
0
 10
-74.257156
 20
-101.879997
 40
3.200000
  1
150
 50
0.000000
 41
1.052631
 51
0.000000
  7
STANDARD
  0
TEXT
  8
0
 10
-62.257156
 20
-101.879997
 40
3.200000
  1
175
 50
0.000000
 41
1.052631
 51
0.000000
  7
STANDARD
  0
TEXT
  8
0
 10
-50.257156
 20
-101.879997
 40
3.200000
  1
200
 50
0.000000
 41
1.052631
 51
0.000000
  7
STANDARD
  0
TEXT
  8
0
 10
-155.057007
 20
-113.379997
 40
3.200000
  1
0
 50
0.000000
 41
1.052632
 51
0.000000
  7
STANDARD
  0
TEXT
  8
0
 10
-143.057007
 20
-113.379997
 40
3.200000
  1
0
 50
0.000000
 41
1.052632
 51
0.000000
  7
STANDARD
  0
TEXT
  8
0
 10
-131.057007
 20
-113.379997
 40
3.200000
  1
0
 50
0.000000
 41
1.052632
 51
0.000000
  7
STANDARD
  0
TEXT
  8
0
 10
-119.056999
 20
-113.379997
 40
3.200000
  1
0
 50
0.000000
 41
1.052632
 51
0.000000
  7
STANDARD
  0
TEXT
  8
0
 10
-108.656998
 20
-113.379997
 40
3.200000
  1
25
 50
0.000000
 41
1.052632
 51
0.000000
  7
STANDARD
  0
TEXT
  8
0
 10
-96.656998
 20
-113.379997
 40
3.200000
  1
50
 50
0.000000
 41
1.052632
 51
0.000000
  7
STANDARD
  0
TEXT
  8
0
 10
-84.656998
 20
-113.379997
 40
3.200000
  1
25
 50
0.000000
 41
1.052632
 51
0.000000
  7
STANDARD
  0
TEXT
  8
0
 10
-72.656998
 20
-113.379997
 40
3.200000
  1
50
 50
0.000000
 41
1.052632
 51
0.000000
  7
STANDARD
  0
TEXT
  8
0
 10
-60.657001
 20
-113.379997
 40
3.200000
  1
75
 50
0.000000
 41
1.052632
 51
0.000000
  7
STANDARD
  0
TEXT
  8
0
 10
-50.257000
 20
-113.379997
 40
3.200000
  1
100
 50
0.000000
 41
1.052632
 51
0.000000
  7
STANDARD
  0
TEXT
  8
0
 10
-155.057007
 20
-121.379997
 40
3.200000
  1
0
 50
0.000000
 41
1.052632
 51
0.000000
  7
STANDARD
  0
TEXT
  8
0
 10
-144.656998
 20
-121.379997
 40
3.200000
  1
10
 50
0.000000
 41
1.052632
 51
0.000000
  7
STANDARD
  0
TEXT
  8
0
 10
-132.656998
 20
-121.379997
 40
3.200000
  1
20
 50
0.000000
 41
1.052632
 51
0.000000
  7
STANDARD
  0
TEXT
  8
0
 10
-120.656998
 20
-121.379997
 40
3.200000
  1
40
 50
0.000000
 41
1.052632
 51
0.000000
  7
STANDARD
  0
TEXT
  8
0
 10
-108.656998
 20
-121.379997
 40
3.200000
  1
40
 50
0.000000
 41
1.052632
 51
0.000000
  7
STANDARD
  0
TEXT
  8
0
 10
-96.656998
 20
-121.379997
 40
3.200000
  1
40
 50
0.000000
 41
1.052632
 51
0.000000
  7
STANDARD
  0
TEXT
  8
0
 10
-84.656998
 20
-121.379997
 40
3.200000
  1
90
 50
0.000000
 41
1.052632
 51
0.000000
  7
STANDARD
  0
TEXT
  8
0
 10
-72.656998
 20
-121.379997
 40
3.200000
  1
90
 50
0.000000
 41
1.052632
 51
0.000000
  7
STANDARD
  0
TEXT
  8
0
 10
-60.657001
 20
-121.379997
 40
3.200000
  1
90
 50
0.000000
 41
1.052632
 51
0.000000
  7
STANDARD
  0
TEXT
  8
0
 10
-48.657001
 20
-121.379997
 40
3.200000
  1
90
 50
0.000000
 41
1.052632
 51
0.000000
  7
STANDARD
  0
TEXT
  8
0
 62
     2
 10
51.136501
 20
-66.000015
 40
3.200000
  1
STROKE=75-200
 50
0.000000
 41
1.052632
 51
0.000000
  7
STANDARD
  0
LINE
  8
0
 62
     2
 10
50.714333
 20
-67.000015
 11
92.486504
 21
-67.000015
  0
LINE
  8
0
 62
     2
 10
14.714294
 20
-67.000015
 11
50.714333
 21
-67.000015
  0
LINE
  8
0
 62
     2
 10
14.714294
 20
-67.000015
 11
17.612072
 21
-66.223557
  0
LINE
  8
0
 62
     2
 10
14.714294
 20
-67.000015
 11
17.612072
 21
-67.776474
  0
LINE
  8
0
 62
     2
 10
50.714333
 20
-67.000015
 11
47.816555
 21
-67.776474
  0
LINE
  8
0
 62
     2
 10
50.714333
 20
-67.000015
 11
47.816555
 21
-66.223557
  0
LINE
  8
0
 62
     2
 10
14.714294
 20
-46.013008
 11
14.714294
 21
-68.500015
  0
LINE
  8
0
 62
     2
 10
50.714333
 20
-39.500004
 11
50.714333
 21
-68.500015
  0
ENDSEC
  0
EOF
