  0
SECTION
  2
HEADER
  0
ENDSEC
  0
SECTION
  2
TABLES
  0
TABLE
  2
LTYPE
 70
     4
  0
LTYPE
  2
CONTINUOUS
 70
    64
  3
Solid line
 72
    65
 73
     0
 40
0.000000
  0
LTYPE
  2
DASHED
 70
    64
  3
__ __ __ __ __ __ __ __ __ __ __ __ __ __ __
 72
    65
 73
     2
 40
3.500000
 49
2.000000
 49
-1.500000
  0
LTYPE
  2
CENTER
 70
    64
  3
____ _ ____ _ ____ _ ____ _ ____ _ ____ _ ____
 72
    65
 73
     4
 40
17.500000
 49
13.000000
 49
-1.500000
 49
1.500000
 49
-1.500000
  0
LTYPE
  2
PHANTOM
 70
    64
  3
_____ _ _ _____ _ _ _____ _ _ _____ _ _ ____  
 72
    65
 73
     6
 40
15.500000
 49
8.000000
 49
-1.500000
 49
1.500000
 49
-1.500000
 49
1.500000
 49
-1.500000
  0
LTYPE
  2
DASHED1
 70
    64
  3
__ __ __ __ __ __ __ __ __ __ __ __ __ __ __
 72
    65
 73
     2
 40
1.500000
 49
1.000000
 49
-0.500000
  0
LTYPE
  2
DASHED2
 70
    64
  3
__ __ __ __ __ __ __ __ __ __ __ __ __ __ __
 72
    65
 73
     2
 40
3.500000
 49
2.500000
 49
-1.000000
  0
LTYPE
  2
DASHED3
 70
    64
  3
__ __ __ __ __ __ __ __ __ __ __ __ __ __ __
 72
    65
 73
     2
 40
6.000000
 49
4.000000
 49
-2.000000
  0
LTYPE
  2
DASHED4
 70
    64
  3
__ __ __ __ __ __ __ __ __ __ __ __ __ __ __
 72
    65
 73
     2
 40
12.000000
 49
10.000000
 49
-2.000000
  0
LTYPE
  2
DASHED5
 70
    64
  3
__ __ __ __ __ __ __ __ __ __ __ __ __ __ __
 72
    65
 73
     2
 40
17.000000
 49
15.000000
 49
-2.000000
  0
LTYPE
  2
DASHED6
 70
    64
  3
__ __ __ __ __ __ __ __ __ __ __ __ __ __ __
 72
    65
 73
     2
 40
29.000000
 49
27.000000
 49
-2.000000
  0
LTYPE
  2
PHANTOM1
 70
    64
  3
_____ _ _ _____ _ _ _____ _ _ _____ _ _ ____  
 72
    65
 73
     6
 40
31.000000
 49
25.000000
 49
-1.500000
 49
1.000000
 49
-1.000000
 49
1.000000
 49
-1.500000
  0
LTYPE
  2
PHANTOM2
 70
    64
  3
_____ _ _ _____ _ _ _____ _ _ _____ _ _ ____  
 72
    65
 73
     6
 40
36.000000
 49
27.000000
 49
-1.500000
 49
2.500000
 49
-1.000000
 49
2.500000
 49
-1.500000
  0
LTYPE
  2
PHANTOM3
 70
    64
  3
_____ _ _ _____ _ _ _____ _ _ _____ _ _ ____  
 72
    65
 73
     6
 40
78.000000
 49
64.000000
 49
-2.000000
 49
4.000000
 49
-2.000000
 49
4.000000
 49
-2.000000
  0
LTYPE
  2
CENTER1
 70
    64
  3
____ _ ____ _ ____ _ ____ _ ____ _ ____ _ ____
 72
    65
 73
     4
 40
19.000000
 49
14.000000
 49
-1.000000
 49
3.000000
 49
-1.000000
  0
LTYPE
  2
CENTER2
 70
    64
  3
____ _ ____ _ ____ _ ____ _ ____ _ ____ _ ____
 72
    65
 73
     4
 40
28.500000
 49
25.000000
 49
-1.000000
 49
1.500000
 49
-1.000000
  0
LTYPE
  2
CENTER3
 70
    64
  3
____ _ ____ _ ____ _ ____ _ ____ _ ____ _ ____
 72
    65
 73
     4
 40
31.500000
 49
27.000000
 49
-1.000000
 49
2.500000
 49
-1.000000
  0
LTYPE
  2
CENTER4
 70
    64
  3
____ _ ____ _ ____ _ ____ _ ____ _ ____ _ ____
 72
    65
 73
     4
 40
50.000000
 49
45.000000
 49
-1.000000
 49
3.000000
 49
-1.000000
  0
LTYPE
  2
CENTER5
 70
    64
  3
____ _ ____ _ ____ _ ____ _ ____ _ ____ _ ____
 72
    65
 73
     4
 40
100.000000
 49
92.000000
 49
-2.000000
 49
4.000000
 49
-2.000000
  0
LTYPE
  2
SBK1
 70
    64
  3
______ _ _ _ ______ _ _ _ ______ _ _ _ _____  
 72
    65
 73
     8
 40
60.500000
 49
45.000000
 49
-2.000000
 49
2.500000
 49
-2.000000
 49
2.500000
 49
-2.000000
 49
2.500000
 49
-2.000000
  0
LTYPE
  2
SBK2
 70
    64
  3
______ _ _ _ ______ _ _ _ ______ _ _ _ _____  
 72
    65
 73
     8
 40
84.000000
 49
64.000000
 49
-2.000000
 49
4.000000
 49
-2.000000
 49
4.000000
 49
-2.000000
 49
4.000000
 49
-2.000000
  0
LTYPE
  2
STCH
 70
    64
  3
__ __ __ __ __ __ __ __ __ __ __ __ __ __ __
 72
    65
 73
     2
 40
3.000000
 49
1.000000
 49
-2.000000
  0
LTYPE
  2
MTCH
 70
    64
  3
_____ _ _ _____ _ _ _____ _ _ _____ _ _ ____  
 72
    65
 73
     6
 40
80.000000
 49
66.000000
 49
-2.000000
 49
4.000000
 49
-2.000000
 49
4.000000
 49
-2.000000
  0
ENDTAB
  0
TABLE
  2
LAYER
 70
     1
  0
LAYER
  2
0
 70
     0
 62
     7
  6
CONTINUOUS
  0
ENDTAB
  0
TABLE
  2
STYLE
 70
     1
  0
STYLE
  2
STANDARD
 70
     0
 40
0.000000
 41
1.000000
 50
0.000000
 71
     0
 42
0.200000
  3
txt
  4
BIGFONT
  0
ENDTAB
  0
TABLE
  2
VIEW
 70
     0
  0
ENDTAB
  0
ENDSEC
  0
SECTION
  2
BLOCKS
  0
ENDSEC
  0
SECTION
  2
ENTITIES
  0
LINE
  8
0
  6
DASHED
 62
     2
 10
50.000000
 20
-11.000000
 11
50.000000
 21
-24.000000
  0
LINE
  8
0
  6
DASHED
 62
     2
 10
22.000000
 20
-10.500000
 11
49.500000
 21
-10.500000
  0
LINE
  8
0
  6
DASHED
 62
     2
 10
22.000000
 20
-24.500000
 11
49.500000
 21
-24.500000
  0
LINE
  8
0
  6
DASHED
 62
     2
 10
49.499996
 20
-10.500007
 11
49.999996
 21
-11.000008
  0
LINE
  8
0
  6
DASHED
 62
     2
 10
49.999977
 20
-23.999987
 11
49.499981
 21
-24.499985
  0
LINE
  8
0
  6
DASHED
 62
     2
 10
49.500000
 20
-10.500000
 11
49.500000
 21
-24.500000
  0
LINE
  8
0
  6
DASHED
 62
     2
 10
50.000000
 20
52.000000
 11
50.000000
 21
39.000000
  0
LINE
  8
0
  6
DASHED
 62
     2
 10
22.000000
 20
52.500000
 11
49.500000
 21
52.500000
  0
LINE
  8
0
  6
DASHED
 62
     2
 10
22.000000
 20
38.500000
 11
49.500000
 21
38.500000
  0
LINE
  8
0
  6
DASHED
 62
     2
 10
49.499966
 20
52.499969
 11
49.999966
 21
51.999969
  0
LINE
  8
0
  6
DASHED
 62
     2
 10
49.999989
 20
39.000004
 11
49.499992
 21
38.500004
  0
LINE
  8
0
  6
DASHED
 62
     2
 10
49.500000
 20
52.500000
 11
49.500000
 21
38.500000
  0
LINE
  8
0
 10
30.000000
 20
8.000000
 11
40.000000
 21
8.000000
  0
LINE
  8
0
 10
30.000000
 20
36.500000
 11
30.000000
 21
-8.500000
  0
LINE
  8
0
 10
40.000000
 20
1.000000
 11
42.500000
 21
1.000000
  0
LINE
  8
0
 10
42.500000
 20
27.000000
 11
42.500000
 21
1.000000
  0
LINE
  8
0
 10
40.000000
 20
27.000000
 11
40.000000
 21
1.000000
  0
LINE
  8
0
 10
52.500000
 20
7.649151
 11
63.517548
 21
7.649151
  0
LINE
  8
0
 10
52.500000
 20
1.298298
 11
63.517517
 21
1.298298
  0
LINE
  8
0
 10
42.500000
 20
3.000000
 11
52.500000
 21
3.000000
  0
LINE
  8
0
 10
63.517551
 20
1.298267
 11
64.500031
 21
2.999970
  0
LINE
  8
0
 10
64.500000
 20
25.000061
 11
64.500000
 21
3.000000
  0
LINE
  8
0
 10
65.618683
 20
9.381199
 11
69.381348
 21
9.381199
  0
LINE
  8
0
 10
65.618683
 20
4.762398
 11
69.381348
 21
4.762398
  0
LINE
  8
0
 10
64.500031
 20
6.700018
 11
65.618721
 21
4.762403
  0
LINE
  8
0
 10
69.381355
 20
4.762374
 11
70.500031
 21
6.699976
  0
LINE
  8
0
 10
72.500000
 20
18.000004
 11
72.500000
 21
10.000000
  0
LINE
  8
0
 10
70.500000
 20
9.000000
 11
71.500000
 21
9.000000
  0
LINE
  8
0
 62
     2
 10
70.500000
 20
9.599998
 11
72.100006
 21
9.599998
  0
LINE
  8
0
 10
72.499992
 20
10.000007
 11
71.499992
 21
9.000006
  0
LINE
  8
0
 10
71.500000
 20
19.000000
 11
71.500000
 21
9.000000
  0
LINE
  8
0
 10
70.500000
 20
21.300077
 11
70.500000
 21
6.700001
  0
LINE
  8
0
 10
30.000000
 20
35.750000
 11
30.800018
 21
35.750000
  0
LINE
  8
0
 10
30.000000
 20
25.250000
 11
30.800018
 21
25.250000
  0
LINE
  8
0
 10
34.000000
 20
33.667747
 11
34.000000
 21
27.332253
  0
LINE
  8
0
 10
30.800018
 20
35.750000
 11
30.800018
 21
25.250000
  0
LINE
  8
0
 10
34.000000
 20
33.667755
 11
34.000000
 21
27.332245
  0
LINE
  8
0
 10
30.000000
 20
-7.750000
 11
30.700012
 21
-7.750000
  0
LINE
  8
0
 10
30.800018
 20
2.750000
 11
30.000000
 21
2.750000
  0
LINE
  8
0
 10
30.800018
 20
2.750000
 11
30.800018
 21
-7.750000
  0
LINE
  8
0
 10
34.000000
 20
0.667755
 11
34.000000
 21
-5.667755
  0
LINE
  8
0
 10
30.000000
 20
20.000000
 11
40.000000
 21
20.000000
  0
LINE
  8
0
 10
40.000000
 20
27.000000
 11
42.500000
 21
27.000000
  0
LINE
  8
0
 10
52.500000
 20
20.350849
 11
63.517548
 21
20.350849
  0
LINE
  8
0
 10
52.500000
 20
26.701706
 11
63.517517
 21
26.701706
  0
LINE
  8
0
 10
42.500000
 20
25.000000
 11
52.500000
 21
25.000000
  0
LINE
  8
0
 10
63.517548
 20
26.701735
 11
64.500023
 21
25.000038
  0
LINE
  8
0
 10
65.618683
 20
18.618801
 11
69.381348
 21
18.618801
  0
LINE
  8
0
 10
65.618683
 20
23.237602
 11
69.381348
 21
23.237602
  0
LINE
  8
0
 10
64.500038
 20
21.299990
 11
65.618721
 21
23.237604
  0
LINE
  8
0
 10
69.381393
 20
23.237640
 11
70.500069
 21
21.300037
  0
LINE
  8
0
 10
70.500000
 20
19.000000
 11
71.500000
 21
19.000000
  0
LINE
  8
0
 62
     2
 10
70.500000
 20
18.400002
 11
72.100006
 21
18.400002
  0
LINE
  8
0
 10
72.499962
 20
18.000004
 11
71.499962
 21
19.000006
  0
LINE
  8
0
 10
22.000000
 20
36.500000
 11
30.000000
 21
36.500000
  0
LINE
  8
0
 10
22.000000
 20
-8.500000
 11
30.000000
 21
-8.500000
  0
LINE
  8
0
 10
22.000000
 20
22.599998
 11
30.000000
 21
22.599998
  0
LINE
  8
0
 10
22.000000
 20
5.400002
 11
30.000000
 21
5.400002
  0
LINE
  8
0
 10
-30.000000
 20
20.000000
 11
-26.000000
 21
20.000000
  0
LINE
  8
0
 10
-30.000000
 20
-30.000000
 11
-30.000000
 21
57.999985
  0
LINE
  8
0
 10
-42.000000
 20
57.999985
 11
-42.000000
 21
-30.000000
  0
LINE
  8
0
 10
-28.500000
 20
17.316635
 11
-28.500000
 21
10.683365
  0
LINE
  8
0
 10
-30.000000
 20
10.683380
 11
-28.500000
 21
10.683380
  0
LINE
  8
0
 10
-30.000076
 20
12.341692
 11
-28.500042
 21
17.316746
  0
LINE
  8
0
 10
-28.500076
 20
10.683334
 11
-30.000025
 21
15.658095
  0
LINE
  8
0
 10
-30.000000
 20
8.000000
 11
-26.000000
 21
8.000000
  0
LINE
  8
0
 10
-41.000000
 20
-31.000000
 11
-31.000000
 21
-31.000000
  0
LINE
  8
0
 10
-41.000000
 20
58.999985
 11
-31.000000
 21
58.999985
  0
LINE
  8
0
 10
-41.999954
 20
-29.999960
 11
-40.999954
 21
-30.999960
  0
LINE
  8
0
 10
-30.000004
 20
-30.000006
 11
-31.000006
 21
-31.000008
  0
LINE
  8
0
 10
-41.000069
 20
59.000095
 11
-42.000072
 21
58.000095
  0
LINE
  8
0
 10
-31.000004
 20
59.000000
 11
-30.000004
 21
58.000000
  0
LINE
  8
0
 10
-25.500000
 20
59.999985
 11
21.500000
 21
59.999985
  0
LINE
  8
0
 10
-26.000000
 20
18.500000
 11
22.000000
 21
18.500000
  0
LINE
  8
0
 10
-26.000000
 20
21.699997
 11
22.000000
 21
21.699997
  0
LINE
  8
0
 10
-26.000000
 20
24.000000
 11
22.000000
 21
24.000000
  0
LINE
  8
0
 10
-26.000000
 20
25.000000
 11
22.000000
 21
25.000000
  0
LINE
  8
0
 10
-25.499981
 20
59.999924
 11
-25.999971
 21
59.499935
  0
LINE
  8
0
 10
21.500013
 20
60.000050
 11
22.000008
 21
59.500065
  0
LINE
  8
0
 10
-26.000000
 20
57.999985
 11
22.000000
 21
57.999985
  0
LINE
  8
0
 10
-26.000000
 20
43.149994
 11
22.000000
 21
43.149994
  0
LINE
  8
0
 10
-26.000000
 20
38.850006
 11
22.000000
 21
38.850006
  0
LINE
  8
0
  6
CENTER
 62
     2
 10
-25.684387
 20
30.500000
 11
-14.198090
 21
30.500000
  0
LINE
  8
0
  6
CENTER
 62
     2
 10
-44.505142
 20
45.500000
 11
-23.173477
 21
45.500000
  0
LINE
  8
0
  6
CENTER
 62
     2
 10
-44.505142
 20
-17.500000
 11
-23.173477
 21
-17.500000
  0
LINE
  8
0
 10
-30.000000
 20
17.316635
 11
-28.500000
 21
17.316635
  0
LINE
  8
0
  6
CENTER
 62
     2
 10
0.000000
 20
-8.537125
 11
0.000000
 21
4.202271
  0
LINE
  8
0
  6
CENTER
 62
     2
 10
-25.684387
 20
-2.500000
 11
-14.198090
 21
-2.500000
  0
LINE
  8
0
  6
CENTER
 62
     2
 10
-20.000000
 20
-8.537125
 11
-20.000000
 21
3.452881
  0
LINE
  8
0
 10
-26.000000
 20
3.000000
 11
22.000000
 21
3.000000
  0
LINE
  8
0
 10
-26.000000
 20
4.000000
 11
22.000000
 21
4.000000
  0
LINE
  8
0
 10
-26.000000
 20
9.500000
 11
22.000000
 21
9.500000
  0
LINE
  8
0
 10
-26.000000
 20
6.300003
 11
22.000000
 21
6.300003
  0
LINE
  8
0
  6
CENTER
 62
     2
 10
12.000000
 20
-22.325974
 11
12.000000
 21
-9.108181
  0
LINE
  8
0
 10
-26.000000
 20
-31.500000
 11
-26.000000
 21
59.499985
  0
LINE
  8
0
  6
CENTER
 62
     2
 10
-6.164734
 20
-2.500000
 11
6.000000
 21
-2.500000
  0
LINE
  8
0
 10
22.000000
 20
59.499985
 11
22.000000
 21
-31.500000
  0
LINE
  8
0
 10
-25.500000
 20
-32.000000
 11
21.500000
 21
-32.000000
  0
LINE
  8
0
  6
DASHED
 62
     2
 10
-3.282990
 20
-28.869385
 11
-3.282990
 21
-32.000000
  0
LINE
  8
0
  6
DASHED
 62
     2
 10
-3.717293
 20
-28.869387
 11
-3.863975
 21
-31.999990
  0
LINE
  8
0
  6
DASHED
 62
     2
 10
5.282990
 20
-28.869385
 11
5.282990
 21
-32.000000
  0
LINE
  8
0
  6
DASHED
 62
     2
 10
5.717441
 20
-28.869385
 11
5.864124
 21
-32.000008
  0
LINE
  8
0
 10
-26.000000
 20
-31.000000
 11
22.000000
 21
-31.000000
  0
LINE
  8
0
  6
CENTER
 62
     2
 10
6.067211
 20
-15.000000
 11
18.793102
 21
-15.000000
  0
LINE
  8
0
  6
CENTER
 62
     2
 10
-14.000000
 20
-22.250427
 11
-14.000000
 21
-9.037130
  0
LINE
  8
0
  6
DASHED
 62
     2
 10
-18.283005
 20
-28.869385
 11
-18.283005
 21
-32.000000
  0
LINE
  8
0
  6
DASHED
 62
     2
 10
-18.717340
 20
-28.869387
 11
-18.864023
 21
-32.000000
  0
LINE
  8
0
  6
DASHED
 62
     2
 10
-9.717010
 20
-28.869385
 11
-9.717010
 21
-32.000000
  0
LINE
  8
0
  6
DASHED
 62
     2
 10
-9.282640
 20
-28.869387
 11
-9.135958
 21
-31.999998
  0
LINE
  8
0
  6
CENTER
 62
     2
 10
-19.795250
 20
-15.000000
 11
-8.071880
 21
-15.000000
  0
LINE
  8
0
  6
CENTER
 62
     2
 10
-44.452652
 20
14.000000
 11
74.952988
 21
14.000000
  0
LINE
  8
0
 10
22.000011
 20
-31.499990
 11
21.500011
 21
-31.999992
  0
LINE
  8
0
 10
-26.000004
 20
-31.499950
 11
-25.499992
 21
-31.999962
  0
LINE
  8
0
  6
CENTER
 62
     2
 10
-14.000000
 20
-33.913498
 11
-14.000000
 21
-28.007671
  0
LINE
  8
0
  6
CENTER
 62
     2
 10
0.000000
 20
36.796265
 11
0.000000
 21
24.243973
  0
LINE
  8
0
  6
CENTER
 62
     2
 10
-20.000000
 20
36.677841
 11
-20.000000
 21
24.243973
  0
LINE
  8
0
  6
CENTER
 62
     2
 10
-6.174232
 20
30.500000
 11
6.259644
 21
30.500000
  0
LINE
  8
0
 10
52.500000
 20
26.701706
 11
52.500000
 21
1.298298
  0
LINE
  8
0
 10
-30.000000
 20
-10.500000
 11
-26.000000
 21
-10.500000
  0
LINE
  8
0
 10
-30.000000
 20
-24.500000
 11
-26.000000
 21
-24.500000
  0
LINE
  8
0
 10
-30.000000
 20
52.500000
 11
-26.000000
 21
52.500000
  0
LINE
  8
0
 10
-30.000000
 20
38.500000
 11
-26.000000
 21
38.500000
  0
LINE
  8
0
  6
PHANTOM
 62
     3
 10
7.599998
 20
64.400002
 11
7.599998
 21
-10.400002
  0
LINE
  8
0
  6
PHANTOM
 62
     3
 10
-7.599998
 20
72.800003
 11
-7.599998
 21
-37.000000
  0
LINE
  8
0
  6
PHANTOM
 62
     3
 10
-5.099998
 20
-10.400002
 11
-5.099998
 21
-37.000000
  0
LINE
  8
0
  6
PHANTOM
 62
     3
 10
-5.099998
 20
-10.400002
 11
7.599998
 21
-10.400002
  0
LINE
  8
0
  6
CENTER
 62
     2
 10
1.000000
 20
-33.913498
 11
1.000000
 21
-28.007671
  0
LINE
  8
0
  6
CENTER
 62
     2
 10
-108.173523
 20
14.000000
 11
-155.777618
 21
14.000000
  0
LINE
  8
0
  6
CENTER
 62
     2
 10
-132.000000
 20
63.872604
 11
-132.000000
 21
-35.152332
  0
LINE
  8
0
 10
-153.000000
 20
58.000000
 11
-153.000000
 21
43.949997
  0
LINE
  8
0
 10
-112.000000
 20
-32.000000
 11
-151.000000
 21
-32.000000
  0
LINE
  8
0
 10
-113.000000
 20
60.000000
 11
-151.000000
 21
60.000000
  0
LINE
  8
0
 10
-111.000000
 20
3.000000
 11
-111.000000
 21
-31.000000
  0
LINE
  8
0
 10
-153.000000
 20
38.050003
 11
-153.000000
 21
25.000000
  0
LINE
  8
0
 10
-112.999924
 20
60.000069
 11
-110.999924
 21
58.000065
  0
LINE
  8
0
 10
-151.000092
 20
-32.000065
 11
-153.000092
 21
-30.000061
  0
LINE
  8
0
 10
-151.000061
 20
60.000053
 11
-153.000092
 21
58.000023
  0
LINE
  8
0
 10
-112.000000
 20
21.699997
 11
-112.500000
 21
21.699997
  0
LINE
  8
0
 10
-112.500038
 20
21.699980
 11
-113.000053
 21
22.199989
  0
LINE
  8
0
 10
-112.000000
 20
18.500000
 11
-112.500000
 21
18.500000
  0
LINE
  8
0
 10
-112.499992
 20
18.499920
 11
-113.000008
 21
17.999912
  0
LINE
  8
0
 10
-111.000000
 20
58.000031
 11
-111.000000
 21
43.449997
  0
LINE
  8
0
 10
-112.000000
 20
24.422653
 11
-112.000000
 21
21.699997
  0
LINE
  8
0
 10
-112.000000
 20
18.500000
 11
-112.000000
 21
9.500000
  0
LINE
  8
0
 10
-151.000000
 20
43.649994
 11
-152.700012
 21
43.649994
  0
LINE
  8
0
 10
-151.000000
 20
38.350006
 11
-152.700012
 21
38.350006
  0
LINE
  8
0
 10
-111.299988
 20
38.850006
 11
-113.000000
 21
38.850006
  0
LINE
  8
0
 10
-111.299988
 20
43.149994
 11
-113.000000
 21
43.149994
  0
LINE
  8
0
 10
-111.000000
 20
38.550003
 11
-111.000000
 21
25.000000
  0
LINE
  8
0
 10
-110.999939
 20
-30.999971
 11
-111.999962
 21
-31.999994
  0
LINE
  8
0
 10
-112.000000
 20
6.300003
 11
-112.500000
 21
6.300003
  0
LINE
  8
0
 10
-112.500076
 20
6.300049
 11
-113.000092
 21
5.800035
  0
LINE
  8
0
 10
-112.000000
 20
9.500000
 11
-112.500000
 21
9.500000
  0
LINE
  8
0
 10
-112.499962
 20
9.500084
 11
-112.999969
 21
10.000097
  0
LINE
  8
0
 10
-112.000000
 20
3.577354
 11
-112.000000
 21
6.300003
  0
LINE
  8
0
 10
-112.000015
 20
24.422699
 11
-111.000023
 21
25.000044
  0
LINE
  8
0
 10
-112.000015
 20
3.577322
 11
-110.999992
 21
2.999961
  0
LINE
  8
0
 10
-152.000031
 20
3.577390
 11
-153.000076
 21
3.000013
  0
LINE
  8
0
 10
-152.000000
 20
21.699997
 11
-151.500000
 21
21.699997
  0
LINE
  8
0
 10
-151.500061
 20
21.700069
 11
-151.000046
 21
22.200085
  0
LINE
  8
0
 10
-152.000000
 20
18.500000
 11
-151.500000
 21
18.500000
  0
LINE
  8
0
 10
-151.499969
 20
18.499949
 11
-150.999969
 21
17.999949
  0
LINE
  8
0
 10
-152.000000
 20
24.422653
 11
-152.000000
 21
21.699997
  0
LINE
  8
0
 10
-152.000000
 20
18.500000
 11
-152.000000
 21
9.500000
  0
LINE
  8
0
 10
-152.000000
 20
6.300003
 11
-151.500000
 21
6.300003
  0
LINE
  8
0
 10
-151.500076
 20
6.299971
 11
-151.000061
 21
5.799961
  0
LINE
  8
0
 10
-152.000000
 20
9.500000
 11
-151.500000
 21
9.500000
  0
LINE
  8
0
 10
-151.499969
 20
9.499998
 11
-150.999954
 21
10.000008
  0
LINE
  8
0
 10
-152.000000
 20
3.577354
 11
-152.000000
 21
6.300003
  0
LINE
  8
0
 10
-152.000000
 20
24.422588
 11
-153.000015
 21
24.999952
  0
LINE
  8
0
 10
-153.000000
 20
-30.000000
 11
-153.000000
 21
-15.949997
  0
LINE
  8
0
 10
-151.000000
 20
-15.650002
 11
-152.700012
 21
-15.650002
  0
LINE
  8
0
 10
-151.000000
 20
-10.349998
 11
-152.700012
 21
-10.349998
  0
LINE
  8
0
 10
-150.000000
 20
59.000000
 11
-114.000000
 21
59.000000
  0
LINE
  8
0
 10
-150.000000
 20
-31.000000
 11
-114.000000
 21
-31.000000
  0
LINE
  8
0
 10
-149.999924
 20
58.999958
 11
-150.999939
 21
57.999950
  0
LINE
  8
0
 10
-113.999886
 20
59.000099
 11
-112.999893
 21
58.000103
  0
LINE
  8
0
 10
-150.999954
 20
-29.999973
 11
-149.999954
 21
-30.999975
  0
LINE
  8
0
 10
-113.000000
 20
-29.999987
 11
-114.000000
 21
-30.999979
  0
LINE
  8
0
  6
CENTER
 62
     2
 10
-145.000000
 20
-28.603226
 11
-145.000000
 21
-19.512543
  0
LINE
  8
0
  6
CENTER
 62
     2
 10
-150.428070
 20
-24.000000
 11
-140.033188
 21
-24.000000
  0
LINE
  8
0
  6
CENTER
 62
     2
 10
-149.710083
 20
52.000000
 11
-140.225800
 21
52.000000
  0
LINE
  8
0
  6
CENTER
 62
     2
 10
-119.000000
 20
-28.603226
 11
-119.000000
 21
-19.512543
  0
LINE
  8
0
 10
-131.999969
 20
-15.190617
 11
-133.999969
 21
-16.345308
  0
LINE
  8
0
 10
-134.000000
 20
-16.345299
 11
-134.000000
 21
-18.654701
  0
LINE
  8
0
 10
-131.999969
 20
-19.809322
 11
-133.999954
 21
-18.654627
  0
LINE
  8
0
 10
-129.999969
 20
-18.654737
 11
-131.999969
 21
-19.809441
  0
LINE
  8
0
 10
-130.000000
 20
-16.345299
 11
-130.000000
 21
-18.654701
  0
LINE
  8
0
 10
-131.999954
 20
-15.190545
 11
-129.999969
 21
-16.345243
  0
LINE
  8
0
 10
-131.999985
 20
16.309372
 11
-133.999985
 21
15.154678
  0
LINE
  8
0
 10
-134.000000
 20
15.154701
 11
-134.000000
 21
12.845301
  0
LINE
  8
0
 10
-131.999969
 20
11.690633
 11
-133.999969
 21
12.845335
  0
LINE
  8
0
 10
-129.999985
 20
12.845273
 11
-132.000000
 21
11.690571
  0
LINE
  8
0
 10
-130.000000
 20
15.154699
 11
-130.000000
 21
12.845299
  0
LINE
  8
0
 10
-131.999969
 20
16.309414
 11
-129.999969
 21
15.154713
  0
LINE
  8
0
 10
-131.999969
 20
47.809349
 11
-133.999954
 21
46.654655
  0
LINE
  8
0
 10
-134.000000
 20
46.654701
 11
-134.000000
 21
44.345299
  0
LINE
  8
0
 10
-132.000000
 20
43.190628
 11
-133.999985
 21
44.345322
  0
LINE
  8
0
 10
-129.999969
 20
44.345276
 11
-131.999969
 21
43.190575
  0
LINE
  8
0
 10
-130.000000
 20
46.654701
 11
-130.000000
 21
44.345299
  0
LINE
  8
0
 10
-132.000000
 20
47.809410
 11
-130.000000
 21
46.654716
  0
LINE
  8
0
 10
-151.000000
 20
58.000000
 11
-151.000000
 21
-30.000000
  0
LINE
  8
0
 10
-113.000000
 20
58.000000
 11
-113.000000
 21
-30.000000
  0
LINE
  8
0
 10
-153.000000
 20
-10.050003
 11
-153.000000
 21
3.000000
  0
LINE
  8
0
  6
CENTER
 62
     2
 10
-145.000000
 20
56.643517
 11
-145.000000
 21
47.159233
  0
LINE
  8
0
  6
CENTER
 62
     2
 10
-119.000000
 20
56.573776
 11
-119.000000
 21
47.159233
  0
LINE
  8
0
  6
CENTER
 62
     2
 10
-123.767776
 20
52.000000
 11
-114.144012
 21
52.000000
  0
LINE
  8
0
  6
CENTER
 62
     2
 10
-139.119156
 20
45.500000
 11
-124.901382
 21
45.500000
  0
LINE
  8
0
  6
CENTER
 62
     2
 10
-138.988602
 20
-17.500000
 11
-124.622147
 21
-17.500000
  0
LINE
  8
0
  6
CENTER
 62
     2
 10
-123.225555
 20
-24.000000
 11
-114.812668
 21
-24.000000
  0
LINE
  8
0
 10
113.000000
 20
36.500000
 11
113.000000
 21
32.100780
  0
LINE
  8
0
 10
113.000000
 20
6.300003
 11
113.500015
 21
6.300003
  0
LINE
  8
0
 10
113.000000
 20
22.599998
 11
115.600037
 21
22.599998
  0
LINE
  8
0
 10
113.000000
 20
5.400002
 11
115.600037
 21
5.400002
  0
LINE
  8
0
 10
118.100037
 20
20.099998
 11
118.100037
 21
7.900002
  0
LINE
  8
0
 10
150.400024
 20
22.599998
 11
153.000000
 21
22.599998
  0
LINE
  8
0
 10
150.400024
 20
5.400002
 11
153.000000
 21
5.400002
  0
LINE
  8
0
 10
147.900024
 20
20.099998
 11
147.900024
 21
7.900002
  0
LINE
  8
0
 10
116.000000
 20
29.345299
 11
116.000000
 21
31.654701
  0
LINE
  8
0
 10
120.000000
 20
29.345299
 11
120.000000
 21
31.654701
  0
LINE
  8
0
 10
116.000069
 20
29.345404
 11
118.000053
 21
28.190712
  0
LINE
  8
0
 10
118.000069
 20
32.809494
 11
120.000061
 21
31.654799
  0
LINE
  8
0
 10
116.000061
 20
31.654692
 11
118.000076
 21
32.809399
  0
LINE
  8
0
 10
118.000084
 20
28.190571
 11
120.000053
 21
29.345257
  0
LINE
  8
0
 10
145.999985
 20
-1.345346
 11
148.000000
 21
-0.190634
  0
LINE
  8
0
 10
146.000000
 20
-3.654701
 11
146.000000
 21
-1.345299
  0
LINE
  8
0
 10
146.000000
 20
-3.654627
 11
148.000015
 21
-4.809323
  0
LINE
  8
0
 10
147.999969
 20
-4.809475
 11
150.000000
 21
-3.654760
  0
LINE
  8
0
 10
150.000000
 20
-3.654701
 11
150.000000
 21
-1.345299
  0
LINE
  8
0
 10
148.000031
 20
-0.190535
 11
150.000046
 21
-1.345243
  0
LINE
  8
0
 10
122.000000
 20
20.350853
 11
122.000000
 21
7.649147
  0
LINE
  8
0
 10
144.000000
 20
20.350849
 11
144.000000
 21
7.649147
  0
LINE
  8
0
 10
121.999969
 20
20.350828
 11
132.999969
 21
26.701681
  0
LINE
  8
0
 10
133.000000
 20
1.298264
 11
144.000000
 21
7.649119
  0
LINE
  8
0
 10
133.000092
 20
26.701788
 11
144.000076
 21
20.350943
  0
LINE
  8
0
 10
122.000076
 20
7.649212
 11
133.000061
 21
1.298366
  0
LINE
  8
0
 10
125.000000
 20
18.618801
 11
125.000000
 21
9.381195
  0
LINE
  8
0
 10
141.000000
 20
18.618805
 11
141.000000
 21
9.381199
  0
LINE
  8
0
 10
125.000000
 20
18.618780
 11
133.000000
 21
23.237577
  0
LINE
  8
0
 10
133.000046
 20
4.762348
 11
141.000046
 21
9.381145
  0
LINE
  8
0
 10
133.000061
 20
23.237692
 11
141.000061
 21
18.618887
  0
LINE
  8
0
 10
125.000038
 20
9.381283
 11
133.000046
 21
4.762479
  0
LINE
  8
0
 10
113.000000
 20
36.500000
 11
153.000000
 21
36.500000
  0
LINE
  8
0
 10
113.000000
 20
-8.500000
 11
153.000000
 21
-8.500000
  0
LINE
  8
0
 10
153.000000
 20
36.500000
 11
153.000000
 21
21.699997
  0
LINE
  8
0
 10
113.000000
 20
6.300003
 11
113.000000
 21
-8.500000
  0
LINE
  8
0
 10
153.000000
 20
6.300003
 11
153.000000
 21
-0.899219
  0
LINE
  8
0
 10
153.000000
 20
21.699997
 11
152.499985
 21
21.699997
  0
LINE
  8
0
  6
DASHED
 62
     2
 10
113.782906
 20
-28.869389
 11
113.636223
 21
-31.999992
  0
LINE
  8
0
  6
DASHED
 62
     2
 10
114.216995
 20
-28.869385
 11
114.216995
 21
-32.000000
  0
LINE
  8
0
  6
DASHED
 62
     2
 10
122.783005
 20
-28.869385
 11
122.783005
 21
-32.000000
  0
LINE
  8
0
  6
DASHED
 62
     2
 10
123.217690
 20
-28.869381
 11
123.364372
 21
-31.999989
  0
LINE
  8
0
  6
CENTER
 62
     2
 10
118.000000
 20
37.325001
 11
118.000000
 21
23.675003
  0
LINE
  8
0
 10
154.000000
 20
57.999985
 11
154.000000
 21
43.949997
  0
LINE
  8
0
 10
113.000000
 20
-32.000000
 11
152.000000
 21
-32.000000
  0
LINE
  8
0
 10
114.000000
 20
59.999985
 11
152.000000
 21
59.999985
  0
LINE
  8
0
  6
CENTER
 62
     2
 10
122.054321
 20
45.500000
 11
144.158630
 21
45.500000
  0
LINE
  8
0
  6
CENTER
 62
     2
 10
111.175003
 20
30.500000
 11
124.824997
 21
30.500000
  0
LINE
  8
0
 10
112.000000
 20
3.000000
 11
112.000000
 21
-31.000000
  0
LINE
  8
0
 10
154.000000
 20
38.050003
 11
154.000000
 21
25.000000
  0
LINE
  8
0
 10
113.999878
 20
60.000084
 11
111.999863
 21
58.000065
  0
LINE
  8
0
 10
152.000046
 20
-32.000042
 11
154.000046
 21
-30.000038
  0
LINE
  8
0
 10
152.000137
 20
60.000137
 11
154.000153
 21
58.000126
  0
LINE
  8
0
 10
114.000015
 20
22.199997
 11
115.599991
 21
22.199997
  0
LINE
  8
0
 10
113.000000
 20
21.699997
 11
113.500015
 21
21.699997
  0
LINE
  8
0
 10
113.500069
 20
21.699984
 11
114.000046
 21
22.199972
  0
LINE
  8
0
 10
113.000000
 20
18.500000
 11
113.500015
 21
18.500000
  0
LINE
  8
0
 10
113.499947
 20
18.499899
 11
113.999954
 21
17.999897
  0
LINE
  8
0
 10
114.000015
 20
18.000000
 11
115.599991
 21
18.000000
  0
LINE
  8
0
 10
112.000000
 20
58.000046
 11
112.000000
 21
43.449997
  0
LINE
  8
0
 10
113.000000
 20
24.422653
 11
113.000000
 21
21.699997
  0
LINE
  8
0
 10
113.000000
 20
18.500000
 11
113.000000
 21
9.500000
  0
LINE
  8
0
 10
146.500000
 20
45.149994
 11
151.000000
 21
45.149994
  0
LINE
  8
0
 10
146.500000
 20
36.850006
 11
151.000000
 21
36.850006
  0
LINE
  8
0
 10
151.000000
 20
43.649994
 11
153.699997
 21
43.649994
  0
LINE
  8
0
 10
151.000000
 20
38.350006
 11
153.699997
 21
38.350006
  0
LINE
  8
0
 10
151.000000
 20
45.149994
 11
151.000000
 21
43.649994
  0
LINE
  8
0
 10
151.000000
 20
38.350006
 11
151.000000
 21
36.850006
  0
LINE
  8
0
 10
115.000000
 20
44.649994
 11
115.000000
 21
43.149994
  0
LINE
  8
0
 10
119.000000
 20
44.649994
 11
119.000000
 21
37.350006
  0
LINE
  8
0
 10
115.000000
 20
44.649994
 11
119.000000
 21
44.649994
  0
LINE
  8
0
 10
115.000000
 20
37.350006
 11
119.000000
 21
37.350006
  0
LINE
  8
0
 10
112.300003
 20
38.850006
 11
115.000000
 21
38.850006
  0
LINE
  8
0
 10
112.300003
 20
43.149994
 11
115.000000
 21
43.149994
  0
LINE
  8
0
 10
115.000000
 20
38.850006
 11
115.000000
 21
37.350006
  0
LINE
  8
0
 10
112.000000
 20
38.550003
 11
112.000000
 21
25.000000
  0
LINE
  8
0
 10
146.500000
 20
45.149994
 11
146.500000
 21
36.850006
  0
LINE
  8
0
 10
111.999977
 20
-31.000044
 11
112.999977
 21
-32.000046
  0
LINE
  8
0
 10
114.000015
 20
5.800003
 11
115.599991
 21
5.800003
  0
LINE
  8
0
 10
113.000000
 20
6.300003
 11
113.500015
 21
6.300003
  0
LINE
  8
0
 10
113.500061
 20
6.300047
 11
114.000076
 21
5.800045
  0
LINE
  8
0
 10
113.000000
 20
9.500000
 11
113.500015
 21
9.500000
  0
LINE
  8
0
 10
113.499985
 20
9.500080
 11
113.999985
 21
10.000081
  0
LINE
  8
0
 10
114.000015
 20
10.000000
 11
115.599991
 21
10.000000
  0
LINE
  8
0
 10
113.000000
 20
3.577347
 11
113.000000
 21
6.300003
  0
LINE
  8
0
 10
112.999992
 20
24.422676
 11
111.999969
 21
25.000042
  0
LINE
  8
0
 10
112.999992
 20
3.577349
 11
111.999962
 21
2.999982
  0
LINE
  8
0
 10
153.000015
 20
3.577414
 11
154.000061
 21
3.000042
  0
LINE
  8
0
 10
151.999985
 20
22.199997
 11
150.400009
 21
22.199997
  0
LINE
  8
0
 10
153.000000
 20
21.699997
 11
152.499985
 21
21.699997
  0
LINE
  8
0
 10
152.500076
 20
21.700106
 11
152.000076
 21
22.200106
  0
LINE
  8
0
 10
153.000000
 20
18.500000
 11
152.499985
 21
18.500000
  0
LINE
  8
0
 10
152.499969
 20
18.500010
 11
151.999969
 21
18.000008
  0
LINE
  8
0
 10
151.999985
 20
18.000000
 11
150.400009
 21
18.000000
  0
LINE
  8
0
 10
153.000000
 20
24.422653
 11
153.000000
 21
21.699997
  0
LINE
  8
0
 10
153.000000
 20
18.500000
 11
153.000000
 21
9.500000
  0
LINE
  8
0
 10
151.999985
 20
5.800003
 11
150.400009
 21
5.800003
  0
LINE
  8
0
 10
153.000000
 20
6.300003
 11
152.499985
 21
6.300003
  0
LINE
  8
0
 10
152.500000
 20
6.299931
 11
152.000000
 21
5.799930
  0
LINE
  8
0
 10
153.000000
 20
9.500000
 11
152.499985
 21
9.500000
  0
LINE
  8
0
 10
152.499954
 20
9.499950
 11
151.999954
 21
9.999951
  0
LINE
  8
0
 10
151.999985
 20
10.000000
 11
150.400009
 21
10.000000
  0
LINE
  8
0
 10
153.000000
 20
3.577347
 11
153.000000
 21
6.300003
  0
LINE
  8
0
 10
153.000015
 20
24.422646
 11
154.000015
 21
24.999998
  0
LINE
  8
0
 10
154.000000
 20
-30.000000
 11
154.000000
 21
-15.949997
  0
LINE
  8
0
 10
154.000000
 20
-10.050003
 11
154.000000
 21
3.000000
  0
LINE
  8
0
 10
146.500000
 20
-17.149994
 11
151.000000
 21
-17.149994
  0
LINE
  8
0
 10
146.500000
 20
-8.850006
 11
151.000000
 21
-8.850006
  0
LINE
  8
0
 10
151.000000
 20
-15.649994
 11
153.699997
 21
-15.649994
  0
LINE
  8
0
 10
151.000000
 20
-10.350006
 11
153.699997
 21
-10.350006
  0
LINE
  8
0
 10
151.000000
 20
-17.149994
 11
151.000000
 21
-15.649994
  0
LINE
  8
0
 10
151.000000
 20
-10.350006
 11
151.000000
 21
-8.850006
  0
LINE
  8
0
 10
146.500000
 20
-17.149994
 11
146.500000
 21
-8.850006
  0
LINE
  8
0
  6
CENTER
 62
     2
 10
122.054321
 20
-17.500000
 11
144.158630
 21
-17.500000
  0
LINE
  8
0
  6
CENTER
 62
     2
 10
118.000000
 20
-21.953461
 11
118.000000
 21
-30.418503
  0
LINE
  8
0
  6
CENTER
 62
     2
 10
122.278610
 20
-26.000000
 11
113.643509
 21
-26.000000
  0
LINE
  8
0
  6
CENTER
 62
     2
 10
148.000000
 20
49.953461
 11
148.000000
 21
58.418503
  0
LINE
  8
0
  6
CENTER
 62
     2
 10
152.278610
 20
54.000000
 11
143.643509
 21
54.000000
  0
LINE
  8
0
 10
139.708206
 20
-11.500000
 11
146.500000
 21
-11.500000
  0
LINE
  8
0
 10
141.485291
 20
-14.500000
 11
146.500000
 21
-14.500000
  0
LINE
  8
0
 10
139.708206
 20
39.500000
 11
146.500000
 21
39.500000
  0
LINE
  8
0
 10
141.485291
 20
42.500000
 11
146.500000
 21
42.500000
  0
LINE
  8
0
  6
CENTER
 62
     2
 10
118.000000
 20
49.953461
 11
118.000000
 21
58.418503
  0
LINE
  8
0
  6
CENTER
 62
     2
 10
113.721390
 20
54.000000
 11
122.356491
 21
54.000000
  0
LINE
  8
0
  6
CENTER
 62
     2
 10
145.042114
 20
41.000000
 11
149.158524
 21
41.000000
  0
LINE
  8
0
  6
CENTER
 62
     2
 10
144.889664
 20
-13.000000
 11
148.688660
 21
-13.000000
  0
LINE
  8
0
  6
CENTER
 62
     2
 10
115.000000
 20
41.000000
 11
121.123627
 21
41.000000
  0
LINE
  8
0
  6
CENTER
 62
     2
 10
118.500000
 20
-28.298557
 11
118.500000
 21
-33.820633
  0
LINE
  8
0
  6
CENTER
 62
     2
 10
116.510468
 20
-15.000000
 11
120.597702
 21
-15.000000
  0
LINE
  8
0
  6
CENTER
 62
     2
 10
118.500000
 20
-13.125015
 11
118.500000
 21
-17.017609
  0
LINE
  8
0
  6
CENTER
 62
     2
 10
148.000000
 20
-21.953461
 11
148.000000
 21
-30.418503
  0
LINE
  8
0
  6
CENTER
 62
     2
 10
152.278610
 20
-26.000000
 11
143.643509
 21
-26.000000
  0
LINE
  8
0
 10
114.000000
 20
43.149994
 11
114.000000
 21
38.850006
  0
LINE
  8
0
 10
152.000000
 20
43.649994
 11
152.000000
 21
38.350006
  0
LINE
  8
0
 10
114.000000
 20
22.199997
 11
114.000000
 21
18.000000
  0
LINE
  8
0
 10
114.000000
 20
10.000000
 11
114.000000
 21
5.800003
  0
LINE
  8
0
 10
152.000000
 20
22.199997
 11
152.000000
 21
18.000000
  0
LINE
  8
0
 10
152.000000
 20
10.000000
 11
152.000000
 21
5.800003
  0
LINE
  8
0
 10
152.000000
 20
-10.350006
 11
152.000000
 21
-15.649994
  0
LINE
  8
0
 10
113.000000
 20
28.899220
 11
113.000000
 21
21.699997
  0
LINE
  8
0
 10
153.000000
 20
-4.100780
 11
153.000000
 21
-8.500000
  0
LINE
  8
0
  6
CENTER
 62
     2
 10
133.000000
 20
62.663742
 11
133.000000
 21
-35.729996
  0
LINE
  8
0
  6
CENTER
 62
     2
 10
109.173523
 20
14.000000
 11
156.777618
 21
14.000000
  0
LINE
  8
0
  6
CENTER
 62
     2
 10
141.175003
 20
-2.500000
 11
154.824997
 21
-2.500000
  0
LINE
  8
0
  6
CENTER
 62
     2
 10
148.000000
 20
4.325000
 11
148.000000
 21
-9.324997
  0
LINE
  8
0
 10
-194.250000
 20
132.600006
 11
194.800003
 21
132.600006
  0
LINE
  8
0
 10
194.800003
 20
132.600006
 11
194.800003
 21
-133.500000
  0
LINE
  8
0
 10
-194.250000
 20
132.600006
 11
-194.250000
 21
-133.500000
  0
LINE
  8
0
 10
-194.250000
 20
-133.500000
 11
194.800003
 21
-133.500000
  0
LINE
  8
0
 10
109.800003
 20
-118.500000
 11
109.800003
 21
-133.500000
  0
LINE
  8
0
 10
109.800003
 20
-118.500000
 11
194.800003
 21
-118.500000
  0
LINE
  8
0
 10
109.800003
 20
132.600006
 11
109.800003
 21
117.600006
  0
LINE
  8
0
 10
109.800003
 20
117.600006
 11
194.800003
 21
117.600006
  0
LINE
  8
0
 10
-194.250000
 20
117.600006
 11
-84.250000
 21
117.600006
  0
LINE
  8
0
 10
-84.250000
 20
132.600006
 11
-84.250000
 21
117.600006
  0
LINE
  8
0
 10
-184.250000
 20
-123.500000
 11
-39.250000
 21
-123.500000
  0
LINE
  8
0
 10
-184.250000
 20
-123.500000
 11
-184.250000
 21
-92.500000
  0
LINE
  8
0
 10
-184.250000
 20
-115.500000
 11
-39.250000
 21
-115.500000
  0
LINE
  8
0
 10
-184.250000
 20
-107.500000
 11
-39.250000
 21
-107.500000
  0
LINE
  8
0
 10
-159.250000
 20
-123.500000
 11
-159.250000
 21
-92.500000
  0
LINE
  8
0
 10
-135.250000
 20
-123.500000
 11
-135.250000
 21
-92.500000
  0
LINE
  8
0
 10
-147.250000
 20
-123.500000
 11
-147.250000
 21
-92.500000
  0
LINE
  8
0
 10
-123.250000
 20
-123.500000
 11
-123.250000
 21
-92.500000
  0
LINE
  8
0
 10
-111.250000
 20
-123.500000
 11
-111.250000
 21
-92.500000
  0
LINE
  8
0
 10
-99.250000
 20
-123.500000
 11
-99.250000
 21
-92.500000
  0
LINE
  8
0
 10
-159.250046
 20
-107.500015
 11
-161.929535
 21
-97.500023
  0
LINE
  8
0
 10
-184.250000
 20
-97.500000
 11
-161.929489
 21
-97.500000
  0
LINE
  8
0
 10
-184.250000
 20
-92.500000
 11
-39.250000
 21
-92.500000
  0
LINE
  8
0
 10
-87.250000
 20
-123.500000
 11
-87.250000
 21
-92.500000
  0
LINE
  8
0
 10
-75.250000
 20
-123.500000
 11
-75.250000
 21
-92.500000
  0
LINE
  8
0
 10
-63.250000
 20
-123.500000
 11
-63.250000
 21
-92.500000
  0
LINE
  8
0
 10
-51.250000
 20
-123.500000
 11
-51.250000
 21
-92.500000
  0
LINE
  8
0
 10
-39.250000
 20
-123.500000
 11
-39.250000
 21
-92.500000
  0
ARC
  8
0
 10
30.800018
 20
28.750000
 40
3.500000
 50
269.999969
 51
336.104370
  0
ARC
  8
0
 10
30.800018
 20
32.250000
 40
3.499998
 50
23.895571
 51
89.999969
  0
ARC
  8
0
 10
30.800018
 20
-4.250000
 40
3.500000
 50
269.999969
 51
336.104370
  0
ARC
  8
0
 10
30.800018
 20
-0.750000
 40
3.499999
 50
23.895578
 51
89.999969
  0
ARC
  8
0
 10
-33.500000
 20
14.000000
 40
6.000000
 50
326.442688
 51
33.557331
  0
CIRCLE
  8
0
 10
0.000000
 20
30.500000
 40
4.750000
  0
CIRCLE
  8
0
 10
0.000000
 20
30.500000
 40
2.600000
  0
CIRCLE
  8
0
  6
DASHED
 62
     2
 10
0.000000
 20
30.500000
 40
3.000000
  0
CIRCLE
  8
0
 10
-20.000000
 20
30.500000
 40
4.750000
  0
CIRCLE
  8
0
  6
DASHED
 62
     2
 10
-20.000000
 20
30.500000
 40
3.000000
  0
CIRCLE
  8
0
 10
-20.000000
 20
30.500000
 40
2.600000
  0
CIRCLE
  8
0
 10
0.000000
 20
-2.500000
 40
4.750000
  0
CIRCLE
  8
0
  6
DASHED
 62
     2
 10
0.000000
 20
-2.500000
 40
3.000000
  0
CIRCLE
  8
0
 10
0.000000
 20
-2.500000
 40
2.600000
  0
CIRCLE
  8
0
 10
-20.000000
 20
-2.500000
 40
2.600000
  0
CIRCLE
  8
0
  6
DASHED
 62
     2
 10
-20.000000
 20
-2.500000
 40
3.000000
  0
CIRCLE
  8
0
 10
-20.000000
 20
-2.500000
 40
4.750000
  0
CIRCLE
  8
0
 62
     2
 10
12.000000
 20
-15.000000
 40
4.864004
  0
CIRCLE
  8
0
 10
12.000000
 20
-15.000000
 40
4.283003
  0
CIRCLE
  8
0
 62
     2
 10
-14.000000
 20
-15.000000
 40
4.864004
  0
CIRCLE
  8
0
 10
-14.000000
 20
-15.000000
 40
4.283003
  0
ARC
  8
0
 10
60.405388
 20
13.999998
 40
10.094612
 50
332.770782
 51
27.229210
  0
ARC
  8
0
 10
74.594368
 20
14.000002
 40
10.094367
 50
152.770081
 51
207.229904
  0
ARC
  8
0
 10
43.481911
 20
14.000004
 40
21.018089
 50
342.412537
 51
17.587461
  0
ARC
  8
0
 10
67.556854
 20
20.928202
 40
2.943146
 50
308.309753
 51
0.000000
  0
ARC
  8
0
 10
58.877068
 20
23.526281
 40
5.622935
 50
325.616608
 51
0.000000
  0
ARC
  8
0
 10
67.443085
 20
20.928202
 40
2.943088
 50
231.691620
 51
235.793930
  0
ARC
  8
0
 10
67.443085
 20
20.928202
 40
2.943085
 50
179.999969
 51
231.691620
  0
ARC
  8
0
 10
58.877068
 20
4.473719
 40
5.622932
 50
359.999939
 51
34.383339
  0
ARC
  8
0
 10
67.443085
 20
7.071798
 40
2.943089
 50
128.308365
 51
179.999969
  0
ARC
  8
0
 10
67.556854
 20
7.071798
 40
2.943146
 50
359.999939
 51
51.690220
  0
CIRCLE
  8
0
 62
     2
 10
-119.000000
 20
52.000000
 40
3.000000
  0
CIRCLE
  8
0
 10
-132.000000
 20
-17.500000
 40
5.250000
  0
CIRCLE
  8
0
 10
-132.000000
 20
-17.500000
 40
3.400000
  0
CIRCLE
  8
0
 10
-119.000000
 20
52.000000
 40
2.500000
  0
CIRCLE
  8
0
 10
-132.000000
 20
45.500000
 40
5.250000
  0
CIRCLE
  8
0
 10
-132.000000
 20
14.000000
 40
3.400000
  0
CIRCLE
  8
0
 10
-132.000000
 20
45.500000
 40
3.400000
  0
CIRCLE
  8
0
 10
-132.000000
 20
14.000000
 40
5.250000
  0
ARC
  8
0
 10
-152.700012
 20
43.949997
 40
0.300003
 50
180.000000
 51
270.000000
  0
ARC
  8
0
 10
-152.700012
 20
38.050003
 40
0.299999
 50
90.000000
 51
180.000000
  0
ARC
  8
0
 10
-152.700012
 20
-10.050003
 40
0.300003
 50
180.000000
 51
270.000000
  0
ARC
  8
0
 10
-152.700012
 20
-15.949997
 40
0.300000
 50
90.000000
 51
180.000000
  0
ARC
  8
0
 10
-111.299988
 20
43.449997
 40
0.299999
 50
270.000000
 51
0.000000
  0
ARC
  8
0
 10
-111.299988
 20
38.550003
 40
0.300003
 50
0.000000
 51
90.000000
  0
CIRCLE
  8
0
 10
-132.000000
 20
45.500000
 40
5.750000
  0
CIRCLE
  8
0
 10
-132.000000
 20
14.000000
 40
5.750000
  0
CIRCLE
  8
0
 62
     2
 10
-145.000000
 20
-24.000000
 40
3.000000
  0
CIRCLE
  8
0
 10
-145.000000
 20
-24.000000
 40
2.500000
  0
CIRCLE
  8
0
 10
-132.000000
 20
-17.500000
 40
5.750000
  0
CIRCLE
  8
0
 10
-145.000000
 20
52.000000
 40
2.500000
  0
CIRCLE
  8
0
 62
     2
 10
-145.000000
 20
52.000000
 40
3.000000
  0
CIRCLE
  8
0
 10
-119.000000
 20
-24.000000
 40
2.500000
  0
CIRCLE
  8
0
 62
     2
 10
-119.000000
 20
-24.000000
 40
3.000000
  0
CIRCLE
  8
0
 62
     2
 10
148.000000
 20
-26.000000
 40
3.000000
  0
CIRCLE
  8
0
 10
118.000000
 20
54.000000
 40
2.500000
  0
CIRCLE
  8
0
 10
148.000000
 20
-26.000000
 40
2.500000
  0
CIRCLE
  8
0
 62
     2
 10
118.000000
 20
54.000000
 40
3.000000
  0
CIRCLE
  8
0
 10
133.000000
 20
-17.500000
 40
7.000000
  0
CIRCLE
  8
0
 10
133.000000
 20
45.500000
 40
7.000000
  0
ARC
  8
0
 10
115.600037
 20
20.099998
 40
2.500000
 50
0.000000
 51
90.000000
  0
ARC
  8
0
 10
150.400024
 20
20.099998
 40
2.500000
 50
90.000000
 51
179.999954
  0
ARC
  8
0
 10
150.400024
 20
7.900002
 40
2.500000
 50
179.999985
 51
270.000000
  0
ARC
  8
0
 10
115.600037
 20
7.900002
 40
2.500000
 50
270.000000
 51
0.000000
  0
CIRCLE
  8
0
 10
118.000000
 20
30.500000
 40
5.250000
  0
CIRCLE
  8
0
 10
148.000000
 20
-2.500000
 40
5.250000
  0
CIRCLE
  8
0
 10
133.000000
 20
14.000000
 40
5.000000
  0
CIRCLE
  8
0
 62
     2
 10
133.000000
 20
14.000000
 40
4.400000
  0
CIRCLE
  8
0
 10
133.000000
 20
14.000000
 40
11.000000
  0
CIRCLE
  8
0
 10
133.000000
 20
14.000000
 40
8.000000
  0
CIRCLE
  8
0
 10
148.000000
 20
-2.500000
 40
3.150000
  0
CIRCLE
  8
0
 10
118.000000
 20
30.500000
 40
3.150000
  0
ARC
  8
0
 10
115.599991
 20
20.100006
 40
2.100000
 50
270.000000
 51
90.000000
  0
ARC
  8
0
 10
115.599991
 20
7.899994
 40
2.100000
 50
270.000000
 51
90.000000
  0
ARC
  8
0
 10
150.400009
 20
7.899994
 40
2.100000
 50
90.000000
 51
270.000000
  0
ARC
  8
0
 10
150.400009
 20
20.100006
 40
2.100000
 50
90.000000
 51
270.000000
  0
CIRCLE
  8
0
 10
133.000000
 20
45.500000
 40
9.000000
  0
CIRCLE
  8
0
 10
133.000000
 20
-17.500000
 40
9.000000
  0
CIRCLE
  8
0
 62
     2
 10
118.000000
 20
-26.000000
 40
3.000000
  0
CIRCLE
  8
0
 10
118.000000
 20
-26.000000
 40
2.500000
  0
CIRCLE
  8
0
 62
     2
 10
148.000000
 20
54.000000
 40
3.000000
  0
CIRCLE
  8
0
 10
148.000000
 20
54.000000
 40
2.500000
  0
ARC
  8
0
 10
153.699997
 20
43.949997
 40
0.299999
 50
270.000000
 51
0.000000
  0
ARC
  8
0
 10
153.699997
 20
38.050003
 40
0.300003
 50
0.000000
 51
90.000000
  0
ARC
  8
0
 10
112.300003
 20
43.449997
 40
0.300003
 50
180.000000
 51
270.000000
  0
ARC
  8
0
 10
112.300003
 20
38.550003
 40
0.299999
 50
90.000000
 51
180.000000
  0
ARC
  8
0
 10
153.699997
 20
-15.949997
 40
0.300003
 50
0.000000
 51
90.000000
  0
ARC
  8
0
 10
153.699997
 20
-10.050003
 40
0.300000
 50
270.000000
 51
0.000000
  0
CIRCLE
  8
0
 10
118.500000
 20
-15.000000
 40
1.000000
  0
TEXT
  8
0
 10
133.907150
 20
122.050003
 40
4.500000
  1
Ver. 1.0
 50
0.000000
 41
1.052631
 51
0.000000
  7
STANDARD
  0
TEXT
  8
0
 10
113.700279
 20
-130.669998
 40
6.300000
  1
KOGANEI CORP.
 50
0.000000
 41
1.052632
 51
0.000000
  7
STANDARD
  0
TEXT
  8
0
 10
-191.392654
 20
122.050003
 40
4.500000
  1
JIG CYLINDER WITH GUIDE
 50
0.000000
 41
1.052632
 51
0.000000
  7
STANDARD
  0
TEXT
  8
0
 10
-186.892654
 20
104.550003
 40
4.500000
  1
MODEL:SGDAPQ25*ST(10)
 50
0.000000
 41
1.052632
 51
0.000000
  7
STANDARD
  0
TEXT
  8
0
 62
     3
 10
-1.307142
 20
67.120003
 40
3.200000
  1
STRETCH LINE A
 50
0.000000
 41
1.052632
 51
0.000000
  7
STANDARD
  0
TEXT
  8
0
 62
     3
 10
-22.307001
 20
76.120003
 40
3.200000
  1
STRETCH LINE B
 50
0.000000
 41
1.052632
 51
0.000000
  7
STANDARD
  0
TEXT
  8
0
 10
-181.557144
 20
-96.879997
 40
3.200000
  1
STROKE
 50
0.000000
 41
1.052631
 51
0.000000
  7
STANDARD
  0
TEXT
  8
0
 10
-173.557144
 20
-113.379997
 40
3.200000
  1
A
 50
0.000000
 41
1.052631
 51
0.000000
  7
STANDARD
  0
TEXT
  8
0
 10
-184.496872
 20
-101.019997
 40
3.200000
  1
STRETCH
 50
0.000000
 41
1.052631
 51
0.000000
  7
STANDARD
  0
TEXT
  8
0
 10
-184.496872
 20
-105.820000
 40
3.200000
  1
  PLACE
 50
0.000000
 41
1.052631
 51
0.000000
  7
STANDARD
  0
TEXT
  8
0
 10
-156.657150
 20
-101.879997
 40
3.200000
  1
10
 50
0.000000
 41
1.052631
 51
0.000000
  7
STANDARD
  0
TEXT
  8
0
 10
-144.657150
 20
-101.879997
 40
3.200000
  1
20
 50
0.000000
 41
1.052631
 51
0.000000
  7
STANDARD
  0
TEXT
  8
0
 10
-132.657150
 20
-101.879997
 40
3.200000
  1
30
 50
0.000000
 41
1.052631
 51
0.000000
  7
STANDARD
  0
TEXT
  8
0
 10
-120.657158
 20
-101.879997
 40
3.200000
  1
50
 50
0.000000
 41
1.052631
 51
0.000000
  7
STANDARD
  0
TEXT
  8
0
 10
-108.657158
 20
-101.879997
 40
3.200000
  1
75
 50
0.000000
 41
1.052631
 51
0.000000
  7
STANDARD
  0
TEXT
  8
0
 10
-51.857143
 20
-91.379997
 40
3.200000
  1
(mm)
 50
0.000000
 41
1.052631
 51
0.000000
  7
STANDARD
  0
TEXT
  8
0
 10
-131.157135
 20
-91.379997
 40
3.200000
  1
STRETCH LIST
 50
0.000000
 41
1.052631
 51
0.000000
  7
STANDARD
  0
TEXT
  8
0
 10
-173.557007
 20
-121.379997
 40
3.200000
  1
B
 50
0.000000
 41
1.052632
 51
0.000000
  7
STANDARD
  0
TEXT
  8
0
 10
-98.257156
 20
-101.879997
 40
3.200000
  1
100
 50
0.000000
 41
1.052631
 51
0.000000
  7
STANDARD
  0
TEXT
  8
0
 10
-86.257156
 20
-101.879997
 40
3.200000
  1
125
 50
0.000000
 41
1.052631
 51
0.000000
  7
STANDARD
  0
TEXT
  8
0
 10
-74.257156
 20
-101.879997
 40
3.200000
  1
150
 50
0.000000
 41
1.052631
 51
0.000000
  7
STANDARD
  0
TEXT
  8
0
 10
-62.257156
 20
-101.879997
 40
3.200000
  1
175
 50
0.000000
 41
1.052631
 51
0.000000
  7
STANDARD
  0
TEXT
  8
0
 10
-50.257156
 20
-101.879997
 40
3.200000
  1
200
 50
0.000000
 41
1.052631
 51
0.000000
  7
STANDARD
  0
TEXT
  8
0
 10
-155.057007
 20
-113.379997
 40
3.200000
  1
0
 50
0.000000
 41
1.052632
 51
0.000000
  7
STANDARD
  0
TEXT
  8
0
 10
-143.057007
 20
-113.379997
 40
3.200000
  1
0
 50
0.000000
 41
1.052632
 51
0.000000
  7
STANDARD
  0
TEXT
  8
0
 10
-131.057007
 20
-113.379997
 40
3.200000
  1
0
 50
0.000000
 41
1.052632
 51
0.000000
  7
STANDARD
  0
TEXT
  8
0
 10
-119.056999
 20
-113.379997
 40
3.200000
  1
0
 50
0.000000
 41
1.052632
 51
0.000000
  7
STANDARD
  0
TEXT
  8
0
 10
-108.656998
 20
-113.379997
 40
3.200000
  1
25
 50
0.000000
 41
1.052632
 51
0.000000
  7
STANDARD
  0
TEXT
  8
0
 10
-96.656998
 20
-113.379997
 40
3.200000
  1
50
 50
0.000000
 41
1.052632
 51
0.000000
  7
STANDARD
  0
TEXT
  8
0
 10
-84.656998
 20
-113.379997
 40
3.200000
  1
25
 50
0.000000
 41
1.052632
 51
0.000000
  7
STANDARD
  0
TEXT
  8
0
 10
-72.656998
 20
-113.379997
 40
3.200000
  1
50
 50
0.000000
 41
1.052632
 51
0.000000
  7
STANDARD
  0
TEXT
  8
0
 10
-60.657001
 20
-113.379997
 40
3.200000
  1
75
 50
0.000000
 41
1.052632
 51
0.000000
  7
STANDARD
  0
TEXT
  8
0
 10
-50.257000
 20
-113.379997
 40
3.200000
  1
100
 50
0.000000
 41
1.052632
 51
0.000000
  7
STANDARD
  0
TEXT
  8
0
 10
-155.057007
 20
-121.379997
 40
3.200000
  1
0
 50
0.000000
 41
1.052632
 51
0.000000
  7
STANDARD
  0
TEXT
  8
0
 10
-144.656998
 20
-121.379997
 40
3.200000
  1
10
 50
0.000000
 41
1.052632
 51
0.000000
  7
STANDARD
  0
TEXT
  8
0
 10
-132.656998
 20
-121.379997
 40
3.200000
  1
20
 50
0.000000
 41
1.052632
 51
0.000000
  7
STANDARD
  0
TEXT
  8
0
 10
-120.656998
 20
-121.379997
 40
3.200000
  1
40
 50
0.000000
 41
1.052632
 51
0.000000
  7
STANDARD
  0
TEXT
  8
0
 10
-108.656998
 20
-121.379997
 40
3.200000
  1
40
 50
0.000000
 41
1.052632
 51
0.000000
  7
STANDARD
  0
TEXT
  8
0
 10
-96.656998
 20
-121.379997
 40
3.200000
  1
40
 50
0.000000
 41
1.052632
 51
0.000000
  7
STANDARD
  0
TEXT
  8
0
 10
-84.656998
 20
-121.379997
 40
3.200000
  1
90
 50
0.000000
 41
1.052632
 51
0.000000
  7
STANDARD
  0
TEXT
  8
0
 10
-72.656998
 20
-121.379997
 40
3.200000
  1
90
 50
0.000000
 41
1.052632
 51
0.000000
  7
STANDARD
  0
TEXT
  8
0
 10
-60.657001
 20
-121.379997
 40
3.200000
  1
90
 50
0.000000
 41
1.052632
 51
0.000000
  7
STANDARD
  0
TEXT
  8
0
 10
-48.657001
 20
-121.379997
 40
3.200000
  1
90
 50
0.000000
 41
1.052632
 51
0.000000
  7
STANDARD
  0
TEXT
  8
0
 62
     2
 10
53.635075
 20
-46.000000
 40
3.200000
  1
STROKE=75-200
 50
0.000000
 41
1.052632
 51
0.000000
  7
STANDARD
  0
LINE
  8
0
 62
     2
 10
50.000000
 20
-47.000000
 11
94.985077
 21
-47.000000
  0
LINE
  8
0
 62
     2
 10
22.000000
 20
-47.000000
 11
50.000000
 21
-47.000000
  0
LINE
  8
0
 62
     2
 10
22.000000
 20
-47.000000
 11
24.897778
 21
-46.223541
  0
LINE
  8
0
 62
     2
 10
22.000000
 20
-47.000000
 11
24.897778
 21
-47.776459
  0
LINE
  8
0
 62
     2
 10
50.000000
 20
-47.000000
 11
47.102222
 21
-47.776459
  0
LINE
  8
0
 62
     2
 10
50.000000
 20
-47.000000
 11
47.102222
 21
-46.223541
  0
LINE
  8
0
 62
     2
 10
22.000000
 20
-31.500000
 11
22.000000
 21
-48.500000
  0
LINE
  8
0
 62
     2
 10
50.000000
 20
-25.000000
 11
50.000000
 21
-48.500000
  0
ENDSEC
  0
EOF
