  0
SECTION
  2
HEADER
  0
ENDSEC
  0
SECTION
  2
TABLES
  0
TABLE
  2
LTYPE
 70
     4
  0
LTYPE
  2
CONTINUOUS
 70
    64
  3
Solid line
 72
    65
 73
     0
 40
0.000000
  0
LTYPE
  2
DASHED
 70
    64
  3
__ __ __ __ __ __ __ __ __ __ __ __ __ __ __
 72
    65
 73
     2
 40
3.500000
 49
2.000000
 49
-1.500000
  0
LTYPE
  2
CENTER
 70
    64
  3
____ _ ____ _ ____ _ ____ _ ____ _ ____ _ ____
 72
    65
 73
     4
 40
17.500000
 49
13.000000
 49
-1.500000
 49
1.500000
 49
-1.500000
  0
LTYPE
  2
PHANTOM
 70
    64
  3
_____ _ _ _____ _ _ _____ _ _ _____ _ _ ____  
 72
    65
 73
     6
 40
15.500000
 49
8.000000
 49
-1.500000
 49
1.500000
 49
-1.500000
 49
1.500000
 49
-1.500000
  0
LTYPE
  2
DASHED1
 70
    64
  3
__ __ __ __ __ __ __ __ __ __ __ __ __ __ __
 72
    65
 73
     2
 40
1.500000
 49
1.000000
 49
-0.500000
  0
LTYPE
  2
DASHED2
 70
    64
  3
__ __ __ __ __ __ __ __ __ __ __ __ __ __ __
 72
    65
 73
     2
 40
3.500000
 49
2.500000
 49
-1.000000
  0
LTYPE
  2
DASHED3
 70
    64
  3
__ __ __ __ __ __ __ __ __ __ __ __ __ __ __
 72
    65
 73
     2
 40
6.000000
 49
4.000000
 49
-2.000000
  0
LTYPE
  2
DASHED4
 70
    64
  3
__ __ __ __ __ __ __ __ __ __ __ __ __ __ __
 72
    65
 73
     2
 40
12.000000
 49
10.000000
 49
-2.000000
  0
LTYPE
  2
DASHED5
 70
    64
  3
__ __ __ __ __ __ __ __ __ __ __ __ __ __ __
 72
    65
 73
     2
 40
17.000000
 49
15.000000
 49
-2.000000
  0
LTYPE
  2
DASHED6
 70
    64
  3
__ __ __ __ __ __ __ __ __ __ __ __ __ __ __
 72
    65
 73
     2
 40
29.000000
 49
27.000000
 49
-2.000000
  0
LTYPE
  2
PHANTOM1
 70
    64
  3
_____ _ _ _____ _ _ _____ _ _ _____ _ _ ____  
 72
    65
 73
     6
 40
31.000000
 49
25.000000
 49
-1.500000
 49
1.000000
 49
-1.000000
 49
1.000000
 49
-1.500000
  0
LTYPE
  2
PHANTOM2
 70
    64
  3
_____ _ _ _____ _ _ _____ _ _ _____ _ _ ____  
 72
    65
 73
     6
 40
36.000000
 49
27.000000
 49
-1.500000
 49
2.500000
 49
-1.000000
 49
2.500000
 49
-1.500000
  0
LTYPE
  2
PHANTOM3
 70
    64
  3
_____ _ _ _____ _ _ _____ _ _ _____ _ _ ____  
 72
    65
 73
     6
 40
78.000000
 49
64.000000
 49
-2.000000
 49
4.000000
 49
-2.000000
 49
4.000000
 49
-2.000000
  0
LTYPE
  2
CENTER1
 70
    64
  3
____ _ ____ _ ____ _ ____ _ ____ _ ____ _ ____
 72
    65
 73
     4
 40
19.000000
 49
14.000000
 49
-1.000000
 49
3.000000
 49
-1.000000
  0
LTYPE
  2
CENTER2
 70
    64
  3
____ _ ____ _ ____ _ ____ _ ____ _ ____ _ ____
 72
    65
 73
     4
 40
28.500000
 49
25.000000
 49
-1.000000
 49
1.500000
 49
-1.000000
  0
LTYPE
  2
CENTER3
 70
    64
  3
____ _ ____ _ ____ _ ____ _ ____ _ ____ _ ____
 72
    65
 73
     4
 40
31.500000
 49
27.000000
 49
-1.000000
 49
2.500000
 49
-1.000000
  0
LTYPE
  2
CENTER4
 70
    64
  3
____ _ ____ _ ____ _ ____ _ ____ _ ____ _ ____
 72
    65
 73
     4
 40
50.000000
 49
45.000000
 49
-1.000000
 49
3.000000
 49
-1.000000
  0
LTYPE
  2
CENTER5
 70
    64
  3
____ _ ____ _ ____ _ ____ _ ____ _ ____ _ ____
 72
    65
 73
     4
 40
100.000000
 49
92.000000
 49
-2.000000
 49
4.000000
 49
-2.000000
  0
LTYPE
  2
SBK1
 70
    64
  3
______ _ _ _ ______ _ _ _ ______ _ _ _ _____  
 72
    65
 73
     8
 40
60.500000
 49
45.000000
 49
-2.000000
 49
2.500000
 49
-2.000000
 49
2.500000
 49
-2.000000
 49
2.500000
 49
-2.000000
  0
LTYPE
  2
SBK2
 70
    64
  3
______ _ _ _ ______ _ _ _ ______ _ _ _ _____  
 72
    65
 73
     8
 40
84.000000
 49
64.000000
 49
-2.000000
 49
4.000000
 49
-2.000000
 49
4.000000
 49
-2.000000
 49
4.000000
 49
-2.000000
  0
LTYPE
  2
STCH
 70
    64
  3
__ __ __ __ __ __ __ __ __ __ __ __ __ __ __
 72
    65
 73
     2
 40
3.000000
 49
1.000000
 49
-2.000000
  0
LTYPE
  2
MTCH
 70
    64
  3
_____ _ _ _____ _ _ _____ _ _ _____ _ _ ____  
 72
    65
 73
     6
 40
80.000000
 49
66.000000
 49
-2.000000
 49
4.000000
 49
-2.000000
 49
4.000000
 49
-2.000000
  0
ENDTAB
  0
TABLE
  2
LAYER
 70
     1
  0
LAYER
  2
0
 70
     0
 62
     7
  6
CONTINUOUS
  0
ENDTAB
  0
TABLE
  2
STYLE
 70
     1
  0
STYLE
  2
STANDARD
 70
     0
 40
0.000000
 41
1.000000
 50
0.000000
 71
     0
 42
0.200000
  3
txt
  4
BIGFONT
  0
ENDTAB
  0
TABLE
  2
VIEW
 70
     0
  0
ENDTAB
  0
ENDSEC
  0
SECTION
  2
BLOCKS
  0
ENDSEC
  0
SECTION
  2
ENTITIES
  0
LINE
  8
0
  6
CENTER
 62
     2
 10
-43.622551
 20
11.000000
 11
54.805008
 21
11.000000
  0
LINE
  8
0
  6
DASHED
 62
     2
 10
31.000000
 20
-16.000000
 11
31.000000
 21
-9.000029
  0
LINE
  8
0
  6
DASHED
 62
     2
 10
8.000000
 20
-8.500000
 11
30.500000
 21
-8.500000
  0
LINE
  8
0
  6
DASHED
 62
     2
 10
8.000000
 20
-16.500000
 11
30.500000
 21
-16.500000
  0
LINE
  8
0
  6
DASHED
 62
     2
 10
30.499989
 20
-8.500017
 11
30.999985
 21
-9.000011
  0
LINE
  8
0
  6
DASHED
 62
     2
 10
30.999981
 20
-15.999986
 11
30.499983
 21
-16.499985
  0
LINE
  8
0
  6
DASHED
 62
     2
 10
30.500000
 20
-8.500000
 11
30.500000
 21
-16.500000
  0
LINE
  8
0
  6
DASHED
 62
     2
 10
31.000000
 20
31.000000
 11
31.000000
 21
37.999969
  0
LINE
  8
0
  6
DASHED
 62
     2
 10
8.000000
 20
38.500000
 11
30.500000
 21
38.500000
  0
LINE
  8
0
  6
DASHED
 62
     2
 10
8.000000
 20
30.500000
 11
30.500000
 21
30.500000
  0
LINE
  8
0
  6
DASHED
 62
     2
 10
30.499968
 20
38.499996
 11
30.999969
 21
38.000000
  0
LINE
  8
0
  6
DASHED
 62
     2
 10
30.999996
 20
31.000004
 11
30.499998
 21
30.500006
  0
LINE
  8
0
  6
DASHED
 62
     2
 10
30.500000
 20
38.500000
 11
30.500000
 21
30.500000
  0
LINE
  8
0
 10
24.000000
 20
15.000000
 11
14.000000
 21
15.000000
  0
LINE
  8
0
 10
8.000000
 20
-6.500000
 11
14.000000
 21
-6.500000
  0
LINE
  8
0
 10
8.000000
 20
28.500000
 11
14.000000
 21
28.500000
  0
LINE
  8
0
 10
14.000000
 20
-6.750000
 11
14.000000
 21
28.750000
  0
LINE
  8
0
 10
24.000000
 20
7.000000
 11
14.000000
 21
7.000000
  0
LINE
  8
0
 10
24.000000
 20
3.500000
 11
24.000000
 21
18.500000
  0
LINE
  8
0
 10
25.500000
 20
3.500000
 11
25.500000
 21
18.500000
  0
LINE
  8
0
 10
45.500000
 20
4.000000
 11
45.500000
 21
18.000029
  0
LINE
  8
0
 10
35.500000
 20
2.917099
 11
35.500000
 21
19.082901
  0
LINE
  8
0
 10
25.500000
 20
4.000000
 11
35.500000
 21
4.000000
  0
LINE
  8
0
 10
35.500000
 20
6.958549
 11
44.874786
 21
6.958549
  0
LINE
  8
0
 10
35.500000
 20
2.917099
 11
44.874786
 21
2.917099
  0
LINE
  8
0
 10
44.874813
 20
2.917107
 11
45.500027
 21
4.000009
  0
LINE
  8
0
 10
50.500000
 20
6.549999
 11
50.500000
 21
15.450005
  0
LINE
  8
0
 10
46.264130
 20
8.113251
 11
49.735870
 21
8.113251
  0
LINE
  8
0
 10
46.264130
 20
5.226501
 11
49.735870
 21
5.226501
  0
LINE
  8
0
 10
45.500050
 20
6.550018
 11
46.264172
 21
5.226520
  0
LINE
  8
0
 10
49.735886
 20
5.226506
 11
50.500008
 21
6.550004
  0
LINE
  8
0
 10
50.500000
 20
8.000000
 11
51.399994
 21
8.000000
  0
LINE
  8
0
 62
     2
 10
50.500000
 20
8.500000
 11
51.899994
 21
8.500000
  0
LINE
  8
0
 10
52.399986
 20
8.999997
 11
51.399990
 21
8.000002
  0
LINE
  8
0
 10
51.399994
 20
14.000000
 11
51.399994
 21
8.000000
  0
LINE
  8
0
 10
24.000000
 20
3.500000
 11
25.500000
 21
3.500000
  0
LINE
  8
0
 10
52.399994
 20
13.000004
 11
52.399994
 21
9.000000
  0
LINE
  8
0
 10
14.000000
 20
-6.750000
 11
14.500000
 21
-6.750000
  0
LINE
  8
0
 10
14.500000
 20
2.750000
 11
14.500000
 21
-6.750000
  0
LINE
  8
0
 10
14.000000
 20
2.750000
 11
14.500000
 21
2.750000
  0
LINE
  8
0
 10
17.399994
 20
0.518112
 11
17.399994
 21
-4.518112
  0
LINE
  8
0
 10
14.000000
 20
19.250000
 11
14.500000
 21
19.250000
  0
LINE
  8
0
 10
14.500000
 20
28.750000
 11
14.500000
 21
19.250000
  0
LINE
  8
0
 10
14.000000
 20
28.750000
 11
14.500000
 21
28.750000
  0
LINE
  8
0
 10
17.399994
 20
26.518110
 11
17.399994
 21
21.481886
  0
LINE
  8
0
 10
25.500000
 20
18.000000
 11
35.500000
 21
18.000000
  0
LINE
  8
0
 10
35.500000
 20
15.041451
 11
44.874786
 21
15.041451
  0
LINE
  8
0
 10
35.500000
 20
19.082901
 11
44.874786
 21
19.082901
  0
LINE
  8
0
 10
44.874832
 20
19.082901
 11
45.500046
 21
18.000000
  0
LINE
  8
0
 10
46.264130
 20
13.886749
 11
49.735870
 21
13.886749
  0
LINE
  8
0
 10
46.264130
 20
16.773499
 11
49.735870
 21
16.773499
  0
LINE
  8
0
 10
45.500050
 20
15.450006
 11
46.264172
 21
16.773504
  0
LINE
  8
0
 10
49.735905
 20
16.773508
 11
50.500027
 21
15.450009
  0
LINE
  8
0
 10
50.500000
 20
14.000000
 11
51.399994
 21
14.000000
  0
LINE
  8
0
 62
     2
 10
50.500000
 20
13.500000
 11
51.899994
 21
13.500000
  0
LINE
  8
0
 10
52.399982
 20
12.999963
 11
51.399971
 21
13.999974
  0
LINE
  8
0
 10
24.000000
 20
18.500000
 11
25.500000
 21
18.500000
  0
LINE
  8
0
 10
8.000000
 20
19.000000
 11
14.000000
 21
19.000000
  0
LINE
  8
0
 10
8.000000
 20
3.000000
 11
14.000000
 21
3.000000
  0
LINE
  8
0
 10
-32.000000
 20
15.000000
 11
-29.000000
 21
15.000000
  0
LINE
  8
0
  6
CENTER
 62
     2
 10
-43.446678
 20
34.500000
 11
-27.409863
 21
34.500000
  0
LINE
  8
0
 10
-28.500000
 20
45.000000
 11
7.500000
 21
45.000000
  0
LINE
  8
0
 10
-32.000000
 20
-21.500000
 11
-32.000000
 21
43.500015
  0
LINE
  8
0
 10
-42.000000
 20
43.500000
 11
-42.000000
 21
-21.500000
  0
LINE
  8
0
 10
-41.500000
 20
-22.000000
 11
-32.500000
 21
-22.000000
  0
LINE
  8
0
 10
-41.500000
 20
44.000000
 11
-32.500000
 21
44.000000
  0
LINE
  8
0
 10
-32.000000
 20
7.000000
 11
-29.000000
 21
7.000000
  0
LINE
  8
0
  6
CENTER
 62
     2
 10
-43.446678
 20
-12.500000
 11
-27.061066
 21
-12.500000
  0
LINE
  8
0
 10
-32.000000
 20
9.063507
 11
-30.500000
 21
9.063507
  0
LINE
  8
0
 10
-30.500000
 20
12.936493
 11
-30.500000
 21
9.063507
  0
LINE
  8
0
 62
     2
 10
-31.999994
 20
11.968287
 11
-30.499973
 21
9.063504
  0
LINE
  8
0
 62
     2
 10
-30.499998
 20
12.936501
 11
-32.000011
 21
10.031731
  0
LINE
  8
0
 10
-42.000000
 20
-21.499956
 11
-41.500000
 21
-21.999956
  0
LINE
  8
0
 10
-32.000015
 20
-21.499983
 11
-32.500004
 21
-21.999973
  0
LINE
  8
0
 10
-41.499966
 20
43.999989
 11
-41.999969
 21
43.499985
  0
LINE
  8
0
 10
-32.500019
 20
44.000015
 11
-32.000008
 21
43.500004
  0
LINE
  8
0
 10
-28.499973
 20
44.999981
 11
-28.999973
 21
44.499981
  0
LINE
  8
0
 10
7.499980
 20
44.999973
 11
7.999981
 21
44.499973
  0
LINE
  8
0
 10
-29.000000
 20
12.900009
 11
8.000000
 21
12.900009
  0
LINE
  8
0
 10
-29.000000
 20
15.700012
 11
8.000000
 21
15.700012
  0
LINE
  8
0
 10
-29.000000
 20
17.500015
 11
8.000000
 21
17.500015
  0
LINE
  8
0
 10
-29.000000
 20
44.000000
 11
8.000000
 21
44.000000
  0
LINE
  8
0
 10
-29.000000
 20
35.150009
 11
8.000000
 21
35.150009
  0
LINE
  8
0
 10
-29.000000
 20
30.849991
 11
8.000000
 21
30.849991
  0
LINE
  8
0
 10
-32.000000
 20
12.936508
 11
-30.500000
 21
12.936508
  0
LINE
  8
0
  6
CENTER
 62
     2
 10
-29.000000
 20
24.000000
 11
-18.971458
 21
24.000000
  0
LINE
  8
0
 10
-29.000000
 20
19.000015
 11
8.000000
 21
19.000015
  0
LINE
  8
0
  6
CENTER
 62
     2
 10
-29.000000
 20
-2.000000
 11
-19.333664
 21
-2.000000
  0
LINE
  8
0
  6
CENTER
 62
     2
 10
-24.000000
 20
-7.201691
 11
-24.000000
 21
2.835175
  0
LINE
  8
0
  6
CENTER
 62
     2
 10
-13.815903
 20
-2.000000
 11
-3.888481
 21
-2.000000
  0
LINE
  8
0
  6
CENTER
 62
     2
 10
-8.999985
 20
-7.201691
 11
-8.999985
 21
2.754852
  0
LINE
  8
0
 10
-29.000000
 20
9.100006
 11
8.000008
 21
9.100006
  0
LINE
  8
0
  6
CENTER
 62
     2
 10
-15.979294
 20
-8.000000
 11
-22.053421
 21
-8.000000
  0
LINE
  8
0
  6
CENTER
 62
     2
 10
4.311539
 20
-8.000000
 11
-2.807060
 21
-8.000000
  0
LINE
  8
0
  6
CENTER
 62
     2
 10
0.500008
 20
-11.444304
 11
0.500008
 21
-4.706965
  0
LINE
  8
0
 10
-28.500000
 20
-23.000000
 11
7.500008
 21
-23.000000
  0
LINE
  8
0
 10
-29.000000
 20
-22.500000
 11
-29.000000
 21
44.500000
  0
LINE
  8
0
  6
DASHED
 62
     2
 10
-10.499985
 20
-23.000000
 11
-10.499985
 21
-20.568501
  0
LINE
  8
0
  6
DASHED
 62
     2
 10
-5.499992
 20
-23.000000
 11
-5.499992
 21
-20.568501
  0
LINE
  8
0
  6
DASHED
 62
     2
 10
-10.099991
 20
-23.000000
 11
-10.099991
 21
-20.568501
  0
LINE
  8
0
  6
DASHED
 62
     2
 10
-5.900002
 20
-23.000000
 11
-5.900002
 21
-20.568501
  0
LINE
  8
0
  6
CENTER
 62
     2
 10
-19.000000
 20
-11.444304
 11
-19.000000
 21
-4.706965
  0
LINE
  8
0
  6
DASHED
 62
     2
 10
-22.500000
 20
-23.000000
 11
-22.500000
 21
-20.568501
  0
LINE
  8
0
  6
DASHED
 62
     2
 10
-17.500000
 20
-23.000000
 11
-17.500000
 21
-20.568501
  0
LINE
  8
0
  6
DASHED
 62
     2
 10
-22.099991
 20
-23.000000
 11
-22.099991
 21
-20.568501
  0
LINE
  8
0
  6
DASHED
 62
     2
 10
-17.900009
 20
-23.000000
 11
-17.900009
 21
-20.568501
  0
LINE
  8
0
 10
-29.000000
 20
-22.000000
 11
8.000008
 21
-22.000000
  0
LINE
  8
0
 10
-29.000000
 20
3.000015
 11
8.000008
 21
3.000015
  0
LINE
  8
0
 10
-29.000000
 20
-13.500000
 11
8.000008
 21
-13.500000
  0
LINE
  8
0
 10
-29.000000
 20
-16.017288
 11
8.000008
 21
-16.017288
  0
LINE
  8
0
 10
-29.000000
 20
-19.592545
 11
8.000008
 21
-19.592545
  0
LINE
  8
0
 10
-29.000000
 20
6.299988
 11
8.000008
 21
6.299988
  0
LINE
  8
0
 10
-29.000000
 20
4.499985
 11
8.000008
 21
4.499985
  0
LINE
  8
0
 10
8.000016
 20
-22.500015
 11
7.500015
 21
-23.000017
  0
LINE
  8
0
 10
-28.999973
 20
-22.499973
 11
-28.499983
 21
-22.999964
  0
LINE
  8
0
  6
CENTER
 62
     2
 10
-19.999992
 20
-24.017120
 11
-19.999992
 21
-19.833603
  0
LINE
  8
0
 10
8.000008
 20
-22.500000
 11
8.000008
 21
44.500000
  0
LINE
  8
0
  6
CENTER
 62
     2
 10
-9.000000
 20
28.957382
 11
-9.000000
 21
19.026596
  0
LINE
  8
0
  6
CENTER
 62
     2
 10
-24.000000
 20
28.878265
 11
-24.000000
 21
19.066162
  0
LINE
  8
0
  6
CENTER
 62
     2
 10
-14.001617
 20
24.000000
 11
-3.873005
 21
24.000000
  0
LINE
  8
0
 10
-32.000000
 20
38.500000
 11
-29.000000
 21
38.500000
  0
LINE
  8
0
 10
-32.000000
 20
30.500000
 11
-29.000000
 21
30.500000
  0
LINE
  8
0
 10
-32.000000
 20
-8.500000
 11
-29.000000
 21
-8.500000
  0
LINE
  8
0
 10
-32.000000
 20
-16.500000
 11
-29.000000
 21
-16.500000
  0
LINE
  8
0
  6
PHANTOM
 62
     3
 10
-3.500000
 20
53.000000
 11
-3.500000
 21
-11.000000
  0
LINE
  8
0
  6
PHANTOM
 62
     3
 10
-14.500000
 20
60.000000
 11
-14.500000
 21
-28.000000
  0
LINE
  8
0
  6
PHANTOM
 62
     3
 10
-12.000000
 20
-11.000000
 11
-12.000000
 21
-28.000000
  0
LINE
  8
0
  6
PHANTOM
 62
     3
 10
-12.000000
 20
-11.000000
 11
-3.500000
 21
-11.000000
  0
LINE
  8
0
  6
CENTER
 62
     2
 10
-7.999992
 20
-24.017120
 11
-7.999992
 21
-19.833603
  0
LINE
  8
0
 10
-145.500015
 20
12.000000
 11
-145.000000
 21
12.000000
  0
LINE
  8
0
 10
-145.500015
 20
16.200012
 11
-145.000000
 21
16.200012
  0
LINE
  8
0
 10
-146.500015
 20
9.799988
 11
-146.500015
 21
12.200012
  0
LINE
  8
0
 10
-146.200012
 20
15.700012
 11
-146.000015
 21
15.700012
  0
LINE
  8
0
 10
-146.200012
 20
12.500000
 11
-146.000015
 21
12.500000
  0
LINE
  8
0
 10
-145.500000
 20
11.999989
 11
-145.999985
 21
12.499981
  0
LINE
  8
0
 10
-146.000107
 20
15.700115
 11
-145.500092
 21
16.200125
  0
LINE
  8
0
 10
-146.500015
 20
16.000000
 11
-146.500015
 21
17.500015
  0
LINE
  8
0
 10
-145.500015
 20
10.000000
 11
-145.000000
 21
10.000000
  0
LINE
  8
0
 10
-145.500015
 20
5.799988
 11
-145.000000
 21
5.799988
  0
LINE
  8
0
 10
-146.200012
 20
6.299988
 11
-146.000015
 21
6.299988
  0
LINE
  8
0
 10
-146.200012
 20
9.500000
 11
-146.000015
 21
9.500000
  0
LINE
  8
0
 10
-145.500107
 20
10.000103
 11
-146.000107
 21
9.500113
  0
LINE
  8
0
 10
-146.000061
 20
6.299966
 11
-145.500061
 21
5.799965
  0
LINE
  8
0
 10
-146.500076
 20
17.499992
 11
-148.000046
 21
18.999971
  0
LINE
  8
0
 10
-146.500015
 20
6.000000
 11
-146.500015
 21
4.499985
  0
LINE
  8
0
 10
-146.500076
 20
4.500040
 11
-148.000061
 21
3.000062
  0
LINE
  8
0
 10
-148.000000
 20
19.000000
 11
-148.000000
 21
30.550003
  0
LINE
  8
0
 10
-147.000000
 20
45.000000
 11
-117.000000
 21
45.000000
  0
LINE
  8
0
 10
-146.999939
 20
44.999950
 11
-147.999939
 21
43.999947
  0
LINE
  8
0
 10
-148.000000
 20
35.449997
 11
-148.000000
 21
44.000000
  0
LINE
  8
0
 10
-118.999924
 20
36.650002
 11
-117.500000
 21
36.650002
  0
LINE
  8
0
 10
-118.999924
 20
29.349998
 11
-117.500000
 21
29.349998
  0
LINE
  8
0
 10
-117.500000
 20
35.150002
 11
-116.300003
 21
35.150002
  0
LINE
  8
0
 10
-117.500000
 20
30.849998
 11
-116.300003
 21
30.849998
  0
LINE
  8
0
 10
-117.500000
 20
29.349998
 11
-117.500000
 21
30.849998
  0
LINE
  8
0
 10
-117.500000
 20
35.150002
 11
-117.500000
 21
36.650002
  0
LINE
  8
0
 10
-116.000000
 20
35.449997
 11
-116.000000
 21
44.000000
  0
LINE
  8
0
 10
-116.999992
 20
44.999989
 11
-115.999992
 21
43.999992
  0
LINE
  8
0
 10
-118.499985
 20
12.000000
 11
-118.999924
 21
12.000000
  0
LINE
  8
0
 10
-118.499985
 20
16.200012
 11
-118.999924
 21
16.200012
  0
LINE
  8
0
 10
-117.499985
 20
9.799988
 11
-117.499985
 21
12.200012
  0
LINE
  8
0
 10
-117.799988
 20
15.700012
 11
-117.999985
 21
15.700012
  0
LINE
  8
0
 10
-117.799988
 20
12.500000
 11
-117.999985
 21
12.500000
  0
LINE
  8
0
 10
-118.500053
 20
12.000031
 11
-118.000076
 21
12.500011
  0
LINE
  8
0
 10
-117.999939
 20
15.700089
 11
-118.499939
 21
16.200090
  0
LINE
  8
0
 10
-117.499985
 20
16.000000
 11
-117.499985
 21
17.500015
  0
LINE
  8
0
 10
-118.499985
 20
10.000000
 11
-118.999924
 21
10.000000
  0
LINE
  8
0
 10
-118.499985
 20
5.799988
 11
-118.999924
 21
5.799988
  0
LINE
  8
0
 10
-117.799988
 20
6.299988
 11
-117.999985
 21
6.299988
  0
LINE
  8
0
 10
-117.799988
 20
9.500000
 11
-117.999985
 21
9.500000
  0
LINE
  8
0
 10
-118.499924
 20
10.000069
 11
-117.999916
 21
9.500059
  0
LINE
  8
0
 10
-118.000008
 20
6.300000
 11
-118.500031
 21
5.799985
  0
LINE
  8
0
 10
-116.000000
 20
-22.000011
 11
-116.000000
 21
-19.592545
  0
LINE
  8
0
 10
-117.499992
 20
17.500032
 11
-115.999985
 21
19.000032
  0
LINE
  8
0
 10
-117.499985
 20
6.000000
 11
-117.499985
 21
4.499985
  0
LINE
  8
0
 10
-117.499992
 20
4.499989
 11
-116.000000
 21
2.999995
  0
LINE
  8
0
 10
-116.000000
 20
19.000000
 11
-116.000000
 21
30.550003
  0
LINE
  8
0
 10
-116.999992
 20
-22.999937
 11
-116.000008
 21
-21.999958
  0
LINE
  8
0
 10
-148.000000
 20
3.000000
 11
-148.000000
 21
-8.550003
  0
LINE
  8
0
 10
-147.000000
 20
-23.000000
 11
-117.000000
 21
-23.000000
  0
LINE
  8
0
 10
-146.999969
 20
-22.999985
 11
-147.999969
 21
-21.999975
  0
LINE
  8
0
 10
-148.000000
 20
-13.449997
 11
-148.000000
 21
-21.999996
  0
LINE
  8
0
 10
-116.000008
 20
-19.592577
 11
-119.000008
 21
-16.017309
  0
LINE
  8
0
 10
-118.999992
 20
-16.017300
 11
-115.999985
 21
-13.499997
  0
LINE
  8
0
 10
-116.000000
 20
-13.499992
 11
-116.000000
 21
3.000008
  0
LINE
  8
0
 10
-145.000000
 20
35.150002
 11
-147.699997
 21
35.150002
  0
LINE
  8
0
 10
-145.000000
 20
30.849998
 11
-147.699997
 21
30.849998
  0
LINE
  8
0
 10
-145.000000
 20
-13.150002
 11
-147.699997
 21
-13.150002
  0
LINE
  8
0
 10
-145.000000
 20
-8.849998
 11
-147.699997
 21
-8.849998
  0
LINE
  8
0
 10
-144.000000
 20
44.000000
 11
-120.000000
 21
44.000000
  0
LINE
  8
0
 10
-144.000000
 20
-22.000000
 11
-120.000000
 21
-22.000000
  0
LINE
  8
0
 10
-143.999939
 20
43.999962
 11
-144.999939
 21
42.999966
  0
LINE
  8
0
 10
-119.999954
 20
44.000076
 11
-118.999947
 21
43.000080
  0
LINE
  8
0
 10
-144.999985
 20
-20.999985
 11
-143.999985
 21
-21.999987
  0
LINE
  8
0
 10
-119.000000
 20
-20.999977
 11
-120.000000
 21
-21.999979
  0
LINE
  8
0
  6
CENTER
 62
     2
 10
-149.162216
 20
11.000000
 11
-114.874069
 21
11.000000
  0
LINE
  8
0
  6
CENTER
 62
     2
 10
-132.000000
 20
47.375366
 11
-132.000000
 21
-25.272449
  0
LINE
  8
0
  6
CENTER
 62
     2
 10
-136.733643
 20
39.000000
 11
-143.459274
 21
39.000000
  0
LINE
  8
0
  6
CENTER
 62
     2
 10
-124.000000
 20
-20.547089
 11
-124.000000
 21
-13.476543
  0
LINE
  8
0
  6
CENTER
 62
     2
 10
-140.000000
 20
-20.547089
 11
-140.000000
 21
-13.476543
  0
LINE
  8
0
  6
CENTER
 62
     2
 10
-136.733643
 20
-17.000000
 11
-143.459274
 21
-17.000000
  0
LINE
  8
0
 10
-145.000000
 20
43.000004
 11
-145.000000
 21
-21.000008
  0
LINE
  8
0
 10
-118.999924
 20
43.000107
 11
-118.999924
 21
-20.999866
  0
LINE
  8
0
 10
-132.000046
 20
36.232117
 11
-133.500031
 21
35.366096
  0
LINE
  8
0
 10
-133.500000
 20
35.366024
 11
-133.500000
 21
33.633976
  0
LINE
  8
0
 10
-132.000031
 20
32.767925
 11
-133.500015
 21
33.633938
  0
LINE
  8
0
 10
-130.500046
 20
33.634041
 11
-132.000046
 21
32.768013
  0
LINE
  8
0
 10
-130.500000
 20
35.366024
 11
-130.500000
 21
33.633976
  0
LINE
  8
0
 10
-132.000015
 20
36.232033
 11
-130.500015
 21
35.366013
  0
LINE
  8
0
 10
-132.000015
 20
-10.767915
 11
-133.500000
 21
-11.633939
  0
LINE
  8
0
 10
-133.500000
 20
-11.633976
 11
-133.500000
 21
-13.366024
  0
LINE
  8
0
 10
-132.000031
 20
-14.232095
 11
-133.500031
 21
-13.366074
  0
LINE
  8
0
 10
-130.500031
 20
-13.365996
 11
-132.000031
 21
-14.232027
  0
LINE
  8
0
 10
-130.500000
 20
-11.633976
 11
-130.500000
 21
-13.366024
  0
LINE
  8
0
 10
-132.000015
 20
-10.767997
 11
-130.500015
 21
-11.634024
  0
LINE
  8
0
 10
-132.000031
 20
12.732115
 11
-133.500015
 21
11.866095
  0
LINE
  8
0
 10
-133.500000
 20
11.866024
 11
-133.500000
 21
10.133976
  0
LINE
  8
0
 10
-132.000031
 20
9.267913
 11
-133.500031
 21
10.133934
  0
LINE
  8
0
 10
-130.500031
 20
10.134018
 11
-132.000046
 21
9.267990
  0
LINE
  8
0
 10
-130.500000
 20
11.866024
 11
-130.500000
 21
10.133976
  0
LINE
  8
0
 10
-132.000015
 20
12.732026
 11
-130.500000
 21
11.865993
  0
LINE
  8
0
  6
CENTER
 62
     2
 10
-140.000000
 20
42.225422
 11
-140.000000
 21
35.794834
  0
LINE
  8
0
  6
CENTER
 62
     2
 10
-124.000000
 20
42.114552
 11
-124.000000
 21
35.831791
  0
LINE
  8
0
  6
CENTER
 62
     2
 10
-127.285614
 20
39.000000
 11
-120.781120
 21
39.000000
  0
LINE
  8
0
  6
CENTER
 62
     2
 10
-138.261978
 20
34.500000
 11
-125.770370
 21
34.500000
  0
LINE
  8
0
  6
CENTER
 62
     2
 10
-138.296707
 20
-12.500000
 11
-125.570450
 21
-12.500000
  0
LINE
  8
0
  6
CENTER
 62
     2
 10
-127.430756
 20
-17.000000
 11
-120.370010
 21
-17.000000
  0
LINE
  8
0
 10
102.500000
 20
-6.500000
 11
126.479309
 21
-6.500000
  0
LINE
  8
0
 10
126.500000
 20
-1.133972
 11
126.500000
 21
-2.866028
  0
LINE
  8
0
 10
129.500000
 20
-1.133972
 11
129.500000
 21
-2.866028
  0
LINE
  8
0
 10
126.500015
 20
-1.134009
 11
128.000015
 21
-0.267989
  0
LINE
  8
0
 10
128.000000
 20
-3.732094
 11
129.500000
 21
-2.866068
  0
LINE
  8
0
 10
126.500008
 20
-2.865945
 11
128.000015
 21
-3.731971
  0
LINE
  8
0
 10
128.000031
 20
-0.267872
 11
129.500031
 21
-1.133902
  0
LINE
  8
0
 10
106.500023
 20
23.134064
 11
108.000031
 21
22.268034
  0
LINE
  8
0
 10
106.500000
 20
24.866026
 11
106.500000
 21
23.133970
  0
LINE
  8
0
 10
106.500000
 20
24.865993
 11
108.000000
 21
25.732019
  0
LINE
  8
0
 10
108.000015
 20
25.732168
 11
109.500031
 21
24.866138
  0
LINE
  8
0
 10
109.500000
 20
24.866026
 11
109.500000
 21
23.133970
  0
LINE
  8
0
 10
108.000008
 20
22.267927
 11
109.500015
 21
23.133953
  0
LINE
  8
0
 10
102.500000
 20
28.500000
 11
106.479309
 21
28.500000
  0
LINE
  8
0
 10
102.500000
 20
28.500000
 11
102.500000
 21
19.000000
  0
LINE
  8
0
 10
102.500000
 20
3.000000
 11
102.500000
 21
-6.500000
  0
LINE
  8
0
 10
133.500000
 20
28.500000
 11
133.500000
 21
19.000000
  0
LINE
  8
0
 10
102.500000
 20
3.000000
 11
106.500000
 21
3.000000
  0
LINE
  8
0
 10
102.500000
 20
19.000000
 11
106.500000
 21
19.000000
  0
LINE
  8
0
 10
109.000000
 20
16.500000
 11
109.000000
 21
5.500000
  0
LINE
  8
0
 10
133.500000
 20
3.000000
 11
129.500000
 21
3.000000
  0
LINE
  8
0
 10
133.500000
 20
19.000000
 11
129.500000
 21
19.000000
  0
LINE
  8
0
 10
127.000000
 20
16.500000
 11
127.000000
 21
5.500000
  0
LINE
  8
0
 10
125.000000
 20
15.041451
 11
125.000000
 21
6.958549
  0
LINE
  8
0
 10
111.000000
 20
15.041451
 11
111.000000
 21
6.958546
  0
LINE
  8
0
 10
110.999992
 20
15.041438
 11
118.000000
 21
19.082897
  0
LINE
  8
0
 10
118.000000
 20
2.917063
 11
125.000031
 21
6.958529
  0
LINE
  8
0
 10
118.000015
 20
19.082922
 11
125.000000
 21
15.041479
  0
LINE
  8
0
 10
111.000023
 20
6.958587
 11
118.000008
 21
2.917144
  0
LINE
  8
0
 10
112.999992
 20
13.886751
 11
117.999992
 21
16.773499
  0
LINE
  8
0
 10
117.999985
 20
5.226473
 11
122.999985
 21
8.113224
  0
LINE
  8
0
 10
117.999985
 20
16.773575
 11
122.999977
 21
13.886827
  0
LINE
  8
0
 10
113.000023
 20
8.113310
 11
118.000008
 21
5.226563
  0
LINE
  8
0
 10
113.000000
 20
13.886749
 11
113.000000
 21
8.113251
  0
LINE
  8
0
 10
123.000000
 20
13.886749
 11
123.000000
 21
8.113247
  0
LINE
  8
0
  6
CENTER
 62
     2
 10
108.500000
 20
-23.871140
 11
108.500000
 21
-19.608925
  0
LINE
  8
0
  6
DASHED
 62
     2
 10
106.000000
 20
-23.000000
 11
106.000000
 21
-20.568501
  0
LINE
  8
0
  6
DASHED
 62
     2
 10
111.000000
 20
-23.000000
 11
111.000000
 21
-20.568501
  0
LINE
  8
0
  6
DASHED
 62
     2
 10
106.000000
 20
-19.000000
 11
111.000000
 21
-19.000000
  0
LINE
  8
0
  6
DASHED
 62
     2
 10
110.600006
 20
-23.000000
 11
110.600006
 21
-20.568501
  0
LINE
  8
0
  6
DASHED
 62
     2
 10
106.399994
 20
-23.000000
 11
106.399994
 21
-20.568501
  0
LINE
  8
0
  6
CENTER
 62
     2
 10
108.000000
 20
17.824999
 11
108.000000
 21
30.174999
  0
LINE
  8
0
  6
CENTER
 62
     2
 10
101.824997
 20
23.999998
 11
114.175003
 21
23.999998
  0
LINE
  8
0
 10
131.500015
 20
12.000000
 11
129.900009
 21
12.000000
  0
LINE
  8
0
 10
131.500015
 20
16.200012
 11
129.900009
 21
16.200012
  0
LINE
  8
0
 10
132.500015
 20
9.799988
 11
132.500015
 21
12.200012
  0
LINE
  8
0
 10
132.200012
 20
15.700012
 11
132.000015
 21
15.700012
  0
LINE
  8
0
 10
132.200012
 20
12.500000
 11
132.000015
 21
12.500000
  0
LINE
  8
0
 10
131.500015
 20
11.999987
 11
132.000000
 21
12.499979
  0
LINE
  8
0
 10
132.000122
 20
15.700112
 11
131.500137
 21
16.200106
  0
LINE
  8
0
 10
132.500015
 20
16.000000
 11
132.500015
 21
17.500015
  0
LINE
  8
0
 10
131.500015
 20
10.000000
 11
129.900009
 21
10.000000
  0
LINE
  8
0
 10
131.500015
 20
5.799988
 11
129.900009
 21
5.799988
  0
LINE
  8
0
 10
132.200012
 20
6.299988
 11
132.000015
 21
6.299988
  0
LINE
  8
0
 10
132.200012
 20
9.500000
 11
132.000015
 21
9.500000
  0
LINE
  8
0
 10
131.500153
 20
10.000110
 11
132.000153
 21
9.500109
  0
LINE
  8
0
 10
132.000076
 20
6.299972
 11
131.500076
 21
5.799971
  0
LINE
  8
0
 10
132.500061
 20
17.499973
 11
134.000046
 21
18.999956
  0
LINE
  8
0
 10
132.500015
 20
6.000000
 11
132.500015
 21
4.499985
  0
LINE
  8
0
 10
132.500092
 20
4.500012
 11
134.000076
 21
3.000035
  0
LINE
  8
0
 10
133.000000
 20
45.000000
 11
103.000000
 21
45.000000
  0
LINE
  8
0
 10
132.999954
 20
44.999966
 11
133.999954
 21
43.999962
  0
LINE
  8
0
 10
107.000000
 20
36.649994
 11
103.500000
 21
36.649994
  0
LINE
  8
0
 10
107.000000
 20
29.350006
 11
103.500000
 21
29.350006
  0
LINE
  8
0
 10
103.500000
 20
35.149994
 11
102.300003
 21
35.149994
  0
LINE
  8
0
 10
103.500000
 20
30.850006
 11
102.300003
 21
30.850006
  0
LINE
  8
0
 10
107.000000
 20
29.350006
 11
107.000000
 21
36.649994
  0
LINE
  8
0
 10
103.500000
 20
29.350006
 11
103.500000
 21
30.850006
  0
LINE
  8
0
 10
103.500000
 20
35.149994
 11
103.500000
 21
36.649994
  0
LINE
  8
0
 10
102.000000
 20
35.449997
 11
102.000000
 21
44.000000
  0
LINE
  8
0
 10
103.000008
 20
44.999989
 11
102.000008
 21
43.999989
  0
LINE
  8
0
  6
CENTER
 62
     2
 10
125.292236
 20
34.500000
 11
110.660217
 21
34.500000
  0
LINE
  8
0
 10
104.499985
 20
12.000000
 11
106.099991
 21
12.000000
  0
LINE
  8
0
 10
104.499985
 20
16.200012
 11
106.099991
 21
16.200012
  0
LINE
  8
0
 10
103.499985
 20
9.799988
 11
103.499985
 21
12.200012
  0
LINE
  8
0
 10
103.799988
 20
15.700012
 11
103.999985
 21
15.700012
  0
LINE
  8
0
 10
103.799988
 20
12.500000
 11
103.999985
 21
12.500000
  0
LINE
  8
0
 10
104.500069
 20
12.000043
 11
104.000076
 21
12.500031
  0
LINE
  8
0
 10
103.999931
 20
15.700066
 11
104.499939
 21
16.200079
  0
LINE
  8
0
 10
103.499985
 20
16.000000
 11
103.499985
 21
17.500015
  0
LINE
  8
0
 10
104.499985
 20
10.000000
 11
106.099991
 21
10.000000
  0
LINE
  8
0
 10
104.499985
 20
5.799988
 11
106.099991
 21
5.799988
  0
LINE
  8
0
 10
103.799988
 20
6.299988
 11
103.999985
 21
6.299988
  0
LINE
  8
0
 10
103.799988
 20
9.500000
 11
103.999985
 21
9.500000
  0
LINE
  8
0
 10
104.499908
 20
10.000059
 11
103.999908
 21
9.500058
  0
LINE
  8
0
 10
104.000008
 20
6.299995
 11
104.500008
 21
5.799994
  0
LINE
  8
0
 10
103.500023
 20
17.500061
 11
102.000031
 21
19.000050
  0
LINE
  8
0
 10
103.499985
 20
6.000000
 11
103.499985
 21
4.499985
  0
LINE
  8
0
 10
103.500000
 20
4.499962
 11
102.000008
 21
2.999968
  0
LINE
  8
0
 10
102.000000
 20
19.000000
 11
102.000000
 21
30.550003
  0
LINE
  8
0
 10
132.999954
 20
-22.999950
 11
133.999954
 21
-21.999949
  0
LINE
  8
0
  6
CENTER
 62
     2
 10
125.428131
 20
-12.500000
 11
110.986710
 21
-12.500000
  0
LINE
  8
0
  6
CENTER
 62
     2
 10
108.000000
 20
44.204285
 11
108.000000
 21
37.139339
  0
LINE
  8
0
  6
CENTER
 62
     2
 10
104.643585
 20
41.000000
 11
111.182953
 21
41.000000
  0
LINE
  8
0
  6
CENTER
 62
     2
 10
108.000000
 20
-22.204285
 11
108.000000
 21
-15.590622
  0
LINE
  8
0
  6
CENTER
 62
     2
 10
111.356415
 20
-19.000000
 11
104.817047
 21
-19.000000
  0
LINE
  8
0
  6
CENTER
 62
     2
 10
128.000000
 20
44.204285
 11
128.000000
 21
37.312832
  0
LINE
  8
0
  6
CENTER
 62
     2
 10
131.356415
 20
41.000000
 11
124.817047
 21
41.000000
  0
LINE
  8
0
 10
134.000000
 20
19.000000
 11
134.000000
 21
30.550003
  0
LINE
  8
0
 10
134.000000
 20
35.449997
 11
134.000000
 21
44.000000
  0
LINE
  8
0
 10
134.000000
 20
3.000000
 11
134.000000
 21
-8.550003
  0
LINE
  8
0
 10
134.000000
 20
-13.449997
 11
134.000000
 21
-22.000000
  0
LINE
  8
0
 10
127.500000
 20
36.649994
 11
131.000000
 21
36.649994
  0
LINE
  8
0
 10
127.500000
 20
29.350006
 11
131.000000
 21
29.350006
  0
LINE
  8
0
 10
131.000000
 20
35.149994
 11
133.699997
 21
35.149994
  0
LINE
  8
0
 10
131.000000
 20
30.850006
 11
133.699997
 21
30.850006
  0
LINE
  8
0
 10
127.500000
 20
29.350006
 11
127.500000
 21
36.649994
  0
LINE
  8
0
 10
131.000000
 20
29.350006
 11
131.000000
 21
30.850006
  0
LINE
  8
0
 10
131.000000
 20
35.149994
 11
131.000000
 21
36.649994
  0
LINE
  8
0
 10
127.500000
 20
-7.350006
 11
127.500000
 21
-14.649994
  0
LINE
  8
0
 10
127.500000
 20
-14.649994
 11
131.000000
 21
-14.649994
  0
LINE
  8
0
 10
127.500000
 20
-7.350006
 11
131.000000
 21
-7.350006
  0
LINE
  8
0
 10
131.000000
 20
-13.149994
 11
133.699997
 21
-13.149994
  0
LINE
  8
0
 10
131.000000
 20
-8.850006
 11
133.699997
 21
-8.850006
  0
LINE
  8
0
 10
131.000000
 20
-7.350006
 11
131.000000
 21
-8.850006
  0
LINE
  8
0
 10
131.000000
 20
-13.149994
 11
131.000000
 21
-14.649994
  0
LINE
  8
0
  6
CENTER
 62
     2
 10
106.966064
 20
-8.000000
 11
110.102707
 21
-8.000000
  0
LINE
  8
0
 10
133.000000
 20
-23.000000
 11
103.000000
 21
-23.000000
  0
LINE
  8
0
 10
103.000008
 20
-22.999998
 11
102.000000
 21
-22.000002
  0
LINE
  8
0
 10
102.000000
 20
-22.000015
 11
102.000000
 21
-19.592545
  0
LINE
  8
0
 10
105.000023
 20
-16.017260
 11
102.000046
 21
-13.499977
  0
LINE
  8
0
 10
102.000000
 20
-13.500000
 11
102.000000
 21
3.000015
  0
LINE
  8
0
 10
101.999985
 20
-19.592556
 11
104.999977
 21
-16.017294
  0
LINE
  8
0
  6
CENTER
 62
     2
 10
126.338470
 20
33.000000
 11
129.597015
 21
33.000000
  0
LINE
  8
0
  6
CENTER
 62
     2
 10
126.113953
 20
-11.000000
 11
129.435638
 21
-11.000000
  0
LINE
  8
0
 10
123.196152
 20
-9.500000
 11
127.500000
 21
-9.500000
  0
LINE
  8
0
 10
124.000000
 20
-12.500000
 11
127.500000
 21
-12.500000
  0
LINE
  8
0
 10
123.196152
 20
31.500000
 11
127.500000
 21
31.500000
  0
LINE
  8
0
 10
124.000000
 20
34.500000
 11
127.500000
 21
34.500000
  0
LINE
  8
0
  6
CENTER
 62
     2
 10
108.109589
 20
33.000000
 11
102.834930
 21
33.000000
  0
LINE
  8
0
  6
CENTER
 62
     2
 10
108.500000
 20
-9.634415
 11
108.500000
 21
-6.455048
  0
LINE
  8
0
  6
CENTER
 62
     2
 10
128.000000
 20
-22.204285
 11
128.000000
 21
-15.590622
  0
LINE
  8
0
  6
CENTER
 62
     2
 10
131.356415
 20
-19.000000
 11
124.817047
 21
-19.000000
  0
LINE
  8
0
 10
131.000000
 20
-13.149994
 11
131.000000
 21
-8.850006
  0
LINE
  8
0
 10
105.000000
 20
5.799988
 11
105.000000
 21
9.688858
  0
LINE
  8
0
 10
105.000000
 20
29.350006
 11
105.000000
 21
36.649994
  0
LINE
  8
0
 10
105.000000
 20
12.000000
 11
105.000000
 21
16.200012
  0
LINE
  8
0
 10
131.000000
 20
30.850006
 11
131.000000
 21
35.149994
  0
LINE
  8
0
 10
131.000000
 20
12.000000
 11
131.000000
 21
16.200012
  0
LINE
  8
0
 10
131.000000
 20
5.799988
 11
131.000000
 21
10.000000
  0
LINE
  8
0
 10
109.520691
 20
28.500000
 11
133.500000
 21
28.500000
  0
LINE
  8
0
 10
129.520691
 20
-6.500000
 11
133.500000
 21
-6.500000
  0
LINE
  8
0
 10
133.500000
 20
3.000000
 11
133.500000
 21
-6.500000
  0
LINE
  8
0
  6
CENTER
 62
     2
 10
99.795761
 20
11.000000
 11
135.343018
 21
11.000000
  0
LINE
  8
0
  6
CENTER
 62
     2
 10
118.000000
 20
-25.312210
 11
118.000000
 21
48.121078
  0
LINE
  8
0
  6
CENTER
 62
     2
 10
128.000000
 20
-8.174999
 11
128.000000
 21
4.175000
  0
LINE
  8
0
  6
CENTER
 62
     2
 10
121.824997
 20
-2.000000
 11
134.175003
 21
-2.000000
  0
LINE
  8
0
 10
-194.250000
 20
132.600006
 11
194.800003
 21
132.600006
  0
LINE
  8
0
 10
194.800003
 20
132.600006
 11
194.800003
 21
-133.500000
  0
LINE
  8
0
 10
-194.250000
 20
132.600006
 11
-194.250000
 21
-133.500000
  0
LINE
  8
0
 10
-194.250000
 20
-133.500000
 11
194.800003
 21
-133.500000
  0
LINE
  8
0
 10
109.800003
 20
-118.500000
 11
109.800003
 21
-133.500000
  0
LINE
  8
0
 10
109.800003
 20
-118.500000
 11
194.800003
 21
-118.500000
  0
LINE
  8
0
 10
109.800003
 20
132.600006
 11
109.800003
 21
117.600006
  0
LINE
  8
0
 10
109.800003
 20
117.600006
 11
194.800003
 21
117.600006
  0
LINE
  8
0
 10
-194.250000
 20
117.600006
 11
-84.250000
 21
117.600006
  0
LINE
  8
0
 10
-84.250000
 20
132.600006
 11
-84.250000
 21
117.600006
  0
LINE
  8
0
 10
-184.250000
 20
-123.500000
 11
-87.250000
 21
-123.500000
  0
LINE
  8
0
 10
-184.250000
 20
-123.500000
 11
-184.250000
 21
-92.500000
  0
LINE
  8
0
 10
-184.250000
 20
-115.500000
 11
-87.250000
 21
-115.500000
  0
LINE
  8
0
 10
-184.250000
 20
-107.500000
 11
-87.250000
 21
-107.500000
  0
LINE
  8
0
 10
-159.250000
 20
-123.500000
 11
-159.250000
 21
-92.500000
  0
LINE
  8
0
 10
-135.250000
 20
-123.500000
 11
-135.250000
 21
-92.500000
  0
LINE
  8
0
 10
-147.250000
 20
-123.500000
 11
-147.250000
 21
-92.500000
  0
LINE
  8
0
 10
-123.250000
 20
-123.500000
 11
-123.250000
 21
-92.500000
  0
LINE
  8
0
 10
-111.250000
 20
-123.500000
 11
-111.250000
 21
-92.500000
  0
LINE
  8
0
 10
-99.250000
 20
-123.500000
 11
-99.250000
 21
-92.500000
  0
LINE
  8
0
 10
-159.250046
 20
-107.500015
 11
-161.929535
 21
-97.500023
  0
LINE
  8
0
 10
-184.250000
 20
-97.500000
 11
-161.929489
 21
-97.500000
  0
LINE
  8
0
 10
-184.250000
 20
-92.500000
 11
-87.250000
 21
-92.500000
  0
LINE
  8
0
 10
-87.250000
 20
-123.500000
 11
-87.250000
 21
-92.500000
  0
ARC
  8
0
 10
14.500000
 20
-3.750000
 40
3.000000
 50
269.999969
 51
345.164948
  0
ARC
  8
0
 10
14.500000
 20
-0.250000
 40
3.000000
 50
14.835007
 51
89.999985
  0
ARC
  8
0
 10
14.500000
 20
25.749998
 40
3.000000
 50
14.834990
 51
89.999985
  0
ARC
  8
0
 10
14.500000
 20
22.249998
 40
3.000000
 50
269.999969
 51
345.164948
  0
ARC
  8
0
 10
-34.000000
 20
11.000000
 40
4.000002
 50
331.044983
 51
28.955065
  0
CIRCLE
  8
0
 10
-24.000000
 20
24.000000
 40
4.000000
  0
CIRCLE
  8
0
 10
-24.000000
 20
24.000000
 40
2.100000
  0
CIRCLE
  8
0
  6
DASHED
 62
     2
 10
-24.000000
 20
24.000000
 40
2.500000
  0
CIRCLE
  8
0
 10
-9.000000
 20
24.000000
 40
4.000000
  0
CIRCLE
  8
0
 10
-9.000000
 20
24.000000
 40
2.100000
  0
CIRCLE
  8
0
  6
DASHED
 62
     2
 10
-9.000000
 20
24.000000
 40
2.500000
  0
CIRCLE
  8
0
 10
-24.000000
 20
-2.000000
 40
4.000000
  0
CIRCLE
  8
0
 10
-24.000000
 20
-2.000000
 40
2.100000
  0
CIRCLE
  8
0
  6
DASHED
 62
     2
 10
-24.000000
 20
-2.000000
 40
2.500000
  0
CIRCLE
  8
0
 10
-8.999985
 20
-2.000000
 40
4.000000
  0
CIRCLE
  8
0
 10
-8.999985
 20
-2.000000
 40
2.100000
  0
CIRCLE
  8
0
  6
DASHED
 62
     2
 10
-8.999985
 20
-2.000000
 40
2.500000
  0
CIRCLE
  8
0
 62
     2
 10
-19.000000
 20
-8.000000
 40
2.500000
  0
CIRCLE
  8
0
 62
     2
 10
0.500008
 20
-8.000000
 40
2.500000
  0
CIRCLE
  8
0
 10
-19.000000
 20
-8.000000
 40
2.100000
  0
CIRCLE
  8
0
 10
0.500008
 20
-8.000000
 40
2.100000
  0
ARC
  8
0
 10
48.754730
 20
15.330124
 40
1.745270
 50
304.206085
 51
0.000000
  0
ARC
  8
0
 10
44.665115
 20
11.000000
 40
5.834885
 50
330.347412
 51
29.652590
  0
ARC
  8
0
 10
51.334885
 20
11.000000
 40
5.834884
 50
150.347427
 51
209.652542
  0
ARC
  8
0
 10
32.125175
 20
11.000004
 40
13.374825
 50
342.412079
 51
17.587912
  0
ARC
  8
0
 10
41.921860
 20
17.062180
 40
3.578141
 50
325.615692
 51
0.000000
  0
ARC
  8
0
 10
47.245270
 20
15.330124
 40
1.745270
 50
179.999969
 51
235.793930
  0
ARC
  8
0
 10
41.921860
 20
4.937820
 40
3.578144
 50
359.999939
 51
34.384224
  0
ARC
  8
0
 10
47.245270
 20
6.669876
 40
1.745270
 50
124.206055
 51
179.999969
  0
ARC
  8
0
 10
48.754730
 20
6.669876
 40
1.745270
 50
359.999939
 51
55.793907
  0
CIRCLE
  8
0
 10
-132.000000
 20
11.000000
 40
4.750000
  0
CIRCLE
  8
0
 10
-132.000000
 20
34.500000
 40
2.850000
  0
CIRCLE
  8
0
 10
-132.000000
 20
11.000000
 40
2.850000
  0
CIRCLE
  8
0
 10
-132.000000
 20
34.500000
 40
4.750000
  0
ARC
  8
0
 10
-146.200012
 20
6.000000
 40
0.300000
 50
90.000000
 51
180.000000
  0
ARC
  8
0
 10
-146.200012
 20
16.000000
 40
0.300003
 50
180.000000
 51
270.000000
  0
ARC
  8
0
 10
-146.200012
 20
12.200012
 40
0.300000
 50
90.000000
 51
180.000000
  0
ARC
  8
0
 10
-146.200012
 20
9.799988
 40
0.300003
 50
180.000000
 51
270.000000
  0
ARC
  8
0
 10
-116.300003
 20
35.449997
 40
0.299999
 50
270.000000
 51
0.000000
  0
ARC
  8
0
 10
-116.300003
 20
30.550003
 40
0.300003
 50
0.000000
 51
90.000000
  0
ARC
  8
0
 10
-117.799988
 20
6.000000
 40
0.300003
 50
0.000091
 51
90.000000
  0
ARC
  8
0
 10
-117.799988
 20
16.000000
 40
0.300000
 50
270.000000
 51
0.000000
  0
ARC
  8
0
 10
-117.799988
 20
12.200012
 40
0.300003
 50
0.000000
 51
90.000000
  0
ARC
  8
0
 10
-117.799988
 20
9.799988
 40
0.300000
 50
270.000000
 51
0.000000
  0
ARC
  8
0
 10
-147.699997
 20
35.449997
 40
0.300003
 50
180.000000
 51
270.000000
  0
ARC
  8
0
 10
-147.699997
 20
30.550003
 40
0.299999
 50
90.000000
 51
180.000000
  0
ARC
  8
0
 10
-147.699997
 20
-8.550003
 40
0.300003
 50
180.000000
 51
270.000000
  0
ARC
  8
0
 10
-147.699997
 20
-13.449997
 40
0.300000
 50
90.000000
 51
180.000000
  0
CIRCLE
  8
0
 10
-132.000000
 20
34.500000
 40
5.250000
  0
CIRCLE
  8
0
 10
-132.000000
 20
11.000000
 40
5.250000
  0
CIRCLE
  8
0
 10
-132.000000
 20
-12.500000
 40
5.250000
  0
CIRCLE
  8
0
 62
     2
 10
-124.000000
 20
39.000000
 40
2.500000
  0
CIRCLE
  8
0
 10
-124.000000
 20
39.000000
 40
2.100000
  0
CIRCLE
  8
0
 62
     2
 10
-140.000000
 20
39.000000
 40
2.500000
  0
CIRCLE
  8
0
 10
-140.000000
 20
39.000000
 40
2.100000
  0
CIRCLE
  8
0
 62
     2
 10
-124.000000
 20
-17.000000
 40
2.500000
  0
CIRCLE
  8
0
 10
-124.000000
 20
-17.000000
 40
2.100000
  0
CIRCLE
  8
0
 62
     2
 10
-140.000000
 20
-17.000000
 40
2.500000
  0
CIRCLE
  8
0
 10
-140.000000
 20
-17.000000
 40
2.100000
  0
CIRCLE
  8
0
 10
-132.000000
 20
-12.500000
 40
4.750000
  0
CIRCLE
  8
0
 10
-132.000000
 20
-12.500000
 40
2.850000
  0
CIRCLE
  8
0
 10
118.000000
 20
34.500000
 40
4.000000
  0
CIRCLE
  8
0
 10
118.000000
 20
-12.500000
 40
4.000000
  0
CIRCLE
  8
0
 10
128.000000
 20
-2.000000
 40
4.750000
  0
CIRCLE
  8
0
 10
128.000000
 20
-2.000000
 40
2.850000
  0
CIRCLE
  8
0
 10
108.000000
 20
23.999998
 40
4.750000
  0
CIRCLE
  8
0
 10
108.000000
 20
23.999998
 40
2.850000
  0
ARC
  8
0
 10
106.500000
 20
5.500000
 40
2.500000
 50
270.000000
 51
0.000000
  0
ARC
  8
0
 10
106.500000
 20
16.500000
 40
2.500000
 50
0.000000
 51
90.000000
  0
ARC
  8
0
 10
129.500000
 20
5.500000
 40
2.500000
 50
179.999985
 51
270.000000
  0
ARC
  8
0
 10
129.500000
 20
16.500000
 40
2.500000
 50
90.000000
 51
179.999954
  0
CIRCLE
  8
0
 10
118.000000
 20
11.000000
 40
7.000000
  0
CIRCLE
  8
0
 10
118.000000
 20
11.000000
 40
5.000000
  0
CIRCLE
  8
0
 10
118.000000
 20
11.000000
 40
3.000000
  0
CIRCLE
  8
0
 62
     2
 10
118.000000
 20
11.000000
 40
2.500000
  0
ARC
  8
0
 10
132.200012
 20
6.000000
 40
0.300003
 50
0.000091
 51
90.000000
  0
ARC
  8
0
 10
129.900009
 20
14.100006
 40
2.100000
 50
90.000000
 51
270.000000
  0
ARC
  8
0
 10
132.200012
 20
16.000000
 40
0.300000
 50
270.000000
 51
0.000000
  0
ARC
  8
0
 10
132.200012
 20
12.200012
 40
0.300003
 50
0.000000
 51
90.000000
  0
ARC
  8
0
 10
132.200012
 20
9.799988
 40
0.300000
 50
270.000000
 51
0.000000
  0
ARC
  8
0
 10
129.900009
 20
7.899994
 40
2.100000
 50
90.000000
 51
270.000000
  0
ARC
  8
0
 10
102.300003
 20
35.449997
 40
0.300003
 50
180.000000
 51
270.000000
  0
ARC
  8
0
 10
102.300003
 20
30.550003
 40
0.299999
 50
90.000000
 51
180.000000
  0
CIRCLE
  8
0
 10
118.000000
 20
34.500000
 40
6.000000
  0
ARC
  8
0
 10
106.099991
 20
7.899994
 40
2.100000
 50
270.000000
 51
90.000000
  0
ARC
  8
0
 10
103.799988
 20
6.000000
 40
0.300000
 50
90.000000
 51
180.000000
  0
ARC
  8
0
 10
106.099991
 20
14.100006
 40
2.100000
 50
270.000000
 51
90.000000
  0
ARC
  8
0
 10
103.799988
 20
16.000000
 40
0.300003
 50
180.000000
 51
270.000000
  0
ARC
  8
0
 10
103.799988
 20
12.200012
 40
0.300000
 50
90.000000
 51
180.000000
  0
ARC
  8
0
 10
103.799988
 20
9.799988
 40
0.300003
 50
180.000000
 51
270.000000
  0
CIRCLE
  8
0
 10
118.000000
 20
-12.500000
 40
6.000000
  0
CIRCLE
  8
0
 62
     2
 10
108.000000
 20
41.000000
 40
2.500000
  0
CIRCLE
  8
0
 10
108.000000
 20
41.000000
 40
2.100000
  0
CIRCLE
  8
0
 62
     2
 10
108.000000
 20
-19.000000
 40
2.500000
  0
CIRCLE
  8
0
 10
108.000000
 20
-19.000000
 40
2.100000
  0
CIRCLE
  8
0
 62
     2
 10
128.000000
 20
41.000000
 40
2.500000
  0
CIRCLE
  8
0
 10
128.000000
 20
41.000000
 40
2.100000
  0
ARC
  8
0
 10
133.699997
 20
-8.550003
 40
0.300000
 50
270.000000
 51
0.000000
  0
ARC
  8
0
 10
133.699997
 20
-13.449997
 40
0.300003
 50
0.000000
 51
90.000000
  0
ARC
  8
0
 10
133.699997
 20
35.449997
 40
0.299999
 50
270.000000
 51
0.000000
  0
ARC
  8
0
 10
133.699997
 20
30.550003
 40
0.300003
 50
0.000000
 51
90.000000
  0
CIRCLE
  8
0
 10
108.500000
 20
-8.000000
 40
1.000000
  0
CIRCLE
  8
0
 10
128.000000
 20
-19.000000
 40
2.100000
  0
CIRCLE
  8
0
 62
     2
 10
128.000000
 20
-19.000000
 40
2.500000
  0
ARC
  8
0
 10
1.082359
 20
-14.504692
 40
0.417649
 50
344.498688
 51
15.501308
  0
ARC
  8
0
 10
0.927789
 20
-14.567026
 40
0.583557
 50
17.343166
 51
54.573532
  0
ARC
  8
0
 10
0.500008
 20
-15.254539
 40
1.392647
 50
56.628609
 51
123.371391
  0
ARC
  8
0
 10
0.072226
 20
-14.567026
 40
0.583557
 50
125.426476
 51
162.656830
  0
ARC
  8
0
 10
-0.082344
 20
-14.504692
 40
0.417648
 50
164.498688
 51
195.501312
  0
ARC
  8
0
 10
0.072226
 20
-14.442358
 40
0.583557
 50
197.343170
 51
234.573532
  0
ARC
  8
0
 10
0.500008
 20
-13.754845
 40
1.392647
 50
236.628601
 51
303.371399
  0
ARC
  8
0
 10
0.927789
 20
-14.442358
 40
0.583557
 50
305.426483
 51
342.656830
  0
ARC
  8
0
 10
-18.417648
 20
-14.504692
 40
0.417649
 50
344.498688
 51
15.501308
  0
ARC
  8
0
 10
-18.572218
 20
-14.567026
 40
0.583557
 50
17.343187
 51
54.573589
  0
ARC
  8
0
 10
-19.000000
 20
-15.254539
 40
1.392647
 50
56.628605
 51
123.371399
  0
ARC
  8
0
 10
-19.427782
 20
-14.567026
 40
0.583557
 50
125.426414
 51
162.656815
  0
ARC
  8
0
 10
-19.582352
 20
-14.504692
 40
0.417649
 50
164.498688
 51
195.501312
  0
ARC
  8
0
 10
-19.427782
 20
-14.442358
 40
0.583557
 50
197.343185
 51
234.573593
  0
ARC
  8
0
 10
-19.000000
 20
-13.754845
 40
1.392647
 50
236.628601
 51
303.371399
  0
ARC
  8
0
 10
-18.572218
 20
-14.442358
 40
0.583557
 50
305.426422
 51
342.656799
  0
TEXT
  8
0
 10
133.907150
 20
122.050003
 40
4.500000
  1
Ver. 1.0
 50
0.000000
 41
1.052631
 51
0.000000
  7
STANDARD
  0
TEXT
  8
0
 10
113.700279
 20
-130.669998
 40
6.300000
  1
KOGANEI CORP.
 50
0.000000
 41
1.052632
 51
0.000000
  7
STANDARD
  0
TEXT
  8
0
 10
-191.392654
 20
122.050003
 40
4.500000
  1
JIG CYLINDER WITH GUIDE
 50
0.000000
 41
1.052632
 51
0.000000
  7
STANDARD
  0
TEXT
  8
0
 10
-186.892654
 20
104.550003
 40
4.500000
  1
MODEL:SGDAPQ16*ST(10)
 50
0.000000
 41
1.052632
 51
0.000000
  7
STANDARD
  0
TEXT
  8
0
 10
-181.557144
 20
-96.879997
 40
3.200000
  1
STROKE
 50
0.000000
 41
1.052631
 51
0.000000
  7
STANDARD
  0
TEXT
  8
0
 10
-173.557144
 20
-113.379997
 40
3.200000
  1
A
 50
0.000000
 41
1.052631
 51
0.000000
  7
STANDARD
  0
TEXT
  8
0
 10
-184.496872
 20
-101.019997
 40
3.200000
  1
STRETCH
 50
0.000000
 41
1.052631
 51
0.000000
  7
STANDARD
  0
TEXT
  8
0
 10
-184.496872
 20
-105.820000
 40
3.200000
  1
  PLACE
 50
0.000000
 41
1.052631
 51
0.000000
  7
STANDARD
  0
TEXT
  8
0
 10
-156.657150
 20
-101.879997
 40
3.200000
  1
10
 50
0.000000
 41
1.052631
 51
0.000000
  7
STANDARD
  0
TEXT
  8
0
 10
-144.657150
 20
-101.879997
 40
3.200000
  1
20
 50
0.000000
 41
1.052631
 51
0.000000
  7
STANDARD
  0
TEXT
  8
0
 10
-132.657150
 20
-101.879997
 40
3.200000
  1
30
 50
0.000000
 41
1.052631
 51
0.000000
  7
STANDARD
  0
TEXT
  8
0
 10
-120.657158
 20
-101.879997
 40
3.200000
  1
50
 50
0.000000
 41
1.052631
 51
0.000000
  7
STANDARD
  0
TEXT
  8
0
 10
-108.657158
 20
-101.879997
 40
3.200000
  1
75
 50
0.000000
 41
1.052631
 51
0.000000
  7
STANDARD
  0
TEXT
  8
0
 10
-98.257156
 20
-101.879997
 40
3.200000
  1
100
 50
0.000000
 41
1.052631
 51
0.000000
  7
STANDARD
  0
TEXT
  8
0
 10
-99.857140
 20
-91.379997
 40
3.200000
  1
(mm)
 50
0.000000
 41
1.052631
 51
0.000000
  7
STANDARD
  0
TEXT
  8
0
 10
-155.157135
 20
-91.379997
 40
3.200000
  1
STRETCH LIST
 50
0.000000
 41
1.052631
 51
0.000000
  7
STANDARD
  0
TEXT
  8
0
 10
-173.557007
 20
-121.379997
 40
3.200000
  1
B
 50
0.000000
 41
1.052632
 51
0.000000
  7
STANDARD
  0
TEXT
  8
0
 62
     3
 10
-12.307142
 20
54.119999
 40
3.200000
  1
STRETCH LINE A
 50
0.000000
 41
1.052631
 51
0.000000
  7
STANDARD
  0
TEXT
  8
0
 62
     3
 10
-26.307001
 20
61.119999
 40
3.200000
  1
STRETCH LINE B
 50
0.000000
 41
1.052632
 51
0.000000
  7
STANDARD
  0
TEXT
  8
0
 10
-155.057007
 20
-113.379997
 40
3.200000
  1
0
 50
0.000000
 41
1.052632
 51
0.000000
  7
STANDARD
  0
TEXT
  8
0
 10
-143.057007
 20
-113.379997
 40
3.200000
  1
0
 50
0.000000
 41
1.052632
 51
0.000000
  7
STANDARD
  0
TEXT
  8
0
 10
-131.057007
 20
-113.379997
 40
3.200000
  1
0
 50
0.000000
 41
1.052632
 51
0.000000
  7
STANDARD
  0
TEXT
  8
0
 10
-119.056999
 20
-113.379997
 40
3.200000
  1
0
 50
0.000000
 41
1.052632
 51
0.000000
  7
STANDARD
  0
TEXT
  8
0
 10
-108.656998
 20
-113.379997
 40
3.200000
  1
25
 50
0.000000
 41
1.052632
 51
0.000000
  7
STANDARD
  0
TEXT
  8
0
 10
-96.656998
 20
-113.379997
 40
3.200000
  1
50
 50
0.000000
 41
1.052632
 51
0.000000
  7
STANDARD
  0
TEXT
  8
0
 10
-155.057007
 20
-121.379997
 40
3.200000
  1
0
 50
0.000000
 41
1.052632
 51
0.000000
  7
STANDARD
  0
TEXT
  8
0
 10
-144.656998
 20
-121.379997
 40
3.200000
  1
10
 50
0.000000
 41
1.052632
 51
0.000000
  7
STANDARD
  0
TEXT
  8
0
 10
-132.656998
 20
-121.379997
 40
3.200000
  1
20
 50
0.000000
 41
1.052632
 51
0.000000
  7
STANDARD
  0
TEXT
  8
0
 10
-120.656998
 20
-121.379997
 40
3.200000
  1
40
 50
0.000000
 41
1.052632
 51
0.000000
  7
STANDARD
  0
TEXT
  8
0
 10
-108.656998
 20
-121.379997
 40
3.200000
  1
40
 50
0.000000
 41
1.052632
 51
0.000000
  7
STANDARD
  0
TEXT
  8
0
 10
-96.656998
 20
-121.379997
 40
3.200000
  1
40
 50
0.000000
 41
1.052632
 51
0.000000
  7
STANDARD
  0
TEXT
  8
0
 62
     2
 10
35.159664
 20
-37.000000
 40
3.200000
  1
STROKE=75-100
 50
0.000000
 41
1.052632
 51
0.000000
  7
STANDARD
  0
LINE
  8
0
 62
     2
 10
31.000000
 20
-38.000000
 11
76.509666
 21
-38.000000
  0
LINE
  8
0
 62
     2
 10
8.000008
 20
-38.000000
 11
31.000000
 21
-38.000000
  0
LINE
  8
0
 62
     2
 10
8.000008
 20
-38.000000
 11
10.897785
 21
-37.223541
  0
LINE
  8
0
 62
     2
 10
8.000008
 20
-38.000000
 11
10.897785
 21
-38.776459
  0
LINE
  8
0
 62
     2
 10
31.000000
 20
-38.000000
 11
28.102222
 21
-38.776459
  0
LINE
  8
0
 62
     2
 10
31.000000
 20
-38.000000
 11
28.102222
 21
-37.223541
  0
LINE
  8
0
 62
     2
 10
8.000008
 20
-22.500000
 11
8.000008
 21
-39.500000
  0
LINE
  8
0
 62
     2
 10
31.000000
 20
-17.000000
 11
31.000000
 21
-39.500000
  0
ENDSEC
  0
EOF
