  0
SECTION
  2
HEADER
  9
$ACADVER
  1
AC1012
  9
$DWGCODEPAGE
  3
dos932
  9
$INSBASE
 10
0.0
 20
0.0
 30
0.0
  9
$EXTMIN
 10
-281.25
 20
-195.0
 30
0.0
  9
$EXTMAX
 10
285.6319057062413
 20
195.5
 30
0.0
  9
$LIMMIN
 10
-281.25
 20
-195.0
  9
$LIMMAX
 10
285.6319057062413
 20
195.5
  9
$ORTHOMODE
 70
               0
  9
$REGENMODE
 70
               1
  9
$FILLMODE
 70
               1
  9
$QTEXTMODE
 70
               0
  9
$MIRRTEXT
 70
               1
  9
$DRAGMODE
 70
               2
  9
$LTSCALE
 40
1.0
  9
$OSMODE
 70
               0
  9
$ATTMODE
 70
               1
  9
$TEXTSIZE
 40
3.2000000476837158
  9
$TRACEWID
 40
0.05
  9
$TEXTSTYLE
  7
MX_NOTE_STANDARD
  9
$CLAYER
  8
0
  9
$CELTYPE
  6
CONTINUOUS
  9
$CECOLOR
 62
             256
  9
$CELTSCALE
 40
1.0
  9
$DELOBJ
 70
               1
  9
$DISPSILH
 70
               0
  9
$DIMSCALE
 40
1.0
  9
$DIMASZ
 40
2.5
  9
$DIMEXO
 40
1.5
  9
$DIMDLI
 40
3.75
  9
$DIMRND
 40
0.0
  9
$DIMDLE
 40
0.0
  9
$DIMEXE
 40
1.5
  9
$DIMTP
 40
0.0
  9
$DIMTM
 40
0.0
  9
$DIMTXT
 40
3.2000000476837158
  9
$DIMCEN
 40
2.5
  9
$DIMTSZ
 40
0.0
  9
$DIMTOL
 70
               0
  9
$DIMLIM
 70
               0
  9
$DIMTIH
 70
               0
  9
$DIMTOH
 70
               0
  9
$DIMSE1
 70
               0
  9
$DIMSE2
 70
               0
  9
$DIMTAD
 70
               1
  9
$DIMZIN
 70
               8
  9
$DIMBLK
  1

  9
$DIMASO
 70
               1
  9
$DIMSHO
 70
               1
  9
$DIMPOST
  1

  9
$DIMAPOST
  1

  9
$DIMALT
 70
               0
  9
$DIMALTD
 70
               4
  9
$DIMALTF
 40
0.03937007874016
  9
$DIMLFAC
 40
1.0
  9
$DIMTOFL
 70
               1
  9
$DIMTVP
 40
0.0
  9
$DIMTIX
 70
               0
  9
$DIMSOXD
 70
               0
  9
$DIMSAH
 70
               0
  9
$DIMBLK1
  1

  9
$DIMBLK2
  1

  9
$DIMSTYLE
  2
MXDIMSTYLE
  9
$DIMCLRD
 70
               0
  9
$DIMCLRE
 70
               0
  9
$DIMCLRT
 70
               0
  9
$DIMTFAC
 40
1.0
  9
$DIMGAP
 40
1.0
  9
$DIMJUST
 70
               0
  9
$DIMSD1
 70
               0
  9
$DIMSD2
 70
               0
  9
$DIMTOLJ
 70
               1
  9
$DIMTZIN
 70
               0
  9
$DIMALTZ
 70
               0
  9
$DIMALTTZ
 70
               0
  9
$DIMFIT
 70
               3
  9
$DIMUPT
 70
               1
  9
$DIMUNIT
 70
               2
  9
$DIMDEC
 70
               4
  9
$DIMTDEC
 70
               4
  9
$DIMALTU
 70
               2
  9
$DIMALTTD
 70
               4
  9
$DIMTXSTY
  7
MX_NOTE_STANDARD
  9
$DIMAUNIT
 70
               0
  9
$LUNITS
 70
               2
  9
$LUPREC
 70
               4
  9
$SKETCHINC
 40
0.1
  9
$FILLETRAD
 40
0.0
  9
$AUNITS
 70
               0
  9
$AUPREC
 70
               0
  9
$MENU
  1
acad
  9
$ELEVATION
 40
0.0
  9
$PELEVATION
 40
0.0
  9
$THICKNESS
 40
0.0
  9
$LIMCHECK
 70
               0
  9
$BLIPMODE
 70
               1
  9
$CHAMFERA
 40
0.0
  9
$CHAMFERB
 40
0.0
  9
$CHAMFERC
 40
0.0
  9
$CHAMFERD
 40
0.0
  9
$SKPOLY
 70
               0
  9
$TDCREATE
 40
2453378.356851852
  9
$TDUPDATE
 40
2453378.356851852
  9
$TDINDWG
 40
0.0000000000
  9
$TDUSRTIMER
 40
0.0000000000
  9
$USRTIMER
 70
               1
  9
$ANGBASE
 50
0.0
  9
$ANGDIR
 70
               0
  9
$PDMODE
 70
               0
  9
$PDSIZE
 40
0.0
  9
$PLINEWID
 40
0.0
  9
$COORDS
 70
               1
  9
$SPLFRAME
 70
               0
  9
$SPLINETYPE
 70
               6
  9
$SPLINESEGS
 70
               8
  9
$ATTDIA
 70
               0
  9
$ATTREQ
 70
               1
  9
$HANDLING
 70
               1
  9
$HANDSEED
  5
43B
  9
$SURFTAB1
 70
               6
  9
$SURFTAB2
 70
               6
  9
$SURFTYPE
 70
               6
  9
$SURFU
 70
               6
  9
$SURFV
 70
               6
  9
$UCSNAME
  2

  9
$UCSORG
 10
0.0
 20
0.0
 30
0.0
  9
$UCSXDIR
 10
1.0
 20
0.0
 30
0.0
  9
$UCSYDIR
 10
0.0
 20
1.0
 30
0.0
  9
$PUCSNAME
  2

  9
$PUCSORG
 10
0.0
 20
0.0
 30
0.0
  9
$PUCSXDIR
 10
1.0
 20
0.0
 30
0.0
  9
$PUCSYDIR
 10
0.0
 20
1.0
 30
0.0
  9
$USERI1
 70
               0
  9
$USERI2
 70
               0
  9
$USERI3
 70
               0
  9
$USERI4
 70
               0
  9
$USERI5
 70
               0
  9
$USERR1
 40
0.0
  9
$USERR2
 40
0.0
  9
$USERR3
 40
0.0
  9
$USERR4
 40
0.0
  9
$USERR5
 40
0.0
  9
$WORLDVIEW
 70
               1
  9
$SHADEDGE
 70
               3
  9
$SHADEDIF
 70
              70
  9
$TILEMODE
 70
               1
  9
$MAXACTVP
 70
              16
  9
$PINSBASE
 10
0.0
 20
0.0
 30
0.0
  9
$PLIMCHECK
 70
               0
  9
$PEXTMIN
 10
1.0000000000000000E+20
 20
1.0000000000000000E+20
 30
1.0000000000000000E+20
  9
$PEXTMAX
 10
-1.0000000000000000E+20
 20
-1.0000000000000000E+20
 30
-1.0000000000000000E+20
  9
$PLIMMIN
 10
0.0
 20
0.0
  9
$PLIMMAX
 10
12.0
 20
9.0
  9
$UNITMODE
 70
               0
  9
$VISRETAIN
 70
               0
  9
$PLINEGEN
 70
               1
  9
$PSLTSCALE
 70
               0
  9
$TREEDEPTH
 70
            3020
  9
$PICKSTYLE
 70
               1
  9
$CMLSTYLE
  2
Standard
  9
$CMLJUST
 70
               0
  9
$CMLSCALE
 40
1.0
  9
$SAVEIMAGES
 70
               0
  0
ENDSEC
  0
SECTION
  2
CLASSES
  0
CLASS
  1
LWPOLYLINE
  2
AcDbPolyline
  3
"AutoCAD"
 90
        0
280
               0
281
               1
  0
CLASS
  1
IMAGE
  2
AcDbRasterImage
  3
ISM
 90
      127
280
               0
281
               1
  0
CLASS
  1
OLE2FRAME
  2
AcDbOle2Frame
  3
""
 90
        0
280
               0
281
               1
  0
CLASS
  1
HATCH
  2
AcDbHatch
  3
"ACAD_SEDONA"
 90
        0
280
               0
281
               1
  0
CLASS
  1
DICTIONARYVAR
  2
AcDbDictionaryVar
  3
"AutoCAD"
 90
        0
280
               0
281
               0
  0
CLASS
  1
RASTERVARIABLES
  2
AcDbRasterVariables
  3
ISM
 90
        0
280
               0
281
               0
  0
CLASS
  1
IMAGEDEF
  2
AcDbRasterImageDef
  3
ISM
 90
        0
280
               0
281
               0
  0
CLASS
  1
IMAGEDEF_REACTOR
  2
AcDbRasterImageDefReactor
  3
ISM
 90
        1
280
               0
281
               0
  0
CLASS
  1
IDBUFFER
  2
AcDbIdBuffer
  3
"Acad"
 90
        0
280
               0
281
               0
  0
CLASS
  1
SPATIAL_FILTER
  2
AcDbSpatialFilter
  3
"Acad"
 90
        0
280
               0
281
               0
  0
CLASS
  1
XRECORD
  2
AcDbXrecord
  3
"<Built In>"
 90
        0
280
               0
281
               0
  0
CLASS
  1
SORTENTSTABLE
  2
AcDbSortentsTable
  3
"AutoCAD"
 90
        0
280
               0
281
               0
  0
CLASS
  1
LAYER_INDEX
  2
AcDbLayerIndex
  3
"Acad"
 90
        0
280
               0
281
               0
  0
CLASS
  1
SPATIAL_INDEX
  2
AcDbSpatialIndex
  3
"Acad"
 90
        0
280
               0
281
               0
  0
CLASS
  1
OBJECT_PTR
  2
CAseDLPNTableRecord
  3
"ASE-LPNTableRecord"
 90
        1
280
               0
281
               0
  0
CLASS
  1
LAYOUT
  2
AcDbLayout
  3
"AutoCAD 2000"
 90
        1
280
               0
281
               0
  0
CLASS
  1
PLOTSETTINGS
  2
AcDbPlotSettings
  3
"AutoCAD 2000"
 90
        1
280
               0
281
               0
  0
CLASS
  1
ACDBDICTIONARYWDFLT
  2
AcDbDictionaryWithDefault
  3
"AutoCAD 2000"
 90
        1
280
               0
281
               0
  0
CLASS
  1
ACDBPLACEHOLDER
  2
AcDbPlaceHolder
  3
"AutoCAD 2000"
 90
        1
280
               0
281
               0
  0
ENDSEC
  0
SECTION
  2
TABLES
  0
TABLE
  2
VPORT
  5
7
100
AcDbSymbolTable
 70
               1
  0
VPORT
  5
15
100
AcDbSymbolTableRecord
100
AcDbViewportTableRecord
  2
*ACTIVE
 70
               0
 10
0.0
 20
0.0
 11
1.0
 21
1.0
 12
2.1909528531206206
 22
0.25
 13
0.0
 23
0.0
 14
1.0
 24
1.0
 15
0.0
 25
0.0
 16
0.0
 26
0.0
 36
1.0
 17
0.0
 27
0.0
 37
0.0
 40
394.40500000000003
 41
1.7320508075688772
 42
50.0
 43
0.0
 44
0.0
 50
0.0
 51
0.0
 71
               0
 72
             100
 73
               1
 74
               1
 75
               0
 76
               0
 77
               0
 78
               0
  0
ENDTAB
  0
TABLE
  2
LTYPE
  5
4
100
AcDbSymbolTable
 70
               6
  0
LTYPE
  5
11
100
AcDbSymbolTableRecord
100
AcDbLinetypeTableRecord
  2
BYBLOCK
 70
              64
  3

 72
              65
 73
               0
 40
0.0
  0
LTYPE
  5
12
100
AcDbSymbolTableRecord
100
AcDbLinetypeTableRecord
  2
BYLAYER
 70
              64
  3

 72
              65
 73
               0
 40
0.0
  0
LTYPE
  5
13
100
AcDbSymbolTableRecord
100
AcDbLinetypeTableRecord
  2
CONTINUOUS
 70
              64
  3
Solid line
 72
              65
 73
               0
 40
0.0
  0
LTYPE
  5
29
100
AcDbSymbolTableRecord
100
AcDbLinetypeTableRecord
  2
PHANTOM
 70
              64
  3
Phantom ______  __  __  ______  __  __  ______
 72
              65
 73
               6
 40
30.0
 49
20.0
 74
               0
 49
-2.0
 74
               0
 49
2.0
 74
               0
 49
-2.0
 74
               0
 49
2.0
 74
               0
 49
-2.0
 74
               0
  0
LTYPE
  5
30
100
AcDbSymbolTableRecord
100
AcDbLinetypeTableRecord
  2
CENTER
 70
              64
  3
Center ____ _ ____ _ ____ _ ____ _ ____ _ ____
 72
              65
 73
               4
 40
26.0
 49
20.0
 74
               0
 49
-2.0
 74
               0
 49
2.0
 74
               0
 49
-2.0
 74
               0
  0
LTYPE
  5
3A3
100
AcDbSymbolTableRecord
100
AcDbLinetypeTableRecord
  2
DASHED
 70
              64
  3
Dashed __ __ __ __ __ __ __ __ __ __ __ __ __ _
 72
              65
 73
               2
 40
4.0
 49
2.0
 74
               0
 49
-2.0
 74
               0
  0
ENDTAB
  0
TABLE
  2
LAYER
  5
2
100
AcDbSymbolTable
 70
               2
  0
LAYER
  5
14
100
AcDbSymbolTableRecord
100
AcDbLayerTableRecord
  2
0
 70
               0
 62
               7
  6
CONTINUOUS
  0
LAYER
  5
1D
100
AcDbSymbolTableRecord
100
AcDbLayerTableRecord
  2
DEFPOINTS
 70
               0
 62
               7
  6
CONTINUOUS
  0
ENDTAB
  0
TABLE
  2
STYLE
  5
3
100
AcDbSymbolTable
 70
               1
  0
STYLE
  5
17
100
AcDbSymbolTableRecord
100
AcDbTextStyleTableRecord
  2
MX_NOTE_STANDARD
 70
               0
 40
0.0
 41
1.0
 50
0.0
 71
               0
 42
3.2000000476837158
  3
txt.shx
  4
extfont.shx
  0
ENDTAB
  0
TABLE
  2
VIEW
  5
5
100
AcDbSymbolTable
 70
               0
  0
ENDTAB
  0
TABLE
  2
UCS
  5
6
100
AcDbSymbolTable
 70
               0
  0
ENDTAB
  0
TABLE
  2
APPID
  5
8
100
AcDbSymbolTable
 70
               1
  0
APPID
  5
16
100
AcDbSymbolTableRecord
100
AcDbRegAppTableRecord
  2
ACAD
 70
               0
  0
ENDTAB
  0
TABLE
  2
DIMSTYLE
  5
9
100
AcDbSymbolTable
 70
               1
  0
DIMSTYLE
105
18
100
AcDbSymbolTableRecord
100
AcDbDimStyleTableRecord
  2
MXDIMSTYLE
 70
               0
  3

  4

  5

  6

  7

 40
1.0
 41
2.5
 42
1.5
 43
3.75
 44
1.5
 45
0.0
 46
0.0
 47
0.0
 48
0.0
 71
               0
 72
               0
 73
               0
 74
               0
 75
               0
 76
               0
 77
               1
 78
               8
140
3.2000000476837158
141
2.5
142
0.0
143
0.03937007874016
144
1.0
145
0.0
146
1.0
147
1.0
170
               0
171
               4
172
               1
173
               0
174
               0
175
               0
176
               0
177
               0
178
               0
270
               2
271
               4
272
               4
273
               2
274
               4
275
               0
280
               0
281
               0
282
               0
283
               1
284
               0
285
               0
286
               0
287
               3
288
               1
340
17
  0
ENDTAB
  0
TABLE
  2
BLOCK_RECORD
  5
1
100
AcDbSymbolTable
 70
              11
  0
BLOCK_RECORD
  5
A
100
AcDbSymbolTableRecord
100
AcDbBlockTableRecord
  2
*MODEL_SPACE
  0
BLOCK_RECORD
  5
B
100
AcDbSymbolTableRecord
100
AcDbBlockTableRecord
  2
*PAPER_SPACE
  0
BLOCK_RECORD
  5
1E
100
AcDbSymbolTableRecord
100
AcDbBlockTableRecord
  2
SGDAP6-1
  0
BLOCK_RECORD
  5
1F
100
AcDbSymbolTableRecord
100
AcDbBlockTableRecord
  2
SGDAP6-2
  0
BLOCK_RECORD
  5
20
100
AcDbSymbolTableRecord
100
AcDbBlockTableRecord
  2
SGDAP6-3
  0
BLOCK_RECORD
  5
21
100
AcDbSymbolTableRecord
100
AcDbBlockTableRecord
  2
SGDAP6-4
  0
BLOCK_RECORD
  5
22
100
AcDbSymbolTableRecord
100
AcDbBlockTableRecord
  2
SGDAP6-5
  0
BLOCK_RECORD
  5
23
100
AcDbSymbolTableRecord
100
AcDbBlockTableRecord
  2
SGDAP6-6
  0
BLOCK_RECORD
  5
24
100
AcDbSymbolTableRecord
100
AcDbBlockTableRecord
  2
SGDAP6-7
  0
BLOCK_RECORD
  5
25
100
AcDbSymbolTableRecord
100
AcDbBlockTableRecord
  2
SGDAP6-8
  0
BLOCK_RECORD
  5
26
100
AcDbSymbolTableRecord
100
AcDbBlockTableRecord
  2
SGDAP6-9
  0
BLOCK_RECORD
  5
27
100
AcDbSymbolTableRecord
100
AcDbBlockTableRecord
  2
SGDAP6-10
  0
BLOCK_RECORD
  5
430
100
AcDbSymbolTableRecord
100
AcDbBlockTableRecord
  2
_OPEN30
  0
ENDTAB
  0
ENDSEC
  0
SECTION
  2
BLOCKS
  0
BLOCK
  5
D
100
AcDbEntity
  8
0
100
AcDbBlockBegin
  2
*MODEL_SPACE
 70
               0
 10
0.0
 20
0.0
 30
0.0
  3
*MODEL_SPACE
  1

  0
ENDBLK
  5
E
100
AcDbEntity
  8
0
100
AcDbBlockEnd
  0
BLOCK
  5
F
100
AcDbEntity
 67
               1
  8
0
100
AcDbBlockBegin
  2
*PAPER_SPACE
 70
               0
 10
0.0
 20
0.0
 30
0.0
  3
*PAPER_SPACE
  1

  0
ENDBLK
  5
10
100
AcDbEntity
 67
               1
  8
0
100
AcDbBlockEnd
  0
BLOCK
  5
28
100
AcDbEntity
  8
0
100
AcDbBlockBegin
  2
SGDAP6-1
 70
               0
 10
0.0
 20
0.0
 30
0.0
  3
SGDAP6-1
  1

  0
LINE
  5
2A
100
AcDbEntity
  8
0
  6
PHANTOM
 62
               3
100
AcDbLine
 10
33.775255113840103
 20
-49.627604105226027
 30
0.0
 11
33.775255113840103
 21
47.516327879991991
 31
0.0
  0
LINE
  5
2B
100
AcDbEntity
  8
0
  6
PHANTOM
 62
               3
100
AcDbLine
 10
67.0
 20
-49.627604105226027
 30
0.0
 11
67.0
 21
47.516327879991991
 31
0.0
  0
CIRCLE
  5
2C
100
AcDbEntity
  8
0
  6
CONTINUOUS
 62
               2
100
AcDbCircle
 10
15.0
 20
-8.0
 30
0.0
 40
1.5
  0
CIRCLE
  5
2D
100
AcDbEntity
  8
0
  6
CONTINUOUS
 62
               7
100
AcDbCircle
 10
46.0
 20
-8.0
 30
0.0
 40
1.25
  0
CIRCLE
  5
2E
100
AcDbEntity
  8
0
  6
CONTINUOUS
 62
               2
100
AcDbCircle
 10
46.0
 20
-8.0
 30
0.0
 40
1.5
  0
CIRCLE
  5
2F
100
AcDbEntity
  8
0
  6
CONTINUOUS
 62
               7
100
AcDbCircle
 10
15.0
 20
-8.0
 30
0.0
 40
1.25
  0
LINE
  5
31
100
AcDbEntity
  8
0
  6
CENTER
 62
               2
100
AcDbLine
 10
10.5
 20
-8.0
 30
0.0
 11
28.0
 21
-8.0
 31
0.0
  0
LINE
  5
32
100
AcDbEntity
  8
0
  6
CONTINUOUS
 62
               7
100
AcDbLine
 10
8.0
 20
-17.0
 30
0.0
 11
6.0
 21
-17.0
 31
0.0
  0
LINE
  5
33
100
AcDbEntity
  8
0
  6
CONTINUOUS
 62
               7
100
AcDbLine
 10
8.0
 20
-13.0
 30
0.0
 11
6.0
 21
-13.0
 31
0.0
  0
LINE
  5
34
100
AcDbEntity
  8
0
  6
CONTINUOUS
 62
               7
100
AcDbLine
 10
6.0
 20
-19.5
 30
0.0
 11
6.0
 21
19.5
 31
0.0
  0
LINE
  5
35
100
AcDbEntity
  8
0
  6
CONTINUOUS
 62
               7
100
AcDbLine
 10
8.0
 20
-20.5
 30
0.0
 11
8.0
 21
20.5
 31
0.0
  0
LINE
  5
36
100
AcDbEntity
  8
0
  6
CONTINUOUS
 62
               7
100
AcDbLine
 10
8.0
 20
17.0
 30
0.0
 11
6.0
 21
17.0
 31
0.0
  0
LINE
  5
37
100
AcDbEntity
  8
0
  6
CONTINUOUS
 62
               7
100
AcDbLine
 10
8.0
 20
13.0
 30
0.0
 11
6.0
 21
13.0
 31
0.0
  0
LINE
  5
38
100
AcDbEntity
  8
0
  6
CONTINUOUS
 62
               7
100
AcDbLine
 10
5.5
 20
-20.0
 30
0.0
 11
0.5
 21
-20.0
 31
0.0
  0
LINE
  5
39
100
AcDbEntity
  8
0
  6
CONTINUOUS
 62
               7
100
AcDbLine
 10
5.5
 20
-20.0
 30
0.0
 11
6.0
 21
-19.5
 31
0.0
  0
LINE
  5
3A
100
AcDbEntity
  8
0
  6
CONTINUOUS
 62
               7
100
AcDbLine
 10
0.5
 20
-20.0
 30
0.0
 11
0.0
 21
-19.5
 31
0.0
  0
LINE
  5
3B
100
AcDbEntity
  8
0
  6
CONTINUOUS
 62
               7
100
AcDbLine
 10
0.5
 20
20.0
 30
0.0
 11
0.0
 21
19.5
 31
0.0
  0
LINE
  5
3C
100
AcDbEntity
  8
0
  6
CONTINUOUS
 62
               7
100
AcDbLine
 10
5.5
 20
20.0
 30
0.0
 11
6.0
 21
19.5
 31
0.0
  0
LINE
  5
3D
100
AcDbEntity
  8
0
  6
CONTINUOUS
 62
               7
100
AcDbLine
 10
5.5
 20
20.0
 30
0.0
 11
0.5
 21
20.0
 31
0.0
  0
LINE
  5
3E
100
AcDbEntity
  8
0
  6
CONTINUOUS
 62
               7
100
AcDbLine
 10
0.0
 20
-19.5
 30
0.0
 11
0.0
 21
19.5
 31
0.0
  0
LINE
  5
3F
100
AcDbEntity
  8
0
  6
CONTINUOUS
 62
               7
100
AcDbLine
 10
7.5
 20
-3.6999999999999886
 30
0.0
 11
6.0
 21
-3.6999999999999886
 31
0.0
  0
LINE
  5
40
100
AcDbEntity
  8
0
  6
CONTINUOUS
 62
               7
100
AcDbLine
 10
7.5
 20
-2.5
 30
0.0
 11
8.0
 21
-2.5
 31
0.0
  0
LINE
  5
41
100
AcDbEntity
  8
0
  6
CONTINUOUS
 62
               7
100
AcDbLine
 10
7.5
 20
2.5
 30
0.0
 11
8.0
 21
2.5
 31
0.0
  0
LINE
  5
42
100
AcDbEntity
  8
0
  6
CONTINUOUS
 62
               7
100
AcDbLine
 10
7.5
 20
-3.6999999999999886
 30
0.0
 11
7.5
 21
3.6999999999999886
 31
0.0
  0
LINE
  5
43
100
AcDbEntity
  8
0
  6
CONTINUOUS
 62
               7
100
AcDbLine
 10
7.5
 20
3.6999999999999886
 30
0.0
 11
6.0
 21
3.6999999999999886
 31
0.0
  0
LINE
  5
44
100
AcDbEntity
  8
0
  6
CONTINUOUS
 62
               7
100
AcDbLine
 10
8.5
 20
21.0
 30
0.0
 11
8.0
 21
20.5
 31
0.0
  0
LINE
  5
45
100
AcDbEntity
  8
0
  6
CONTINUOUS
 62
               7
100
AcDbLine
 10
50.5
 20
21.0
 30
0.0
 11
8.5
 21
21.0
 31
0.0
  0
LINE
  5
46
100
AcDbEntity
  8
0
  6
CONTINUOUS
 62
               7
100
AcDbLine
 10
51.0
 20
20.5
 30
0.0
 11
50.5
 21
21.0
 31
0.0
  0
LINE
  5
47
100
AcDbEntity
  8
0
  6
CENTER
 62
               2
100
AcDbLine
 10
18.0
 20
8.0
 30
0.0
 11
28.0
 21
8.0
 31
0.0
  0
CIRCLE
  5
48
100
AcDbEntity
  8
0
  6
CONTINUOUS
 62
               7
100
AcDbCircle
 10
23.0
 20
8.0
 30
0.0
 40
1.6499999999999999
  0
CIRCLE
  5
49
100
AcDbEntity
  8
0
  6
CONTINUOUS
 62
               2
100
AcDbCircle
 10
23.0
 20
8.0
 30
0.0
 40
2.0
  0
LINE
  5
4A
100
AcDbEntity
  8
0
  6
CENTER
 62
               2
100
AcDbLine
 10
23.0
 20
3.0
 30
0.0
 11
23.0
 21
13.0
 31
0.0
  0
CIRCLE
  5
4B
100
AcDbEntity
  8
0
  6
CONTINUOUS
 62
               7
100
AcDbCircle
 10
23.0
 20
8.0
 30
0.0
 40
3.25
  0
CIRCLE
  5
4C
100
AcDbEntity
  8
0
  6
CONTINUOUS
 62
               2
100
AcDbCircle
 10
23.0
 20
-8.0
 30
0.0
 40
2.0
  0
CIRCLE
  5
4D
100
AcDbEntity
  8
0
  6
CONTINUOUS
 62
               7
100
AcDbCircle
 10
23.0
 20
-8.0
 30
0.0
 40
1.6499999999999999
  0
LINE
  5
4E
100
AcDbEntity
  8
0
  6
CENTER
 62
               2
100
AcDbLine
 10
23.0
 20
-3.0
 30
0.0
 11
23.0
 21
-13.0
 31
0.0
  0
CIRCLE
  5
4F
100
AcDbEntity
  8
0
  6
CONTINUOUS
 62
               7
100
AcDbCircle
 10
23.0
 20
-8.0
 30
0.0
 40
3.25
  0
LINE
  5
50
100
AcDbEntity
  8
0
  6
CONTINUOUS
 62
               7
100
AcDbLine
 10
8.5
 20
-21.0
 30
0.0
 11
8.0
 21
-20.5
 31
0.0
  0
LINE
  5
51
100
AcDbEntity
  8
0
  6
CONTINUOUS
 62
               7
100
AcDbLine
 10
51.0
 20
-20.5
 30
0.0
 11
50.5
 21
-21.0
 31
0.0
  0
LINE
  5
52
100
AcDbEntity
  8
0
  6
CONTINUOUS
 62
               7
100
AcDbLine
 10
50.5
 20
-21.0
 30
0.0
 11
8.5
 21
-21.0
 31
0.0
  0
LINE
  5
53
100
AcDbEntity
  8
0
  6
CONTINUOUS
 62
               7
100
AcDbLine
 10
51.0
 20
-20.5
 30
0.0
 11
51.0
 21
20.5
 31
0.0
  0
CIRCLE
  5
54
100
AcDbEntity
  8
0
  6
CONTINUOUS
 62
               7
100
AcDbCircle
 10
49.0
 20
15.0
 30
0.0
 40
0.9000000000000057
  0
LINE
  5
55
100
AcDbEntity
  8
0
  6
CENTER
 62
               2
100
AcDbLine
 10
49.0
 20
12.100000000000023
 30
0.0
 11
49.0
 21
17.899999999999977
 31
0.0
  0
LINE
  5
56
100
AcDbEntity
  8
0
  6
CENTER
 62
               2
100
AcDbLine
 10
49.0
 20
-12.100000000000023
 30
0.0
 11
49.0
 21
-17.899999999999977
 31
0.0
  0
CIRCLE
  5
57
100
AcDbEntity
  8
0
  6
CONTINUOUS
 62
               7
100
AcDbCircle
 10
49.0
 20
-15.0
 30
0.0
 40
0.9000000000000057
  0
LINE
  5
58
100
AcDbEntity
  8
0
  6
CENTER
 62
               2
100
AcDbLine
 10
53.0
 20
-15.0
 30
0.0
 11
-2.0
 21
-15.0
 31
0.0
  0
LINE
  5
59
100
AcDbEntity
  8
0
  6
CENTER
 62
               2
100
AcDbLine
 10
53.0
 20
15.0
 30
0.0
 11
-2.0
 21
15.0
 31
0.0
  0
LINE
  5
5A
100
AcDbEntity
  8
0
  6
CENTER
 62
               2
100
AcDbLine
 10
92.000000000000014
 20
0.0
 30
0.0
 11
-2.0
 21
0.0
 31
0.0
  0
LINE
  5
5B
100
AcDbEntity
  8
0
  6
CONTINUOUS
 62
               7
100
AcDbLine
 10
8.0
 20
18.080682293650455
 30
0.0
 11
51.0
 21
18.080682293650455
 31
0.0
  0
LINE
  5
5C
100
AcDbEntity
  8
0
  6
CONTINUOUS
 62
               7
100
AcDbLine
 10
8.0
 20
13.145170600913389
 30
0.0
 11
51.0
 21
13.145170600913389
 31
0.0
  0
LINE
  5
5D
100
AcDbEntity
  8
0
  6
CONTINUOUS
 62
               7
100
AcDbLine
 10
8.0
 20
11.5
 30
0.0
 11
51.0
 21
11.5
 31
0.0
  0
LINE
  5
5E
100
AcDbEntity
  8
0
  6
CONTINUOUS
 62
               7
100
AcDbLine
 10
8.0
 20
4.1999999999999886
 30
0.0
 11
51.0
 21
4.1999999999999886
 31
0.0
  0
LINE
  5
5F
100
AcDbEntity
  8
0
  6
CONTINUOUS
 62
               7
100
AcDbLine
 10
8.0
 20
1.0
 30
0.0
 11
51.0
 21
1.0
 31
0.0
  0
LINE
  5
60
100
AcDbEntity
  8
0
  6
CONTINUOUS
 62
               7
100
AcDbLine
 10
8.0
 20
-18.080682293650455
 30
0.0
 11
51.0
 21
-18.080682293650455
 31
0.0
  0
LINE
  5
61
100
AcDbEntity
  8
0
  6
CONTINUOUS
 62
               7
100
AcDbLine
 10
8.0
 20
-13.145170600913389
 30
0.0
 11
51.0
 21
-13.145170600913389
 31
0.0
  0
LINE
  5
62
100
AcDbEntity
  8
0
  6
CONTINUOUS
 62
               7
100
AcDbLine
 10
8.0
 20
-11.5
 30
0.0
 11
51.0
 21
-11.5
 31
0.0
  0
LINE
  5
63
100
AcDbEntity
  8
0
  6
CONTINUOUS
 62
               7
100
AcDbLine
 10
8.0
 20
-4.1999999999999886
 30
0.0
 11
51.0
 21
-4.1999999999999886
 31
0.0
  0
LINE
  5
64
100
AcDbEntity
  8
0
  6
CONTINUOUS
 62
               7
100
AcDbLine
 10
8.0
 20
-1.0
 30
0.0
 11
51.0
 21
-1.0
 31
0.0
  0
LINE
  5
65
100
AcDbEntity
  8
0
  6
CONTINUOUS
 62
               7
100
AcDbLine
 10
6.0
 20
1.1999999999999886
 30
0.0
 11
7.5
 21
1.1999999999999886
 31
0.0
  0
LINE
  5
66
100
AcDbEntity
  8
0
  6
CONTINUOUS
 62
               7
100
AcDbLine
 10
6.0
 20
-1.1999999999999886
 30
0.0
 11
7.5
 21
-1.1999999999999886
 31
0.0
  0
LINE
  5
67
100
AcDbEntity
  8
0
  6
CONTINUOUS
 62
               2
100
AcDbLine
 10
6.0
 20
1.1999999999999886
 30
0.0
 11
7.5
 21
-1.1999999999999886
 31
0.0
  0
LINE
  5
68
100
AcDbEntity
  8
0
  6
CONTINUOUS
 62
               2
100
AcDbLine
 10
7.5
 20
1.1999999999999886
 30
0.0
 11
6.0
 21
-1.1999999999999886
 31
0.0
  0
LINE
  5
69
100
AcDbEntity
  8
0
  6
CENTER
 62
               2
100
AcDbLine
 10
49.0
 20
-9.0
 30
0.0
 11
61.0
 21
-9.0
 31
0.0
  0
LINE
  5
6A
100
AcDbEntity
  8
0
  6
CENTER
 62
               2
100
AcDbLine
 10
49.0
 20
9.0
 30
0.0
 11
61.0
 21
9.0
 31
0.0
  0
LINE
  5
6B
100
AcDbEntity
  8
0
  6
CONTINUOUS
 62
               7
100
AcDbLine
 10
51.0
 20
-14.0
 30
0.0
 11
55.0
 21
-14.0
 31
0.0
  0
LINE
  5
6C
100
AcDbEntity
  8
0
  6
CONTINUOUS
 62
               7
100
AcDbLine
 10
51.0
 20
14.0
 30
0.0
 11
55.0
 21
14.0
 31
0.0
  0
LINE
  5
6D
100
AcDbEntity
  8
0
  6
CONTINUOUS
 62
               7
100
AcDbLine
 10
55.0
 20
1.5
 30
0.0
 11
75.0
 21
1.5
 31
0.0
  0
LINE
  5
6E
100
AcDbEntity
  8
0
  6
CONTINUOUS
 62
               7
100
AcDbLine
 10
55.0
 20
-1.5
 30
0.0
 11
75.0
 21
-1.5
 31
0.0
  0
LINE
  5
6F
100
AcDbEntity
  8
0
  6
CONTINUOUS
 62
               7
100
AcDbLine
 10
88.800000000000011
 20
-2.75
 30
0.0
 11
88.800000000000011
 21
2.75
 31
0.0
  0
LINE
  5
70
100
AcDbEntity
  8
0
  6
CONTINUOUS
 62
               7
100
AcDbLine
 10
87.0
 20
-4.0
 30
0.0
 11
87.0
 21
4.0
 31
0.0
  0
LINE
  5
71
100
AcDbEntity
  8
0
  6
CONTINUOUS
 62
               7
100
AcDbLine
 10
77.0
 20
-4.0
 30
0.0
 11
77.0
 21
4.0
 31
0.0
  0
LINE
  5
72
100
AcDbEntity
  8
0
  6
CONTINUOUS
 62
               7
100
AcDbLine
 10
55.0
 20
14.0
 30
0.0
 11
55.0
 21
-14.0
 31
0.0
  0
LINE
  5
73
100
AcDbEntity
  8
0
  6
CONTINUOUS
 62
               2
100
AcDbLine
 10
88.800000000000011
 20
-1.22950000000003
 30
0.0
 11
89.770500000000013
 21
-1.22950000000003
 31
0.0
  0
LINE
  5
74
100
AcDbEntity
  8
0
  6
CONTINUOUS
 62
               2
100
AcDbLine
 10
88.800000000000011
 20
1.2294999999999732
 30
0.0
 11
89.770500000000013
 21
1.2294999999999732
 31
0.0
  0
LINE
  5
75
100
AcDbEntity
  8
0
  6
CONTINUOUS
 62
               7
100
AcDbLine
 10
90.000000000000014
 20
-1.0
 30
0.0
 11
89.500000000000014
 21
-1.5
 31
0.0
  0
LINE
  5
76
100
AcDbEntity
  8
0
  6
CONTINUOUS
 62
               7
100
AcDbLine
 10
89.5
 20
-1.5
 30
0.0
 11
89.5
 21
1.5
 31
0.0
  0
LINE
  5
77
100
AcDbEntity
  8
0
  6
CONTINUOUS
 62
               7
100
AcDbLine
 10
90.000000000000014
 20
-1.0
 30
0.0
 11
90.000000000000014
 21
1.0
 31
0.0
  0
LINE
  5
78
100
AcDbEntity
  8
0
  6
CONTINUOUS
 62
               7
100
AcDbLine
 10
90.000000000000014
 20
1.0
 30
0.0
 11
89.500000000000014
 21
1.5
 31
0.0
  0
LINE
  5
79
100
AcDbEntity
  8
0
  6
CONTINUOUS
 62
               7
100
AcDbLine
 10
58.700000000000003
 20
12.5
 30
0.0
 11
59.0
 21
11.980384757729325
 31
0.0
  0
LINE
  5
7A
100
AcDbEntity
  8
0
  6
CONTINUOUS
 62
               7
100
AcDbLine
 10
58.700000000000003
 20
12.5
 30
0.0
 11
55.0
 21
12.5
 31
0.0
  0
LINE
  5
7B
100
AcDbEntity
  8
0
  6
CONTINUOUS
 62
               7
100
AcDbLine
 10
58.700000000000003
 20
5.5
 30
0.0
 11
59.0
 21
6.0196152422706746
 31
0.0
  0
LINE
  5
7C
100
AcDbEntity
  8
0
  6
CONTINUOUS
 62
               7
100
AcDbLine
 10
59.0
 20
6.0196152422706746
 30
0.0
 11
59.0
 21
11.980384757729325
 31
0.0
  0
LINE
  5
7D
100
AcDbEntity
  8
0
  6
CONTINUOUS
 62
               7
100
AcDbLine
 10
58.700000000000003
 20
5.5
 30
0.0
 11
55.0
 21
5.5
 31
0.0
  0
LINE
  5
7E
100
AcDbEntity
  8
0
  6
CONTINUOUS
 62
               7
100
AcDbLine
 10
58.700000000000003
 20
5.5
 30
0.0
 11
58.700000000000003
 21
12.5
 31
0.0
  0
LINE
  5
7F
100
AcDbEntity
  8
0
  6
CONTINUOUS
 62
               7
100
AcDbLine
 10
59.0
 20
-6.0196152422706746
 30
0.0
 11
59.0
 21
-11.980384757729325
 31
0.0
  0
LINE
  5
80
100
AcDbEntity
  8
0
  6
CONTINUOUS
 62
               7
100
AcDbLine
 10
58.700000000000003
 20
-5.5
 30
0.0
 11
58.700000000000003
 21
-12.5
 31
0.0
  0
LINE
  5
81
100
AcDbEntity
  8
0
  6
CONTINUOUS
 62
               7
100
AcDbLine
 10
58.700000000000003
 20
-12.5
 30
0.0
 11
59.0
 21
-11.980384757729325
 31
0.0
  0
LINE
  5
82
100
AcDbEntity
  8
0
  6
CONTINUOUS
 62
               7
100
AcDbLine
 10
58.700000000000003
 20
-5.5
 30
0.0
 11
59.0
 21
-6.0196152422706746
 31
0.0
  0
LINE
  5
83
100
AcDbEntity
  8
0
  6
CONTINUOUS
 62
               7
100
AcDbLine
 10
58.700000000000003
 20
-5.5
 30
0.0
 11
55.0
 21
-5.5
 31
0.0
  0
LINE
  5
84
100
AcDbEntity
  8
0
  6
CONTINUOUS
 62
               7
100
AcDbLine
 10
58.700000000000003
 20
-12.5
 30
0.0
 11
55.0
 21
-12.5
 31
0.0
  0
LINE
  5
85
100
AcDbEntity
  8
0
  6
CONTINUOUS
 62
               7
100
AcDbLine
 10
77.0
 20
2.75
 30
0.0
 11
75.0
 21
2.75
 31
0.0
  0
LINE
  5
86
100
AcDbEntity
  8
0
  6
CONTINUOUS
 62
               7
100
AcDbLine
 10
75.0
 20
0.5
 30
0.0
 11
75.0
 21
2.75
 31
0.0
  0
LINE
  5
87
100
AcDbEntity
  8
0
  6
CONTINUOUS
 62
               7
100
AcDbLine
 10
77.0
 20
-2.75
 30
0.0
 11
75.0
 21
-2.75
 31
0.0
  0
LINE
  5
88
100
AcDbEntity
  8
0
  6
CONTINUOUS
 62
               7
100
AcDbLine
 10
75.0
 20
-0.5
 30
0.0
 11
75.0
 21
-2.75
 31
0.0
  0
ARC
  5
89
100
AcDbEntity
  8
0
  6
CONTINUOUS
 62
               7
100
AcDbCircle
 10
75.0
 20
0.0
 30
0.0
 40
0.5
100
AcDbArc
 50
269.99999999999937
 51
89.999999999999801
  0
LINE
  5
8A
100
AcDbEntity
  8
0
  6
CONTINUOUS
 62
               7
100
AcDbLine
 10
88.800000000000011
 20
-1.5
 30
0.0
 11
89.5
 21
-1.5
 31
0.0
  0
LINE
  5
8B
100
AcDbEntity
  8
0
  6
CONTINUOUS
 62
               7
100
AcDbLine
 10
88.800000000000011
 20
1.5
 30
0.0
 11
89.5
 21
1.5
 31
0.0
  0
LINE
  5
8C
100
AcDbEntity
  8
0
  6
CONTINUOUS
 62
               7
100
AcDbLine
 10
87.0
 20
4.0
 30
0.0
 11
77.0
 21
4.0
 31
0.0
  0
LINE
  5
8D
100
AcDbEntity
  8
0
  6
CONTINUOUS
 62
               7
100
AcDbLine
 10
87.0
 20
-4.0
 30
0.0
 11
77.0
 21
-4.0
 31
0.0
  0
LINE
  5
8E
100
AcDbEntity
  8
0
  6
CONTINUOUS
 62
               7
100
AcDbLine
 10
88.800000000000011
 20
2.75
 30
0.0
 11
87.0
 21
2.75
 31
0.0
  0
LINE
  5
8F
100
AcDbEntity
  8
0
  6
CONTINUOUS
 62
               7
100
AcDbLine
 10
88.800000000000011
 20
-2.75
 30
0.0
 11
87.0
 21
-2.75
 31
0.0
  0
LINE
  5
90
100
AcDbEntity
  8
0
  6
CONTINUOUS
 62
               7
100
AcDbLine
 10
77.0
 20
0.0
 30
0.0
 11
86.381197846482991
 21
0.0
 31
0.0
  0
ARC
  5
91
100
AcDbEntity
  8
0
  6
CONTINUOUS
 62
               7
100
AcDbCircle
 10
84.828512558163709
 20
1.375
 30
0.0
 40
3.9714874418362967
100
AcDbArc
 50
339.74384199958257
 51
20.256158000416512
  0
ARC
  5
92
100
AcDbEntity
  8
0
  6
CONTINUOUS
 62
               7
100
AcDbCircle
 10
83.458548115672656
 20
2.0
 30
0.0
 40
3.5414518843273428
100
AcDbArc
 50
325.61575253195673
 51
34.384247468042311
  0
ARC
  5
93
100
AcDbEntity
  8
0
  6
CONTINUOUS
 62
               7
100
AcDbCircle
 10
83.458548115672656
 20
-2.0
 30
0.0
 40
3.5414518843273428
100
AcDbArc
 50
325.6157525319577
 51
34.38424746804251
  0
ARC
  5
94
100
AcDbEntity
  8
0
  6
CONTINUOUS
 62
               7
100
AcDbCircle
 10
84.828512558163709
 20
-1.375
 30
0.0
 40
3.9714874418362967
100
AcDbArc
 50
339.74384199958342
 51
20.256158000416612
  0
LINE
  5
95
100
AcDbEntity
  8
0
  6
CENTER
 62
               2
100
AcDbLine
 10
15.0
 20
-3.5
 30
0.0
 11
15.0
 21
-12.5
 31
0.0
  0
LINE
  5
96
100
AcDbEntity
  8
0
  6
CENTER
 62
               2
100
AcDbLine
 10
50.5
 20
-8.0
 30
0.0
 11
41.5
 21
-8.0
 31
0.0
  0
LINE
  5
97
100
AcDbEntity
  8
0
  6
CENTER
 62
               2
100
AcDbLine
 10
46.0
 20
-3.5
 30
0.0
 11
46.0
 21
-12.5
 31
0.0
  0
ARC
  5
98
100
AcDbEntity
  8
0
  6
CONTINUOUS
 62
               7
100
AcDbCircle
 10
90.971487441836359
 20
1.375
 30
0.0
 40
3.9714874418363646
100
AcDbArc
 50
159.74384199958351
 51
200.2561580004157
  0
ARC
  5
99
100
AcDbEntity
  8
0
  6
CONTINUOUS
 62
               7
100
AcDbCircle
 10
90.971487441836359
 20
-1.375
 30
0.0
 40
3.9714874418363646
100
AcDbArc
 50
159.74384199958351
 51
200.2561580004157
  0
LINE
  5
9A
100
AcDbEntity
  8
0
  6
CONTINUOUS
 62
               7
100
AcDbLine
 10
87.245620093061859
 20
0.0
 30
0.0
 11
88.554379906938152
 21
0.0
 31
0.0
  0
ENDBLK
  5
9B
100
AcDbEntity
  8
0
100
AcDbBlockEnd
  0
BLOCK
  5
9C
100
AcDbEntity
  8
0
100
AcDbBlockBegin
  2
SGDAP6-2
 70
               0
 10
0.0
 20
0.0
 30
0.0
  3
SGDAP6-2
  1

  0
LINE
  5
9D
100
AcDbEntity
  8
0
  6
PHANTOM
 62
               3
100
AcDbLine
 10
67.0
 20
-7.7602367830018579
 30
0.0
 11
67.0
 21
32.372395894773973
 31
0.0
  0
LINE
  5
9E
100
AcDbEntity
  8
0
  6
PHANTOM
 62
               3
100
AcDbLine
 10
33.775255113840103
 20
-7.7602367830018579
 30
0.0
 11
33.775255113840103
 21
32.372395894773973
 31
0.0
  0
LINE
  5
9F
100
AcDbEntity
  8
0
  6
CONTINUOUS
 62
               7
100
AcDbLine
 10
88.554379906938152
 20
4.4122867597285449
 30
0.0
 11
87.245620093061859
 21
4.4122867597285449
 31
0.0
  0
ARC
  5
A0
100
AcDbEntity
  8
0
  6
CONTINUOUS
 62
               7
100
AcDbCircle
 10
88.40570251163274
 20
3.6184301395928173
 30
0.0
 40
1.4057025116327224
100
AcDbArc
 50
145.61575253195787
 51
214.38424746804131
  0
LINE
  5
A1
100
AcDbEntity
  8
0
  6
CONTINUOUS
 62
               7
100
AcDbLine
 10
87.0
 20
3.25
 30
0.0
 11
87.245620093061859
 21
2.8245735194570329
 31
0.0
  0
LINE
  5
A2
100
AcDbEntity
  8
0
  6
CONTINUOUS
 62
               7
100
AcDbLine
 10
87.245620093061859
 20
2.8245735194570329
 30
0.0
 11
88.554379906938152
 21
2.8245735194570329
 31
0.0
  0
ARC
  5
A3
100
AcDbEntity
  8
0
  6
CONTINUOUS
 62
               7
100
AcDbCircle
 10
92.254379906938254
 20
6.0
 30
0.0
 40
5.2543799069382384
100
AcDbArc
 50
162.41204622600617
 51
197.58795377399304
  0
ARC
  5
A4
100
AcDbEntity
  8
0
  6
CONTINUOUS
 62
               7
100
AcDbCircle
 10
88.40570251163274
 20
8.3815698604071827
 30
0.0
 40
1.4057025116327224
100
AcDbArc
 50
145.61575253195787
 51
214.38424746804131
  0
LINE
  5
A5
100
AcDbEntity
  8
0
  6
CONTINUOUS
 62
               7
100
AcDbLine
 10
88.554379906938152
 20
7.5877132402714551
 30
0.0
 11
87.245620093061859
 21
7.5877132402714551
 31
0.0
  0
LINE
  5
A6
100
AcDbEntity
  8
0
  6
CONTINUOUS
 62
               7
100
AcDbLine
 10
87.0
 20
8.75
 30
0.0
 11
87.245620093061859
 21
9.1754264805429102
 31
0.0
  0
LINE
  5
A7
100
AcDbEntity
  8
0
  6
CONTINUOUS
 62
               7
100
AcDbLine
 10
87.245620093061859
 20
9.1754264805429102
 30
0.0
 11
88.554379906938152
 21
9.1754264805429102
 31
0.0
  0
ARC
  5
A8
100
AcDbEntity
  8
0
  6
CONTINUOUS
 62
               7
100
AcDbCircle
 10
83.545620093061871
 20
6.0
 30
0.0
 40
5.2543799069381398
100
AcDbArc
 50
342.41204622600543
 51
17.587953773993881
  0
ARC
  5
A9
100
AcDbEntity
  8
0
  6
CONTINUOUS
 62
               7
100
AcDbCircle
 10
82.381197846483047
 20
6.0
 30
0.0
 40
4.6188021535169455
100
AcDbArc
 50
329.99999999999881
 51
30.000000000000423
  0
ARC
  5
AA
100
AcDbEntity
  8
0
  6
CONTINUOUS
 62
               7
100
AcDbCircle
 10
87.394297488367329
 20
3.6184301395927605
 30
0.0
 40
1.4057025116326889
100
AcDbArc
 50
325.6157525319573
 51
34.384247468042716
  0
LINE
  5
AB
100
AcDbEntity
  8
0
  6
CONTINUOUS
 62
               7
100
AcDbLine
 10
88.800000000000011
 20
3.25
 30
0.0
 11
88.554379906938152
 21
2.8245735194570898
 31
0.0
  0
ARC
  5
AC
100
AcDbEntity
  8
0
  6
CONTINUOUS
 62
               7
100
AcDbCircle
 10
85.613248654051887
 20
2.5358983848622643
 30
0.0
 40
1.3867513459481176
100
AcDbArc
 50
326.37357086402739
 51
56.373570864027627
  0
LINE
  5
AD
100
AcDbEntity
  8
0
  6
CONTINUOUS
 62
               7
100
AcDbLine
 10
87.0
 20
2.0
 30
0.0
 11
86.381197846482991
 21
1.381197846483019
 31
0.0
  0
LINE
  5
AE
100
AcDbEntity
  8
0
  6
CONTINUOUS
 62
               7
100
AcDbLine
 10
86.381197846482991
 20
3.6905989232415095
 30
0.0
 11
77.0
 21
3.6905989232415095
 31
0.0
  0
LINE
  5
AF
100
AcDbEntity
  8
0
  6
CONTINUOUS
 62
               7
100
AcDbLine
 10
86.381197846482991
 20
1.381197846483019
 30
0.0
 11
77.0
 21
1.381197846483019
 31
0.0
  0
ARC
  5
B0
100
AcDbEntity
  8
0
  6
CONTINUOUS
 62
               7
100
AcDbCircle
 10
87.394297488367329
 20
8.3815698604072395
 30
0.0
 40
1.4057025116326889
100
AcDbArc
 50
325.6157525319565
 51
34.384247468042716
  0
ARC
  5
B1
100
AcDbEntity
  8
0
  6
CONTINUOUS
 62
               7
100
AcDbCircle
 10
85.613248654051887
 20
9.4641016151377357
 30
0.0
 40
1.3867513459481176
100
AcDbArc
 50
303.62642913597159
 51
33.626429135972629
  0
LINE
  5
B2
100
AcDbEntity
  8
0
  6
CONTINUOUS
 62
               7
100
AcDbLine
 10
87.0
 20
10.0
 30
0.0
 11
86.381197846482991
 21
10.618802153516981
 31
0.0
  0
LINE
  5
B3
100
AcDbEntity
  8
0
  6
CONTINUOUS
 62
               7
100
AcDbLine
 10
88.800000000000011
 20
8.75
 30
0.0
 11
88.554379906938152
 21
9.1754264805429102
 31
0.0
  0
LINE
  5
B4
100
AcDbEntity
  8
0
  6
CONTINUOUS
 62
               7
100
AcDbLine
 10
86.381197846482991
 20
8.3094010767584905
 30
0.0
 11
77.0
 21
8.3094010767584905
 31
0.0
  0
LINE
  5
B5
100
AcDbEntity
  8
0
  6
CONTINUOUS
 62
               7
100
AcDbLine
 10
86.381197846482991
 20
10.618802153516981
 30
0.0
 11
77.0
 21
10.618802153516981
 31
0.0
  0
LINE
  5
B6
100
AcDbEntity
  8
0
  6
CONTINUOUS
 62
               7
100
AcDbLine
 10
87.0
 20
2.0
 30
0.0
 11
87.0
 21
10.0
 31
0.0
  0
LINE
  5
B7
100
AcDbEntity
  8
0
  6
CONTINUOUS
 62
               7
100
AcDbLine
 10
88.800000000000011
 20
3.25
 30
0.0
 11
88.800000000000011
 21
8.75
 31
0.0
  0
LINE
  5
B8
100
AcDbEntity
  8
0
  6
CONTINUOUS
 62
               7
100
AcDbLine
 10
77.0
 20
1.381197846483019
 30
0.0
 11
77.0
 21
10.618802153516981
 31
0.0
  0
LINE
  5
B9
100
AcDbEntity
  8
0
  6
CONTINUOUS
 62
               2
100
AcDbLine
 10
88.800000000000011
 20
4.77049999999997
 30
0.0
 11
89.770500000000027
 21
4.77049999999997
 31
0.0
  0
LINE
  5
BA
100
AcDbEntity
  8
0
  6
CONTINUOUS
 62
               2
100
AcDbLine
 10
88.800000000000011
 20
7.2294999999999732
 30
0.0
 11
89.770500000000027
 21
7.2294999999999732
 31
0.0
  0
LINE
  5
BB
100
AcDbEntity
  8
0
  6
CONTINUOUS
 62
               7
100
AcDbLine
 10
90.0
 20
5.0
 30
0.0
 11
89.5
 21
4.5
 31
0.0
  0
LINE
  5
BC
100
AcDbEntity
  8
0
  6
CONTINUOUS
 62
               7
100
AcDbLine
 10
89.5
 20
4.5
 30
0.0
 11
89.5
 21
7.5
 31
0.0
  0
LINE
  5
BD
100
AcDbEntity
  8
0
  6
CONTINUOUS
 62
               7
100
AcDbLine
 10
90.0
 20
5.0
 30
0.0
 11
90.0
 21
7.0
 31
0.0
  0
LINE
  5
BE
100
AcDbEntity
  8
0
  6
CONTINUOUS
 62
               7
100
AcDbLine
 10
90.0
 20
7.0
 30
0.0
 11
89.5
 21
7.5
 31
0.0
  0
LINE
  5
BF
100
AcDbEntity
  8
0
  6
CONTINUOUS
 62
               7
100
AcDbLine
 10
77.0
 20
8.75
 30
0.0
 11
75.0
 21
8.75
 31
0.0
  0
LINE
  5
C0
100
AcDbEntity
  8
0
  6
CONTINUOUS
 62
               7
100
AcDbLine
 10
75.0
 20
3.25
 30
0.0
 11
75.0
 21
8.75
 31
0.0
  0
LINE
  5
C1
100
AcDbEntity
  8
0
  6
CONTINUOUS
 62
               7
100
AcDbLine
 10
77.0
 20
3.25
 30
0.0
 11
75.0
 21
3.25
 31
0.0
  0
LINE
  5
C2
100
AcDbEntity
  8
0
  6
CONTINUOUS
 62
               7
100
AcDbLine
 10
88.800000000000011
 20
4.5
 30
0.0
 11
89.5
 21
4.5
 31
0.0
  0
LINE
  5
C3
100
AcDbEntity
  8
0
  6
CONTINUOUS
 62
               7
100
AcDbLine
 10
88.800000000000011
 20
7.5
 30
0.0
 11
89.5
 21
7.5
 31
0.0
  0
LINE
  5
C4
100
AcDbEntity
  8
0
  6
CONTINUOUS
 62
               7
100
AcDbLine
 10
59.0
 20
4.5
 30
0.0
 11
75.0
 21
4.5
 31
0.0
  0
LINE
  5
C5
100
AcDbEntity
  8
0
  6
CONTINUOUS
 62
               7
100
AcDbLine
 10
59.0
 20
7.5
 30
0.0
 11
75.0
 21
7.5
 31
0.0
  0
LINE
  5
C6
100
AcDbEntity
  8
0
  6
CONTINUOUS
 62
               7
100
AcDbLine
 10
59.0
 20
8.9803847577293254
 30
0.0
 11
59.0
 21
3.0196152422706746
 31
0.0
  0
LINE
  5
C7
100
AcDbEntity
  8
0
  6
CONTINUOUS
 62
               7
100
AcDbLine
 10
58.699999999999989
 20
9.5
 30
0.0
 11
58.699999999999989
 21
2.5
 31
0.0
  0
LINE
  5
C8
100
AcDbEntity
  8
0
  6
CONTINUOUS
 62
               7
100
AcDbLine
 10
58.699999999999989
 20
2.5
 30
0.0
 11
59.0
 21
3.0196152422706746
 31
0.0
  0
LINE
  5
C9
100
AcDbEntity
  8
0
  6
CONTINUOUS
 62
               7
100
AcDbLine
 10
58.699999999999989
 20
9.5
 30
0.0
 11
59.0
 21
8.9803847577293254
 31
0.0
  0
LINE
  5
CA
100
AcDbEntity
  8
0
  6
CONTINUOUS
 62
               7
100
AcDbLine
 10
58.699999999999989
 20
2.5
 30
0.0
 11
55.0
 21
2.5
 31
0.0
  0
LINE
  5
CB
100
AcDbEntity
  8
0
  6
CONTINUOUS
 62
               7
100
AcDbLine
 10
58.699999999999989
 20
9.5
 30
0.0
 11
55.0
 21
9.5
 31
0.0
  0
LINE
  5
CC
100
AcDbEntity
  8
0
  6
CONTINUOUS
 62
               7
100
AcDbLine
 10
55.0
 20
10.0
 30
0.0
 11
55.0
 21
2.0
 31
0.0
  0
LINE
  5
CD
100
AcDbEntity
  8
0
  6
CONTINUOUS
 62
               7
100
AcDbLine
 10
51.0
 20
2.0
 30
0.0
 11
55.0
 21
2.0
 31
0.0
  0
LINE
  5
CE
100
AcDbEntity
  8
0
  6
CONTINUOUS
 62
               7
100
AcDbLine
 10
51.0
 20
10.0
 30
0.0
 11
55.0
 21
10.0
 31
0.0
  0
LINE
  5
CF
100
AcDbEntity
  8
0
  6
CONTINUOUS
 62
               7
100
AcDbLine
 10
0.5000000000000568
 20
1.0
 30
0.0
 11
5.5
 21
1.0
 31
0.0
  0
LINE
  5
D0
100
AcDbEntity
  8
0
  6
CONTINUOUS
 62
               7
100
AcDbLine
 10
51.0
 20
0.0
 30
0.0
 11
8.0
 21
0.0
 31
0.0
  0
LINE
  5
D1
100
AcDbEntity
  8
0
  6
CONTINUOUS
 62
               7
100
AcDbLine
 10
8.0
 20
15.0
 30
0.0
 11
51.0
 21
15.0
 31
0.0
  0
LINE
  5
D2
100
AcDbEntity
  8
0
  6
CENTER
 62
               2
100
AcDbLine
 10
92.0
 20
6.0
 30
0.0
 11
-2.0
 21
6.0
 31
0.0
  0
LINE
  5
D3
100
AcDbEntity
  8
0
  6
CONTINUOUS
 62
               7
100
AcDbLine
 10
0.5
 20
11.0
 30
0.0
 11
5.5
 21
11.0
 31
0.0
  0
LINE
  5
D4
100
AcDbEntity
  8
0
  6
CONTINUOUS
 62
               7
100
AcDbLine
 10
0.0
 20
10.5
 30
0.0
 11
0.0
 21
1.5
 31
0.0
  0
LINE
  5
D5
100
AcDbEntity
  8
0
  6
CONTINUOUS
 62
               7
100
AcDbLine
 10
6.0
 20
10.5
 30
0.0
 11
6.0
 21
1.5
 31
0.0
  0
LINE
  5
D6
100
AcDbEntity
  8
0
  6
CONTINUOUS
 62
               7
100
AcDbLine
 10
8.0
 20
15.0
 30
0.0
 11
8.0
 21
0.0
 31
0.0
  0
LINE
  5
D7
100
AcDbEntity
  8
0
  6
CONTINUOUS
 62
               7
100
AcDbLine
 10
51.0
 20
15.0
 30
0.0
 11
51.0
 21
0.0
 31
0.0
  0
LINE
  5
D8
100
AcDbEntity
  8
0
  6
CONTINUOUS
 62
               7
100
AcDbLine
 10
0.0
 20
10.5
 30
0.0
 11
0.5
 21
11.0
 31
0.0
  0
LINE
  5
D9
100
AcDbEntity
  8
0
  6
CONTINUOUS
 62
               7
100
AcDbLine
 10
5.5
 20
11.0
 30
0.0
 11
6.0
 21
10.5
 31
0.0
  0
LINE
  5
DA
100
AcDbEntity
  8
0
  6
CONTINUOUS
 62
               7
100
AcDbLine
 10
6.0
 20
1.5
 30
0.0
 11
5.5
 21
1.0
 31
0.0
  0
LINE
  5
DB
100
AcDbEntity
  8
0
  6
CONTINUOUS
 62
               7
100
AcDbLine
 10
0.0
 20
1.5
 30
0.0
 11
0.5000000000000568
 21
1.0
 31
0.0
  0
LINE
  5
DC
100
AcDbEntity
  8
0
  6
CONTINUOUS
 62
               7
100
AcDbLine
 10
6.0
 20
8.0
 30
0.0
 11
8.0
 21
8.0
 31
0.0
  0
LINE
  5
DD
100
AcDbEntity
  8
0
  6
CONTINUOUS
 62
               7
100
AcDbLine
 10
6.0
 20
4.0
 30
0.0
 11
8.0
 21
4.0
 31
0.0
  0
LINE
  5
DE
100
AcDbEntity
  8
0
  6
CONTINUOUS
 62
               7
100
AcDbLine
 10
7.5
 20
3.5
 30
0.0
 11
8.0
 21
3.5
 31
0.0
  0
LINE
  5
DF
100
AcDbEntity
  8
0
  6
CONTINUOUS
 62
               7
100
AcDbLine
 10
7.5
 20
8.5
 30
0.0
 11
8.0
 21
8.5
 31
0.0
  0
LINE
  5
E0
100
AcDbEntity
  8
0
  6
CONTINUOUS
 62
               7
100
AcDbLine
 10
7.5
 20
8.0
 30
0.0
 11
7.5
 21
9.5
 31
0.0
  0
LINE
  5
E1
100
AcDbEntity
  8
0
  6
CONTINUOUS
 62
               7
100
AcDbLine
 10
7.5
 20
9.5
 30
0.0
 11
6.0
 21
9.5
 31
0.0
  0
LINE
  5
E2
100
AcDbEntity
  8
0
  6
CONTINUOUS
 62
               7
100
AcDbLine
 10
7.5
 20
2.5
 30
0.0
 11
6.0
 21
2.5
 31
0.0
  0
LINE
  5
E3
100
AcDbEntity
  8
0
  6
CONTINUOUS
 62
               7
100
AcDbLine
 10
7.5
 20
4.0
 30
0.0
 11
7.5
 21
2.5
 31
0.0
  0
LINE
  5
E4
100
AcDbEntity
  8
0
  6
CONTINUOUS
 62
               7
100
AcDbLine
 10
8.0
 20
14.5
 30
0.0
 11
51.0
 21
14.5
 31
0.0
  0
LINE
  5
E5
100
AcDbEntity
  8
0
  6
CONTINUOUS
 62
               7
100
AcDbLine
 10
8.0
 20
0.3000000000000114
 30
0.0
 11
51.0
 21
0.3000000000000114
 31
0.0
  0
LINE
  5
E6
100
AcDbEntity
  8
0
  6
CENTER
 62
               2
100
AcDbLine
 10
48.5
 20
11.0
 30
0.0
 11
41.5
 21
11.0
 31
0.0
  0
CIRCLE
  5
E7
100
AcDbEntity
  8
0
  6
CONTINUOUS
 62
               7
100
AcDbCircle
 10
45.0
 20
11.0
 30
0.0
 40
1.25
  0
CIRCLE
  5
E8
100
AcDbEntity
  8
0
  6
CONTINUOUS
 62
               2
100
AcDbCircle
 10
45.0
 20
11.0
 30
0.0
 40
1.5
  0
LINE
  5
E9
100
AcDbEntity
  8
0
  6
CENTER
 62
               2
100
AcDbLine
 10
45.0
 20
7.5
 30
0.0
 11
45.0
 21
14.5
 31
0.0
  0
LINE
  5
EA
100
AcDbEntity
  8
0
  6
CENTER
 62
               2
100
AcDbLine
 10
20.5
 20
11.0
 30
0.0
 11
13.5
 21
11.0
 31
0.0
  0
CIRCLE
  5
EB
100
AcDbEntity
  8
0
  6
CONTINUOUS
 62
               7
100
AcDbCircle
 10
17.0
 20
11.0
 30
0.0
 40
1.25
  0
CIRCLE
  5
EC
100
AcDbEntity
  8
0
  6
CONTINUOUS
 62
               2
100
AcDbCircle
 10
17.0
 20
11.0
 30
0.0
 40
1.5
  0
LINE
  5
ED
100
AcDbEntity
  8
0
  6
CENTER
 62
               2
100
AcDbLine
 10
17.0
 20
7.5
 30
0.0
 11
17.0
 21
14.5
 31
0.0
  0
LINE
  5
EE
100
AcDbEntity
  8
0
  6
CENTER
 62
               2
100
AcDbLine
 10
46.0
 20
18.740000000000009
 30
0.0
 11
46.0
 21
13.0
 31
0.0
  0
LINE
  5
EF
100
AcDbEntity
  8
0
  6
CONTINUOUS
 62
               4
100
AcDbLine
 10
48.5
 20
16.54000000000002
 30
0.0
 11
48.5
 21
15.0
 31
0.0
  0
LINE
  5
F0
100
AcDbEntity
  8
0
  6
CONTINUOUS
 62
               4
100
AcDbLine
 10
43.5
 20
16.54000000000002
 30
0.0
 11
43.5
 21
15.0
 31
0.0
  0
LINE
  5
F1
100
AcDbEntity
  8
0
  6
CONTINUOUS
 62
               4
100
AcDbLine
 10
48.5
 20
16.54000000000002
 30
0.0
 11
43.5
 21
16.54000000000002
 31
0.0
  0
LINE
  5
F2
100
AcDbEntity
  8
0
  6
CONTINUOUS
 62
               4
100
AcDbLine
 10
43.699999999999989
 20
16.740000000000009
 30
0.0
 11
48.300000000000011
 21
16.740000000000009
 31
0.0
  0
LINE
  5
F3
100
AcDbEntity
  8
0
  6
CONTINUOUS
 62
               4
100
AcDbLine
 10
48.300000000000011
 20
16.740000000000009
 30
0.0
 11
48.5
 21
16.54000000000002
 31
0.0
  0
LINE
  5
F4
100
AcDbEntity
  8
0
  6
CONTINUOUS
 62
               4
100
AcDbLine
 10
43.5
 20
16.54000000000002
 30
0.0
 11
43.699999999999989
 21
16.740000000000009
 31
0.0
  0
LINE
  5
F5
100
AcDbEntity
  8
0
  6
CONTINUOUS
 62
               4
100
AcDbLine
 10
43.5
 20
15.639999999999986
 30
0.0
 11
48.5
 21
15.639999999999986
 31
0.0
  0
LINE
  5
F6
100
AcDbEntity
  8
0
  6
CENTER
 62
               2
100
AcDbLine
 10
15.0
 20
18.740000000000009
 30
0.0
 11
15.0
 21
13.0
 31
0.0
  0
LINE
  5
F7
100
AcDbEntity
  8
0
  6
CONTINUOUS
 62
               4
100
AcDbLine
 10
17.5
 20
16.54000000000002
 30
0.0
 11
17.5
 21
15.0
 31
0.0
  0
LINE
  5
F8
100
AcDbEntity
  8
0
  6
CONTINUOUS
 62
               4
100
AcDbLine
 10
12.5
 20
16.54000000000002
 30
0.0
 11
12.5
 21
15.0
 31
0.0
  0
LINE
  5
F9
100
AcDbEntity
  8
0
  6
CONTINUOUS
 62
               4
100
AcDbLine
 10
17.5
 20
16.54000000000002
 30
0.0
 11
12.5
 21
16.54000000000002
 31
0.0
  0
LINE
  5
FA
100
AcDbEntity
  8
0
  6
CONTINUOUS
 62
               4
100
AcDbLine
 10
12.699999999999989
 20
16.740000000000009
 30
0.0
 11
17.300000000000011
 21
16.740000000000009
 31
0.0
  0
LINE
  5
FB
100
AcDbEntity
  8
0
  6
CONTINUOUS
 62
               4
100
AcDbLine
 10
17.300000000000011
 20
16.740000000000009
 30
0.0
 11
17.5
 21
16.54000000000002
 31
0.0
  0
LINE
  5
FC
100
AcDbEntity
  8
0
  6
CONTINUOUS
 62
               4
100
AcDbLine
 10
12.5
 20
16.54000000000002
 30
0.0
 11
12.699999999999989
 21
16.740000000000009
 31
0.0
  0
LINE
  5
FD
100
AcDbEntity
  8
0
  6
CONTINUOUS
 62
               4
100
AcDbLine
 10
12.5
 20
15.639999999999986
 30
0.0
 11
17.5
 21
15.639999999999986
 31
0.0
  0
ENDBLK
  5
FE
100
AcDbEntity
  8
0
100
AcDbBlockEnd
  0
BLOCK
  5
FF
100
AcDbEntity
  8
0
100
AcDbBlockBegin
  2
SGDAP6-3
 70
               0
 10
0.0
 20
0.0
 30
0.0
  3
SGDAP6-3
  1

  0
CIRCLE
  5
100
100
AcDbEntity
  8
0
  6
CONTINUOUS
 62
               2
100
AcDbCircle
 10
6.0
 20
0.0
 30
0.0
 40
1.3250000000000028
  0
CIRCLE
  5
101
100
AcDbEntity
  8
0
  6
CONTINUOUS
 62
               7
100
AcDbCircle
 10
6.0
 20
0.0
 30
0.0
 40
1.5
  0
CIRCLE
  5
102
100
AcDbEntity
  8
0
  6
CONTINUOUS
 62
               7
100
AcDbCircle
 10
6.0
 20
0.0
 30
0.0
 40
3.6999999999999993
  0
ARC
  5
103
100
AcDbEntity
  8
0
  6
CONTINUOUS
 62
               7
100
AcDbCircle
 10
12.275000000000006
 20
-2.6000000000000227
 30
0.0
 40
2.0750000000000011
100
AcDbArc
 50
89.999999999999815
 51
127.91253590507239
  0
ARC
  5
104
100
AcDbEntity
  8
0
  6
CONTINUOUS
 62
               7
100
AcDbCircle
 10
12.275000000000006
 20
2.6000000000000227
 30
0.0
 40
2.0750000000000011
100
AcDbArc
 50
232.08746409492679
 51
269.99999999999937
  0
LINE
  5
105
100
AcDbEntity
  8
0
  6
CENTER
 62
               2
100
AcDbLine
 10
2.0
 20
15.0
 30
0.0
 11
10.0
 21
15.0
 31
0.0
  0
CIRCLE
  5
106
100
AcDbEntity
  8
0
  6
CONTINUOUS
 62
               7
100
AcDbCircle
 10
6.0
 20
8.0
 30
0.0
 40
1.2000000000000028
  0
CIRCLE
  5
107
100
AcDbEntity
  8
0
  6
CONTINUOUS
 62
               2
100
AcDbCircle
 10
6.0
 20
8.0
 30
0.0
 40
1.5
  0
LINE
  5
108
100
AcDbEntity
  8
0
  6
CENTER
 62
               2
100
AcDbLine
 10
9.5
 20
8.0
 30
0.0
 11
2.5
 21
8.0
 31
0.0
  0
CIRCLE
  5
109
100
AcDbEntity
  8
0
  6
CONTINUOUS
 62
               7
100
AcDbCircle
 10
6.0
 20
-8.0
 30
0.0
 40
1.2000000000000028
  0
CIRCLE
  5
10A
100
AcDbEntity
  8
0
  6
CONTINUOUS
 62
               2
100
AcDbCircle
 10
6.0
 20
-8.0
 30
0.0
 40
1.5
  0
LINE
  5
10B
100
AcDbEntity
  8
0
  6
CENTER
 62
               2
100
AcDbLine
 10
9.5
 20
-8.0
 30
0.0
 11
2.5
 21
-8.0
 31
0.0
  0
CIRCLE
  5
10C
100
AcDbEntity
  8
0
  6
CONTINUOUS
 62
               7
100
AcDbCircle
 10
6.0
 20
0.0
 30
0.0
 40
4.0
  0
CIRCLE
  5
10D
100
AcDbEntity
  8
0
  6
CONTINUOUS
 62
               7
100
AcDbCircle
 10
6.0
 20
15.0
 30
0.0
 40
2.0
  0
LINE
  5
10E
100
AcDbEntity
  8
0
  6
CONTINUOUS
 62
               7
100
AcDbLine
 10
10.5
 20
20.0
 30
0.0
 11
11.0
 21
19.5
 31
0.0
  0
LINE
  5
10F
100
AcDbEntity
  8
0
  6
CONTINUOUS
 62
               7
100
AcDbLine
 10
1.0
 20
19.5
 30
0.0
 11
1.5
 21
20.0
 31
0.0
  0
LINE
  5
110
100
AcDbEntity
  8
0
  6
CONTINUOUS
 62
               7
100
AcDbLine
 10
1.5
 20
-20.0
 30
0.0
 11
1.0
 21
-19.5
 31
0.0
  0
LINE
  5
111
100
AcDbEntity
  8
0
  6
CONTINUOUS
 62
               7
100
AcDbLine
 10
11.0
 20
-19.5
 30
0.0
 11
10.5
 21
-20.0
 31
0.0
  0
LINE
  5
112
100
AcDbEntity
  8
0
  6
CONTINUOUS
 62
               7
100
AcDbLine
 10
10.5
 20
20.0
 30
0.0
 11
1.5
 21
20.0
 31
0.0
  0
LINE
  5
113
100
AcDbEntity
  8
0
  6
CONTINUOUS
 62
               7
100
AcDbLine
 10
10.5
 20
-20.0
 30
0.0
 11
1.5
 21
-20.0
 31
0.0
  0
LINE
  5
114
100
AcDbEntity
  8
0
  6
CONTINUOUS
 62
               7
100
AcDbLine
 10
11.0
 20
19.5
 30
0.0
 11
11.0
 21
-19.5
 31
0.0
  0
LINE
  5
115
100
AcDbEntity
  8
0
  6
CENTER
 62
               2
100
AcDbLine
 10
6.0
 20
-23.0
 30
0.0
 11
6.0
 21
23.0
 31
0.0
  0
LINE
  5
116
100
AcDbEntity
  8
0
  6
CENTER
 62
               2
100
AcDbLine
 10
-2.0
 20
0.0
 30
0.0
 11
17.0
 21
0.0
 31
0.0
  0
ARC
  5
117
100
AcDbEntity
  8
0
  6
CONTINUOUS
 62
               7
100
AcDbCircle
 10
6.0
 20
0.0
 30
0.0
 40
6.5
100
AcDbArc
 50
208.72660534814057
 51
219.71513723182568
  0
ARC
  5
118
100
AcDbEntity
  8
0
  6
CONTINUOUS
 62
               7
100
AcDbCircle
 10
6.0
 20
0.0
 30
0.0
 40
6.5
100
AcDbArc
 50
355.36721749758738
 51
4.6327825024126055
  0
ARC
  5
119
100
AcDbEntity
  8
0
  6
CONTINUOUS
 62
               7
100
AcDbCircle
 10
6.0
 20
0.0
 30
0.0
 40
6.5
100
AcDbArc
 50
140.28486276817347
 51
151.27339465185861
  0
LINE
  5
11A
100
AcDbEntity
  8
0
  6
CONTINUOUS
 62
               7
100
AcDbLine
 10
12.275000000000006
 20
0.5249999999999773
 30
0.0
 11
13.900000000000006
 21
0.5249999999999773
 31
0.0
  0
LINE
  5
11B
100
AcDbEntity
  8
0
  6
CONTINUOUS
 62
               7
100
AcDbLine
 10
12.275000000000006
 20
4.6750000000000114
 30
0.0
 11
13.899999988079088
 21
4.6750000000000114
 31
0.0
  0
LINE
  5
11C
100
AcDbEntity
  8
0
  6
CONTINUOUS
 62
               7
100
AcDbLine
 10
14.900000000000006
 20
-0.6999999999999886
 30
0.0
 11
14.900000000000006
 21
0.6999999999999886
 31
0.0
  0
ARC
  5
11D
100
AcDbEntity
  8
0
  6
CONTINUOUS
 62
               7
100
AcDbCircle
 10
12.275000000000006
 20
2.6000000000000227
 30
0.0
 40
2.0750000000000011
100
AcDbArc
 50
89.999999999999815
 51
127.91253590507236
  0
LINE
  5
11E
100
AcDbEntity
  8
0
  6
CONTINUOUS
 62
               7
100
AcDbLine
 10
14.375
 20
1.0
 30
0.0
 11
14.599999999999994
 21
1.0
 31
0.0
  0
LINE
  5
11F
100
AcDbEntity
  8
0
  6
CONTINUOUS
 62
               7
100
AcDbLine
 10
14.374999928474438
 20
4.1999999999999886
 30
0.0
 11
14.69999999999996
 21
4.1999999999999886
 31
0.0
  0
LINE
  5
120
100
AcDbEntity
  8
0
  6
CONTINUOUS
 62
               7
100
AcDbLine
 10
14.375000059604645
 20
4.1999998688697815
 30
0.0
 11
13.900000035762787
 21
4.6749999523162842
 31
0.0
  0
LINE
  5
121
100
AcDbEntity
  8
0
  6
CONTINUOUS
 62
               7
100
AcDbLine
 10
13.900000000000006
 20
0.5249999999999773
 30
0.0
 11
14.375
 21
1.0
 31
0.0
  0
ARC
  5
122
100
AcDbEntity
  8
0
  6
CONTINUOUS
 62
               7
100
AcDbCircle
 10
14.599999999999994
 20
0.6999999999999886
 30
0.0
 40
0.3
100
AcDbArc
 50
0.0
 51
89.999999999999815
  0
LINE
  5
123
100
AcDbEntity
  8
0
  6
CONTINUOUS
 62
               7
100
AcDbLine
 10
15.0
 20
-4.5
 30
0.0
 11
15.0
 21
-11.5
 31
0.0
  0
LINE
  5
124
100
AcDbEntity
  8
0
  6
CONTINUOUS
 62
               7
100
AcDbLine
 10
15.0
 20
4.5
 30
0.0
 11
14.69999999999996
 21
4.1999999999999886
 31
0.0
  0
ARC
  5
125
100
AcDbEntity
  8
0
  6
CONTINUOUS
 62
               7
100
AcDbCircle
 10
12.275000000000006
 20
-2.6000000000000227
 30
0.0
 40
2.0750000000000011
100
AcDbArc
 50
232.08746409492679
 51
269.99999999999937
  0
LINE
  5
126
100
AcDbEntity
  8
0
  6
CONTINUOUS
 62
               7
100
AcDbLine
 10
15.0
 20
-4.5
 30
0.0
 11
14.69999999999996
 21
-4.1999999999999886
 31
0.0
  0
ARC
  5
127
100
AcDbEntity
  8
0
  6
CONTINUOUS
 62
               7
100
AcDbCircle
 10
14.599999999999994
 20
-0.6999999999999886
 30
0.0
 40
0.3
100
AcDbArc
 50
269.99999999999937
 51
0.0
  0
LINE
  5
128
100
AcDbEntity
  8
0
  6
CONTINUOUS
 62
               7
100
AcDbLine
 10
13.900000000000006
 20
-0.5249999999999773
 30
0.0
 11
14.375
 21
-1.0
 31
0.0
  0
LINE
  5
129
100
AcDbEntity
  8
0
  6
CONTINUOUS
 62
               7
100
AcDbLine
 10
14.375000059604645
 20
-4.1999998688697815
 30
0.0
 11
13.900000035762787
 21
-4.6749999523162842
 31
0.0
  0
LINE
  5
12A
100
AcDbEntity
  8
0
  6
CONTINUOUS
 62
               7
100
AcDbLine
 10
14.374999928474438
 20
-4.1999999999999886
 30
0.0
 11
14.69999999999996
 21
-4.1999999999999886
 31
0.0
  0
LINE
  5
12B
100
AcDbEntity
  8
0
  6
CONTINUOUS
 62
               7
100
AcDbLine
 10
14.375
 20
-1.0
 30
0.0
 11
14.599999999999994
 21
-1.0
 31
0.0
  0
LINE
  5
12C
100
AcDbEntity
  8
0
  6
CONTINUOUS
 62
               7
100
AcDbLine
 10
12.275000000000006
 20
-4.6750000000000114
 30
0.0
 11
13.899999988079088
 21
-4.6750000000000114
 31
0.0
  0
LINE
  5
12D
100
AcDbEntity
  8
0
  6
CONTINUOUS
 62
               7
100
AcDbLine
 10
12.275000000000006
 20
-0.5249999999999773
 30
0.0
 11
13.900000000000006
 21
-0.5249999999999773
 31
0.0
  0
LINE
  5
12E
100
AcDbEntity
  8
0
  6
CONTINUOUS
 62
               7
100
AcDbLine
 10
0.0
 20
4.5
 30
0.0
 11
0.0
 21
11.5
 31
0.0
  0
LINE
  5
12F
100
AcDbEntity
  8
0
  6
CONTINUOUS
 62
               7
100
AcDbLine
 10
0.3000000000000114
 20
11.800000000000011
 30
0.0
 11
0.3000000000000398
 21
18.199999999999989
 31
0.0
  0
LINE
  5
130
100
AcDbEntity
  8
0
  6
CONTINUOUS
 62
               7
100
AcDbLine
 10
0.0
 20
11.5
 30
0.0
 11
0.3000000000000114
 21
11.800000000000011
 31
0.0
  0
LINE
  5
131
100
AcDbEntity
  8
0
  6
CONTINUOUS
 62
               7
100
AcDbLine
 10
0.3000000000000114
 20
4.1999999999999886
 30
0.0
 11
0.3000000000000114
 21
-4.1999999999999886
 31
0.0
  0
LINE
  5
132
100
AcDbEntity
  8
0
  6
CONTINUOUS
 62
               7
100
AcDbLine
 10
0.0
 20
4.5
 30
0.0
 11
0.3000000000000114
 21
4.1999999999999886
 31
0.0
  0
LINE
  5
133
100
AcDbEntity
  8
0
  6
CONTINUOUS
 62
               7
100
AcDbLine
 10
0.0
 20
-4.5
 30
0.0
 11
0.0
 21
-11.5
 31
0.0
  0
LINE
  5
134
100
AcDbEntity
  8
0
  6
CONTINUOUS
 62
               7
100
AcDbLine
 10
0.0
 20
-11.5
 30
0.0
 11
0.3000000000000114
 21
-11.800000000000011
 31
0.0
  0
LINE
  5
135
100
AcDbEntity
  8
0
  6
CONTINUOUS
 62
               7
100
AcDbLine
 10
0.0
 20
-4.5
 30
0.0
 11
0.3000000000000114
 21
-4.1999999999999886
 31
0.0
  0
LINE
  5
136
100
AcDbEntity
  8
0
  6
CONTINUOUS
 62
               7
100
AcDbLine
 10
15.0
 20
-11.5
 30
0.0
 11
12.150480965877875
 21
-13.145170600913389
 31
0.0
  0
LINE
  5
137
100
AcDbEntity
  8
0
  6
CONTINUOUS
 62
               7
100
AcDbLine
 10
14.5
 20
-21.0
 30
0.0
 11
15.0
 21
-20.5
 31
0.0
  0
LINE
  5
138
100
AcDbEntity
  8
0
  6
CONTINUOUS
 62
               7
100
AcDbLine
 10
12.150480965877875
 20
-13.145170600913389
 30
0.0
 11
15.000000059604645
 21
-18.080682396888733
 31
0.0
  0
LINE
  5
139
100
AcDbEntity
  8
0
  6
CONTINUOUS
 62
               7
100
AcDbLine
 10
15.0
 20
-18.080682293650455
 30
0.0
 11
15.0
 21
-20.5
 31
0.0
  0
LINE
  5
13A
100
AcDbEntity
  8
0
  6
CONTINUOUS
 62
               7
100
AcDbLine
 10
15.0
 20
4.5
 30
0.0
 11
15.0
 21
11.5
 31
0.0
  0
LINE
  5
13B
100
AcDbEntity
  8
0
  6
CONTINUOUS
 62
               7
100
AcDbLine
 10
14.5
 20
21.0
 30
0.0
 11
15.0
 21
20.5
 31
0.0
  0
LINE
  5
13C
100
AcDbEntity
  8
0
  6
CONTINUOUS
 62
               7
100
AcDbLine
 10
12.150480965877875
 20
13.145170600913389
 30
0.0
 11
15.000000059604645
 21
18.080682396888733
 31
0.0
  0
LINE
  5
13D
100
AcDbEntity
  8
0
  6
CONTINUOUS
 62
               7
100
AcDbLine
 10
15.0
 20
18.080682293650455
 30
0.0
 11
15.0
 21
20.5
 31
0.0
  0
LINE
  5
13E
100
AcDbEntity
  8
0
  6
CONTINUOUS
 62
               7
100
AcDbLine
 10
14.5
 20
21.0
 30
0.0
 11
0.3000000000000114
 21
21.0
 31
0.0
  0
LINE
  5
13F
100
AcDbEntity
  8
0
  6
CONTINUOUS
 62
               7
100
AcDbLine
 10
15.0
 20
11.5
 30
0.0
 11
12.150480965877875
 21
13.145170600913389
 31
0.0
  0
LINE
  5
140
100
AcDbEntity
  8
0
  6
CONTINUOUS
 62
               2
100
AcDbLine
 10
8.0999999999999943
 20
-9.0
 30
0.0
 11
13.900000000000006
 21
-9.0
 31
0.0
  0
ARC
  5
141
100
AcDbEntity
  8
0
  6
CONTINUOUS
 62
               7
100
AcDbCircle
 10
11.0
 20
-9.0
 30
0.0
 40
0.8916697508023077
100
AcDbArc
 50
269.99999999999937
 51
89.999999999999801
  0
LINE
  5
142
100
AcDbEntity
  8
0
  6
CONTINUOUS
 62
               7
100
AcDbLine
 10
0.0
 20
20.699999999999932
 30
0.0
 11
0.0
 21
18.5
 31
0.0
  0
LINE
  5
143
100
AcDbEntity
  8
0
  6
CONTINUOUS
 62
               7
100
AcDbLine
 10
0.0
 20
18.5
 30
0.0
 11
0.3000000000000114
 21
18.199999999999989
 31
0.0
  0
LINE
  5
144
100
AcDbEntity
  8
0
  6
CONTINUOUS
 62
               7
100
AcDbLine
 10
0.3000000000000114
 20
21.0
 30
0.0
 11
0.0
 21
20.699999999999932
 31
0.0
  0
LINE
  5
145
100
AcDbEntity
  8
0
  6
CONTINUOUS
 62
               7
100
AcDbLine
 10
0.3000000000000114
 20
-11.800000000000011
 30
0.0
 11
0.3000000000000398
 21
-18.199999999999989
 31
0.0
  0
LINE
  5
146
100
AcDbEntity
  8
0
  6
CONTINUOUS
 62
               7
100
AcDbLine
 10
14.5
 20
-21.0
 30
0.0
 11
0.3000000000000114
 21
-21.0
 31
0.0
  0
LINE
  5
147
100
AcDbEntity
  8
0
  6
CONTINUOUS
 62
               7
100
AcDbLine
 10
0.3000000000000114
 20
-21.0
 30
0.0
 11
0.0
 21
-20.699999999999932
 31
0.0
  0
LINE
  5
148
100
AcDbEntity
  8
0
  6
CONTINUOUS
 62
               7
100
AcDbLine
 10
0.0
 20
-18.5
 30
0.0
 11
0.3000000000000114
 21
-18.199999999999989
 31
0.0
  0
LINE
  5
149
100
AcDbEntity
  8
0
  6
CONTINUOUS
 62
               7
100
AcDbLine
 10
0.0
 20
-20.699999999999932
 30
0.0
 11
0.0
 21
-18.5
 31
0.0
  0
LINE
  5
14A
100
AcDbEntity
  8
0
  6
CENTER
 62
               2
100
AcDbLine
 10
2.0
 20
-15.0
 30
0.0
 11
10.0
 21
-15.0
 31
0.0
  0
CIRCLE
  5
14B
100
AcDbEntity
  8
0
  6
CONTINUOUS
 62
               7
100
AcDbCircle
 10
6.0
 20
-15.0
 30
0.0
 40
2.0
  0
LINE
  5
14C
100
AcDbEntity
  8
0
  6
CONTINUOUS
 62
               7
100
AcDbLine
 10
1.0
 20
19.5
 30
0.0
 11
1.0
 21
-19.5
 31
0.0
  0
LINE
  5
14D
100
AcDbEntity
  8
0
  6
CENTER
 62
               2
100
AcDbLine
 10
18.740000000000009
 20
-8.0
 30
0.0
 11
13.0
 21
-8.0
 31
0.0
  0
ENDBLK
  5
14E
100
AcDbEntity
  8
0
100
AcDbBlockEnd
  0
BLOCK
  5
14F
100
AcDbEntity
  8
0
100
AcDbBlockBegin
  2
SGDAP6-4
 70
               0
 10
0.0
 20
0.0
 30
0.0
  3
SGDAP6-4
  1

  0
ARC
  5
150
100
AcDbEntity
  8
0
  6
CONTINUOUS
 62
               7
100
AcDbCircle
 10
-6.0
 20
-15.0
 30
0.0
 40
2.0
100
AcDbArc
 50
149.99999999999972
 51
29.999999999999915
  0
ARC
  5
151
100
AcDbEntity
  8
0
  6
CONTINUOUS
 62
               7
100
AcDbCircle
 10
-6.0
 20
15.0
 30
0.0
 40
1.9999999999999964
100
AcDbArc
 50
329.99999999999909
 51
209.99999999999966
  0
ARC
  5
152
100
AcDbEntity
  8
0
  6
CONTINUOUS
 62
               7
100
AcDbCircle
 10
-6.0
 20
-15.0
 30
0.0
 40
2.6000000000000014
100
AcDbArc
 50
157.38013505195926
 51
22.619864948040341
  0
ARC
  5
153
100
AcDbEntity
  8
0
  6
CONTINUOUS
 62
               7
100
AcDbCircle
 10
-6.0
 20
15.0
 30
0.0
 40
2.6000000000000014
100
AcDbArc
 50
337.38013505195886
 51
202.61986494803998
  0
LINE
  5
154
100
AcDbEntity
  8
0
  6
CONTINUOUS
 62
               7
100
AcDbLine
 10
-15.0
 20
11.5
 30
0.0
 11
-12.150480965877875
 21
13.145170600913389
 31
0.0
  0
LINE
  5
155
100
AcDbEntity
  8
0
  6
CONTINUOUS
 62
               7
100
AcDbLine
 10
-14.5
 20
21.0
 30
0.0
 11
-0.3000000000000114
 21
21.0
 31
0.0
  0
LINE
  5
156
100
AcDbEntity
  8
0
  6
CONTINUOUS
 62
               7
100
AcDbLine
 10
-15.0
 20
18.080682293650455
 30
0.0
 11
-15.0
 21
20.5
 31
0.0
  0
LINE
  5
157
100
AcDbEntity
  8
0
  6
CONTINUOUS
 62
               7
100
AcDbLine
 10
-12.150480965877875
 20
13.145170600913389
 30
0.0
 11
-15.000000059604645
 21
18.080682396888733
 31
0.0
  0
LINE
  5
158
100
AcDbEntity
  8
0
  6
CONTINUOUS
 62
               7
100
AcDbLine
 10
-14.5
 20
21.0
 30
0.0
 11
-15.0
 21
20.5
 31
0.0
  0
LINE
  5
159
100
AcDbEntity
  8
0
  6
CONTINUOUS
 62
               7
100
AcDbLine
 10
-15.0
 20
4.5
 30
0.0
 11
-15.0
 21
11.5
 31
0.0
  0
LINE
  5
15A
100
AcDbEntity
  8
0
  6
CONTINUOUS
 62
               7
100
AcDbLine
 10
-15.0
 20
-18.080682293650455
 30
0.0
 11
-15.0
 21
-20.5
 31
0.0
  0
LINE
  5
15B
100
AcDbEntity
  8
0
  6
CONTINUOUS
 62
               7
100
AcDbLine
 10
-12.150480965877875
 20
-13.145170600913389
 30
0.0
 11
-15.000000059604645
 21
-18.080682396888733
 31
0.0
  0
LINE
  5
15C
100
AcDbEntity
  8
0
  6
CONTINUOUS
 62
               7
100
AcDbLine
 10
-14.5
 20
-21.0
 30
0.0
 11
-15.0
 21
-20.5
 31
0.0
  0
LINE
  5
15D
100
AcDbEntity
  8
0
  6
CONTINUOUS
 62
               7
100
AcDbLine
 10
-15.0
 20
-11.5
 30
0.0
 11
-12.150480965877875
 21
-13.145170600913389
 31
0.0
  0
LINE
  5
15E
100
AcDbEntity
  8
0
  6
CONTINUOUS
 62
               7
100
AcDbLine
 10
-0.3000000000000114
 20
-11.800000000000011
 30
0.0
 11
-0.3000000000000398
 21
-18.199999999999989
 31
0.0
  0
LINE
  5
15F
100
AcDbEntity
  8
0
  6
CONTINUOUS
 62
               7
100
AcDbLine
 10
0.0
 20
-4.5
 30
0.0
 11
0.0
 21
-11.5
 31
0.0
  0
LINE
  5
160
100
AcDbEntity
  8
0
  6
CONTINUOUS
 62
               7
100
AcDbLine
 10
-14.5
 20
-21.0
 30
0.0
 11
-0.3000000000000114
 21
-21.0
 31
0.0
  0
LINE
  5
161
100
AcDbEntity
  8
0
  6
CONTINUOUS
 62
               7
100
AcDbLine
 10
0.0
 20
4.5
 30
0.0
 11
-0.3000000000000114
 21
4.1999999999999886
 31
0.0
  0
LINE
  5
162
100
AcDbEntity
  8
0
  6
CONTINUOUS
 62
               7
100
AcDbLine
 10
-0.3000000000000114
 20
4.1999999999999886
 30
0.0
 11
-0.3000000000000114
 21
-4.1999999999999886
 31
0.0
  0
LINE
  5
163
100
AcDbEntity
  8
0
  6
CONTINUOUS
 62
               7
100
AcDbLine
 10
0.0
 20
11.5
 30
0.0
 11
-0.3000000000000114
 21
11.800000000000011
 31
0.0
  0
LINE
  5
164
100
AcDbEntity
  8
0
  6
CONTINUOUS
 62
               7
100
AcDbLine
 10
-0.3000000000000114
 20
11.800000000000011
 30
0.0
 11
-0.3000000000000398
 21
18.199999999999989
 31
0.0
  0
LINE
  5
165
100
AcDbEntity
  8
0
  6
CENTER
 62
               2
100
AcDbLine
 10
-1.4000000000000057
 20
15.0
 30
0.0
 11
-10.599999999999994
 21
15.0
 31
0.0
  0
LINE
  5
166
100
AcDbEntity
  8
0
  6
CONTINUOUS
 62
               7
100
AcDbLine
 10
0.0
 20
4.5
 30
0.0
 11
0.0
 21
11.5
 31
0.0
  0
LINE
  5
167
100
AcDbEntity
  8
0
  6
CONTINUOUS
 62
               7
100
AcDbLine
 10
-12.275000000000006
 20
-0.5249999999999773
 30
0.0
 11
-13.900000000000006
 21
-0.5249999999999773
 31
0.0
  0
LINE
  5
168
100
AcDbEntity
  8
0
  6
CONTINUOUS
 62
               7
100
AcDbLine
 10
-12.275000000000006
 20
-4.6750000000000114
 30
0.0
 11
-13.899999988079088
 21
-4.6750000000000114
 31
0.0
  0
LINE
  5
169
100
AcDbEntity
  8
0
  6
CONTINUOUS
 62
               7
100
AcDbLine
 10
-14.375
 20
-1.0
 30
0.0
 11
-14.599999999999994
 21
-1.0
 31
0.0
  0
LINE
  5
16A
100
AcDbEntity
  8
0
  6
CONTINUOUS
 62
               7
100
AcDbLine
 10
-14.374999928474438
 20
-4.1999999999999886
 30
0.0
 11
-14.69999999999996
 21
-4.1999999999999886
 31
0.0
  0
LINE
  5
16B
100
AcDbEntity
  8
0
  6
CONTINUOUS
 62
               7
100
AcDbLine
 10
-14.375000059604645
 20
-4.1999998688697815
 30
0.0
 11
-13.900000035762787
 21
-4.6749999523162842
 31
0.0
  0
LINE
  5
16C
100
AcDbEntity
  8
0
  6
CONTINUOUS
 62
               7
100
AcDbLine
 10
-13.900000000000006
 20
-0.5249999999999773
 30
0.0
 11
-14.375
 21
-1.0
 31
0.0
  0
ARC
  5
16D
100
AcDbEntity
  8
0
  6
CONTINUOUS
 62
               7
100
AcDbCircle
 10
-14.599999999999994
 20
-0.6999999999999886
 30
0.0
 40
0.3
100
AcDbArc
 50
179.99999999999963
 51
269.99999999999937
  0
LINE
  5
16E
100
AcDbEntity
  8
0
  6
CONTINUOUS
 62
               7
100
AcDbLine
 10
-15.0
 20
-4.5
 30
0.0
 11
-14.69999999999996
 21
-4.1999999999999886
 31
0.0
  0
ARC
  5
16F
100
AcDbEntity
  8
0
  6
CONTINUOUS
 62
               7
100
AcDbCircle
 10
-12.275000000000006
 20
-2.6000000000000227
 30
0.0
 40
2.0750000000000011
100
AcDbArc
 50
269.99999999999937
 51
89.999999999999801
  0
LINE
  5
170
100
AcDbEntity
  8
0
  6
CONTINUOUS
 62
               7
100
AcDbLine
 10
-15.0
 20
4.5
 30
0.0
 11
-14.69999999999996
 21
4.1999999999999886
 31
0.0
  0
LINE
  5
171
100
AcDbEntity
  8
0
  6
CONTINUOUS
 62
               7
100
AcDbLine
 10
-15.0
 20
-4.5
 30
0.0
 11
-15.0
 21
-11.5
 31
0.0
  0
ARC
  5
172
100
AcDbEntity
  8
0
  6
CONTINUOUS
 62
               7
100
AcDbCircle
 10
-14.599999999999994
 20
0.6999999999999886
 30
0.0
 40
0.3
100
AcDbArc
 50
89.999999999999815
 51
179.99999999999963
  0
LINE
  5
173
100
AcDbEntity
  8
0
  6
CONTINUOUS
 62
               7
100
AcDbLine
 10
-13.900000000000006
 20
0.5249999999999773
 30
0.0
 11
-14.375
 21
1.0
 31
0.0
  0
LINE
  5
174
100
AcDbEntity
  8
0
  6
CONTINUOUS
 62
               7
100
AcDbLine
 10
-14.375000059604645
 20
4.1999998688697815
 30
0.0
 11
-13.900000035762787
 21
4.6749999523162842
 31
0.0
  0
LINE
  5
175
100
AcDbEntity
  8
0
  6
CONTINUOUS
 62
               7
100
AcDbLine
 10
-14.374999928474438
 20
4.1999999999999886
 30
0.0
 11
-14.69999999999996
 21
4.1999999999999886
 31
0.0
  0
LINE
  5
176
100
AcDbEntity
  8
0
  6
CONTINUOUS
 62
               7
100
AcDbLine
 10
-14.375
 20
1.0
 30
0.0
 11
-14.599999999999994
 21
1.0
 31
0.0
  0
ARC
  5
177
100
AcDbEntity
  8
0
  6
CONTINUOUS
 62
               7
100
AcDbCircle
 10
-12.275000000000006
 20
2.6000000000000227
 30
0.0
 40
2.0750000000000011
100
AcDbArc
 50
270.00000000000023
 51
89.999999999999801
  0
LINE
  5
178
100
AcDbEntity
  8
0
  6
CONTINUOUS
 62
               7
100
AcDbLine
 10
-14.900000000000006
 20
-0.6999999999999886
 30
0.0
 11
-14.900000000000006
 21
0.6999999999999886
 31
0.0
  0
LINE
  5
179
100
AcDbEntity
  8
0
  6
CONTINUOUS
 62
               7
100
AcDbLine
 10
-12.275000000000006
 20
4.6750000000000114
 30
0.0
 11
-13.899999988079088
 21
4.6750000000000114
 31
0.0
  0
LINE
  5
17A
100
AcDbEntity
  8
0
  6
CONTINUOUS
 62
               7
100
AcDbLine
 10
-12.275000000000006
 20
0.5249999999999773
 30
0.0
 11
-13.900000000000006
 21
0.5249999999999773
 31
0.0
  0
LINE
  5
17B
100
AcDbEntity
  8
0
  6
CENTER
 62
               2
100
AcDbLine
 10
-1.4000000000000057
 20
-15.0
 30
0.0
 11
-10.599999999999994
 21
-15.0
 31
0.0
  0
LINE
  5
17C
100
AcDbEntity
  8
0
  6
CONTINUOUS
 62
               7
100
AcDbLine
 10
0.0
 20
-4.5
 30
0.0
 11
-0.3000000000000114
 21
-4.1999999999999886
 31
0.0
  0
LINE
  5
17D
100
AcDbEntity
  8
0
  6
CONTINUOUS
 62
               7
100
AcDbLine
 10
0.0
 20
-11.5
 30
0.0
 11
-0.3000000000000114
 21
-11.800000000000011
 31
0.0
  0
LINE
  5
17E
100
AcDbEntity
  8
0
  6
CONTINUOUS
 62
               7
100
AcDbLine
 10
0.0
 20
18.5
 30
0.0
 11
-0.3000000000000114
 21
18.199999999999989
 31
0.0
  0
LINE
  5
17F
100
AcDbEntity
  8
0
  6
CONTINUOUS
 62
               7
100
AcDbLine
 10
0.0
 20
20.700000000000045
 30
0.0
 11
0.0
 21
18.5
 31
0.0
  0
LINE
  5
180
100
AcDbEntity
  8
0
  6
CONTINUOUS
 62
               7
100
AcDbLine
 10
-0.3000000000000114
 20
21.0
 30
0.0
 11
0.0
 21
20.700000000000045
 31
0.0
  0
LINE
  5
181
100
AcDbEntity
  8
0
  6
CONTINUOUS
 62
               7
100
AcDbLine
 10
0.0
 20
-20.699999999999989
 30
0.0
 11
0.0
 21
-18.5
 31
0.0
  0
LINE
  5
182
100
AcDbEntity
  8
0
  6
CONTINUOUS
 62
               7
100
AcDbLine
 10
0.0
 20
-18.5
 30
0.0
 11
-0.3000000000000114
 21
-18.199999999999989
 31
0.0
  0
LINE
  5
183
100
AcDbEntity
  8
0
  6
CONTINUOUS
 62
               7
100
AcDbLine
 10
0.0
 20
-20.699999999999989
 30
0.0
 11
-0.3000000000000114
 21
-21.0
 31
0.0
  0
LINE
  5
184
100
AcDbEntity
  8
0
  6
CENTER
 62
               2
100
AcDbLine
 10
2.0
 20
0.0
 30
0.0
 11
-17.0
 21
0.0
 31
0.0
  0
LINE
  5
185
100
AcDbEntity
  8
0
  6
CENTER
 62
               2
100
AcDbLine
 10
-6.0
 20
-23.0
 30
0.0
 11
-6.0
 21
23.0
 31
0.0
  0
LINE
  5
186
100
AcDbEntity
  8
0
  6
CONTINUOUS
 62
               7
100
AcDbLine
 10
-11.0
 20
4.2370705543744975
 30
0.0
 11
-11.0
 21
0.9629294456254911
 31
0.0
  0
LINE
  5
187
100
AcDbEntity
  8
0
  6
CONTINUOUS
 62
               7
100
AcDbLine
 10
-11.0
 20
-0.9629294456254911
 30
0.0
 11
-11.0
 21
-4.2370705543744975
 31
0.0
  0
LINE
  5
188
100
AcDbEntity
  8
0
  6
CONTINUOUS
 62
               7
100
AcDbLine
 10
-10.618802153517009
 20
0.0
 30
0.0
 11
-8.3094010767585047
 21
-4.0
 31
0.0
  0
LINE
  5
189
100
AcDbEntity
  8
0
  6
CONTINUOUS
 62
               7
100
AcDbLine
 10
-8.3094010767585047
 20
-4.0
 30
0.0
 11
-3.6905989232415095
 21
-4.0
 31
0.0
  0
LINE
  5
18A
100
AcDbEntity
  8
0
  6
CONTINUOUS
 62
               7
100
AcDbLine
 10
-3.6905989232415095
 20
-4.0
 30
0.0
 11
-1.3811978464829906
 21
0.0
 31
0.0
  0
LINE
  5
18B
100
AcDbEntity
  8
0
  6
CONTINUOUS
 62
               7
100
AcDbLine
 10
-1.3811978464829906
 20
0.0
 30
0.0
 11
-3.6905989232414953
 21
4.0
 31
0.0
  0
LINE
  5
18C
100
AcDbEntity
  8
0
  6
CONTINUOUS
 62
               7
100
AcDbLine
 10
-3.6905989232414953
 20
4.0
 30
0.0
 11
-8.3094010767584905
 21
4.0
 31
0.0
  0
LINE
  5
18D
100
AcDbEntity
  8
0
  6
CONTINUOUS
 62
               7
100
AcDbLine
 10
-8.3094010767584905
 20
4.0
 30
0.0
 11
-10.618802153517009
 21
0.0
 31
0.0
  0
LINE
  5
18E
100
AcDbEntity
  8
0
  6
CONTINUOUS
 62
               7
100
AcDbLine
 10
-9.1754264805429386
 20
0.0
 30
0.0
 11
-7.5877132402714693
 21
-2.75
 31
0.0
  0
LINE
  5
18F
100
AcDbEntity
  8
0
  6
CONTINUOUS
 62
               7
100
AcDbLine
 10
-7.5877132402714693
 20
-2.75
 30
0.0
 11
-4.4122867597285307
 21
-2.75
 31
0.0
  0
LINE
  5
190
100
AcDbEntity
  8
0
  6
CONTINUOUS
 62
               7
100
AcDbLine
 10
-4.4122867597285307
 20
-2.75
 30
0.0
 11
-2.8245735194570614
 21
0.0
 31
0.0
  0
LINE
  5
191
100
AcDbEntity
  8
0
  6
CONTINUOUS
 62
               7
100
AcDbLine
 10
-2.8245735194570614
 20
0.0
 30
0.0
 11
-4.4122867597285165
 21
2.75
 31
0.0
  0
LINE
  5
192
100
AcDbEntity
  8
0
  6
CONTINUOUS
 62
               7
100
AcDbLine
 10
-4.4122867597285165
 20
2.75
 30
0.0
 11
-7.5877132402714693
 21
2.75
 31
0.0
  0
LINE
  5
193
100
AcDbEntity
  8
0
  6
CONTINUOUS
 62
               7
100
AcDbLine
 10
-7.5877132402714693
 20
2.75
 30
0.0
 11
-9.1754264805429386
 21
0.0
 31
0.0
  0
CIRCLE
  5
194
100
AcDbEntity
  8
0
  6
CONTINUOUS
 62
               7
100
AcDbCircle
 10
-6.0
 20
0.0
 30
0.0
 40
4.0
  0
CIRCLE
  5
195
100
AcDbEntity
  8
0
  6
CONTINUOUS
 62
               7
100
AcDbCircle
 10
-6.0
 20
0.0
 30
0.0
 40
2.75
  0
LINE
  5
196
100
AcDbEntity
  8
0
  6
CONTINUOUS
 62
               7
100
AcDbLine
 10
-10.0
 20
14.0
 30
0.0
 11
-2.0
 21
14.0
 31
0.0
  0
LINE
  5
197
100
AcDbEntity
  8
0
  6
CONTINUOUS
 62
               7
100
AcDbLine
 10
-10.0
 20
-14.0
 30
0.0
 11
-2.0
 21
-14.0
 31
0.0
  0
LINE
  5
198
100
AcDbEntity
  8
0
  6
CONTINUOUS
 62
               7
100
AcDbLine
 10
-2.0
 20
-14.0
 30
0.0
 11
-2.0
 21
-1.0717967697244717
 31
0.0
  0
LINE
  5
199
100
AcDbEntity
  8
0
  6
CONTINUOUS
 62
               7
100
AcDbLine
 10
-10.0
 20
-14.0
 30
0.0
 11
-10.0
 21
-1.0717967697245285
 31
0.0
  0
LINE
  5
19A
100
AcDbEntity
  8
0
  6
CONTINUOUS
 62
               7
100
AcDbLine
 10
-2.0
 20
1.0717967697244717
 30
0.0
 11
-2.0
 21
14.0
 31
0.0
  0
LINE
  5
19B
100
AcDbEntity
  8
0
  6
CONTINUOUS
 62
               7
100
AcDbLine
 10
-10.0
 20
1.0717967697244717
 30
0.0
 11
-10.0
 21
14.0
 31
0.0
  0
CIRCLE
  5
19C
100
AcDbEntity
  8
0
  6
CONTINUOUS
 62
               7
100
AcDbCircle
 10
-6.0
 20
0.0
 30
0.0
 40
1.4999999999999929
  0
CIRCLE
  5
19D
100
AcDbEntity
  8
0
  6
CONTINUOUS
 62
               2
100
AcDbCircle
 10
-6.0
 20
0.0
 30
0.0
 40
1.2294999999999945
  0
CIRCLE
  5
19E
100
AcDbEntity
  8
0
  6
CONTINUOUS
 62
               7
100
AcDbCircle
 10
-6.0
 20
9.0
 30
0.0
 40
3.5
  0
CIRCLE
  5
19F
100
AcDbEntity
  8
0
  6
CONTINUOUS
 62
               7
100
AcDbCircle
 10
-6.0
 20
9.0
 30
0.0
 40
2.9803847577293396
  0
LINE
  5
1A0
100
AcDbEntity
  8
0
  6
CONTINUOUS
 62
               7
100
AcDbLine
 10
-5.1339745962155661
 20
10.5
 30
0.0
 11
-6.8660254037844339
 21
10.5
 31
0.0
  0
LINE
  5
1A1
100
AcDbEntity
  8
0
  6
CONTINUOUS
 62
               7
100
AcDbLine
 10
-6.8660254037844339
 20
10.5
 30
0.0
 11
-7.7320508075688821
 21
9.0
 31
0.0
  0
LINE
  5
1A2
100
AcDbEntity
  8
0
  6
CONTINUOUS
 62
               7
100
AcDbLine
 10
-7.7320508075688821
 20
9.0
 30
0.0
 11
-6.8660254037844339
 21
7.5
 31
0.0
  0
LINE
  5
1A3
100
AcDbEntity
  8
0
  6
CONTINUOUS
 62
               7
100
AcDbLine
 10
-6.8660254037844339
 20
7.5
 30
0.0
 11
-5.1339745962155661
 21
7.5
 31
0.0
  0
LINE
  5
1A4
100
AcDbEntity
  8
0
  6
CONTINUOUS
 62
               7
100
AcDbLine
 10
-5.1339745962155661
 20
7.5
 30
0.0
 11
-4.2679491924311321
 21
9.0
 31
0.0
  0
LINE
  5
1A5
100
AcDbEntity
  8
0
  6
CONTINUOUS
 62
               7
100
AcDbLine
 10
-4.2679491924311321
 20
9.0
 30
0.0
 11
-5.1339745962155661
 21
10.5
 31
0.0
  0
LINE
  5
1A6
100
AcDbEntity
  8
0
  6
CENTER
 62
               2
100
AcDbLine
 10
-0.5
 20
9.0
 30
0.0
 11
-11.5
 21
9.0
 31
0.0
  0
CIRCLE
  5
1A7
100
AcDbEntity
  8
0
  6
CONTINUOUS
 62
               7
100
AcDbCircle
 10
-6.0
 20
-9.0
 30
0.0
 40
3.5
  0
CIRCLE
  5
1A8
100
AcDbEntity
  8
0
  6
CONTINUOUS
 62
               7
100
AcDbCircle
 10
-6.0
 20
-9.0
 30
0.0
 40
2.9803847577293396
  0
LINE
  5
1A9
100
AcDbEntity
  8
0
  6
CENTER
 62
               2
100
AcDbLine
 10
-0.5
 20
-9.0
 30
0.0
 11
-11.5
 21
-9.0
 31
0.0
  0
LINE
  5
1AA
100
AcDbEntity
  8
0
  6
CONTINUOUS
 62
               7
100
AcDbLine
 10
-4.2679491924311321
 20
-9.0
 30
0.0
 11
-5.1339745962155661
 21
-10.5
 31
0.0
  0
LINE
  5
1AB
100
AcDbEntity
  8
0
  6
CONTINUOUS
 62
               7
100
AcDbLine
 10
-5.1339745962155661
 20
-7.5
 30
0.0
 11
-4.2679491924311321
 21
-9.0
 31
0.0
  0
LINE
  5
1AC
100
AcDbEntity
  8
0
  6
CONTINUOUS
 62
               7
100
AcDbLine
 10
-6.8660254037844339
 20
-7.5
 30
0.0
 11
-5.1339745962155661
 21
-7.5
 31
0.0
  0
LINE
  5
1AD
100
AcDbEntity
  8
0
  6
CONTINUOUS
 62
               7
100
AcDbLine
 10
-7.7320508075688821
 20
-9.0
 30
0.0
 11
-6.8660254037844339
 21
-7.5
 31
0.0
  0
LINE
  5
1AE
100
AcDbEntity
  8
0
  6
CONTINUOUS
 62
               7
100
AcDbLine
 10
-6.8660254037844339
 20
-10.5
 30
0.0
 11
-7.7320508075688821
 21
-9.0
 31
0.0
  0
LINE
  5
1AF
100
AcDbEntity
  8
0
  6
CONTINUOUS
 62
               7
100
AcDbLine
 10
-5.1339745962155661
 20
-10.5
 30
0.0
 11
-6.8660254037844339
 21
-10.5
 31
0.0
  0
LINE
  5
1B0
100
AcDbEntity
  8
0
  6
CENTER
 62
               2
100
AcDbLine
 10
-18.740000000000009
 20
-8.0
 30
0.0
 11
-13.0
 21
-8.0
 31
0.0
  0
ENDBLK
  5
1B1
100
AcDbEntity
  8
0
100
AcDbBlockEnd
  0
BLOCK
  5
1B2
100
AcDbEntity
  8
0
100
AcDbBlockBegin
  2
SGDAP6-5
 70
               0
 10
0.0
 20
0.0
 30
0.0
  3
SGDAP6-5
  1

  0
LINE
  5
1B3
100
AcDbEntity
  8
0
  6
PHANTOM
 62
               3
100
AcDbLine
 10
33.775255113840103
 20
-35.033010160501632
 30
0.0
 11
33.775255113840103
 21
26.723977853865307
 31
0.0
  0
LINE
  5
1B4
100
AcDbEntity
  8
0
  6
PHANTOM
 62
               3
100
AcDbLine
 10
67.0
 20
-35.033010160501618
 30
0.0
 11
67.0
 21
18.723977853865307
 31
0.0
  0
ARC
  5
1B5
100
AcDbEntity
  8
0
  6
CONTINUOUS
 62
               7
100
AcDbCircle
 10
92.254379906938254
 20
-6.0
 30
0.0
 40
5.2543799069382384
100
AcDbArc
 50
162.41204622600617
 51
197.58795377399304
  0
LINE
  5
1B6
100
AcDbEntity
  8
0
  6
CONTINUOUS
 62
               7
100
AcDbLine
 10
88.554379906938166
 20
-7.5877132402714835
 30
0.0
 11
87.245620093061873
 21
-7.5877132402714835
 31
0.0
  0
ARC
  5
1B7
100
AcDbEntity
  8
0
  6
CONTINUOUS
 62
               7
100
AcDbCircle
 10
88.40570251163274
 20
-8.3815698604072111
 30
0.0
 40
1.4057025116327224
100
AcDbArc
 50
145.61575253195787
 51
214.38424746804131
  0
ARC
  5
1B8
100
AcDbEntity
  8
0
  6
CONTINUOUS
 62
               7
100
AcDbCircle
 10
88.40570251163274
 20
-3.6184301395927889
 30
0.0
 40
1.4057025116327224
100
AcDbArc
 50
145.61575253195787
 51
214.38424746804131
  0
LINE
  5
1B9
100
AcDbEntity
  8
0
  6
CONTINUOUS
 62
               7
100
AcDbLine
 10
88.554379906938166
 20
-4.4122867597285165
 30
0.0
 11
87.245620093061873
 21
-4.4122867597285165
 31
0.0
  0
LINE
  5
1BA
100
AcDbEntity
  8
0
  6
CONTINUOUS
 62
               7
100
AcDbLine
 10
87.000000000000014
 20
-8.75
 30
0.0
 11
87.245620093061873
 21
-9.1754264805429386
 31
0.0
  0
LINE
  5
1BB
100
AcDbEntity
  8
0
  6
CONTINUOUS
 62
               7
100
AcDbLine
 10
87.000000000000014
 20
-3.25
 30
0.0
 11
87.245620093061873
 21
-2.8245735194570614
 31
0.0
  0
LINE
  5
1BC
100
AcDbEntity
  8
0
  6
CONTINUOUS
 62
               7
100
AcDbLine
 10
87.245620093061873
 20
-2.8245735194570614
 30
0.0
 11
88.554379906938166
 21
-2.8245735194570614
 31
0.0
  0
LINE
  5
1BD
100
AcDbEntity
  8
0
  6
CONTINUOUS
 62
               7
100
AcDbLine
 10
87.245620093061873
 20
-9.1754264805429386
 30
0.0
 11
88.554379906938166
 21
-9.1754264805429386
 31
0.0
  0
ARC
  5
1BE
100
AcDbEntity
  8
0
  6
CONTINUOUS
 62
               7
100
AcDbCircle
 10
83.545620093061871
 20
-6.0
 30
0.0
 40
5.2543799069381398
100
AcDbArc
 50
342.41204622600611
 51
17.587953773993831
  0
ARC
  5
1BF
100
AcDbEntity
  8
0
  6
CONTINUOUS
 62
               7
100
AcDbCircle
 10
82.381197846483047
 20
-6.0
 30
0.0
 40
4.6188021535169455
100
AcDbArc
 50
329.9999999999996
 51
30.000000000000423
  0
ARC
  5
1C0
100
AcDbEntity
  8
0
  6
CONTINUOUS
 62
               7
100
AcDbCircle
 10
87.394297488367329
 20
-3.6184301395927889
 30
0.0
 40
1.4057025116326889
100
AcDbArc
 50
325.6157525319565
 51
34.384247468042716
  0
LINE
  5
1C1
100
AcDbEntity
  8
0
  6
CONTINUOUS
 62
               7
100
AcDbLine
 10
88.800000000000011
 20
-3.25
 30
0.0
 11
88.554379906938152
 21
-2.8245735194570614
 31
0.0
  0
ARC
  5
1C2
100
AcDbEntity
  8
0
  6
CONTINUOUS
 62
               7
100
AcDbCircle
 10
85.613248654051887
 20
-2.5358983848622358
 30
0.0
 40
1.3867513459481176
100
AcDbArc
 50
303.62642913597159
 51
33.626429135972629
  0
LINE
  5
1C3
100
AcDbEntity
  8
0
  6
CONTINUOUS
 62
               7
100
AcDbLine
 10
87.0
 20
-2.0
 30
0.0
 11
86.381197846482991
 21
-1.3811978464829906
 31
0.0
  0
LINE
  5
1C4
100
AcDbEntity
  8
0
  6
CONTINUOUS
 62
               7
100
AcDbLine
 10
86.381197846482991
 20
-3.6905989232415095
 30
0.0
 11
77.0
 21
-3.6905989232415095
 31
0.0
  0
LINE
  5
1C5
100
AcDbEntity
  8
0
  6
CONTINUOUS
 62
               7
100
AcDbLine
 10
86.381197846482991
 20
-1.3811978464829906
 30
0.0
 11
77.0
 21
-1.3811978464829906
 31
0.0
  0
ARC
  5
1C6
100
AcDbEntity
  8
0
  6
CONTINUOUS
 62
               7
100
AcDbCircle
 10
87.394297488367329
 20
-8.3815698604072111
 30
0.0
 40
1.4057025116326889
100
AcDbArc
 50
325.6157525319573
 51
34.384247468042716
  0
ARC
  5
1C7
100
AcDbEntity
  8
0
  6
CONTINUOUS
 62
               7
100
AcDbCircle
 10
85.613248654051887
 20
-9.4641016151377642
 30
0.0
 40
1.3867513459481176
100
AcDbArc
 50
326.37357086402739
 51
56.373570864027627
  0
LINE
  5
1C8
100
AcDbEntity
  8
0
  6
CONTINUOUS
 62
               7
100
AcDbLine
 10
87.0
 20
-10.0
 30
0.0
 11
86.381197846482991
 21
-10.618802153517009
 31
0.0
  0
LINE
  5
1C9
100
AcDbEntity
  8
0
  6
CONTINUOUS
 62
               7
100
AcDbLine
 10
88.800000000000011
 20
-8.75
 30
0.0
 11
88.554379906938152
 21
-9.1754264805429386
 31
0.0
  0
LINE
  5
1CA
100
AcDbEntity
  8
0
  6
CONTINUOUS
 62
               7
100
AcDbLine
 10
86.381197846482991
 20
-8.3094010767584905
 30
0.0
 11
77.0
 21
-8.3094010767584905
 31
0.0
  0
LINE
  5
1CB
100
AcDbEntity
  8
0
  6
CONTINUOUS
 62
               7
100
AcDbLine
 10
86.381197846482991
 20
-10.618802153517009
 30
0.0
 11
77.0
 21
-10.618802153517009
 31
0.0
  0
LINE
  5
1CC
100
AcDbEntity
  8
0
  6
CONTINUOUS
 62
               7
100
AcDbLine
 10
87.0
 20
-2.0
 30
0.0
 11
87.0
 21
-10.0
 31
0.0
  0
LINE
  5
1CD
100
AcDbEntity
  8
0
  6
CONTINUOUS
 62
               7
100
AcDbLine
 10
88.800000000000011
 20
-3.25
 30
0.0
 11
88.800000000000011
 21
-8.75
 31
0.0
  0
LINE
  5
1CE
100
AcDbEntity
  8
0
  6
CONTINUOUS
 62
               7
100
AcDbLine
 10
77.0
 20
-1.3811978464829906
 30
0.0
 11
77.0
 21
-10.618802153517009
 31
0.0
  0
LINE
  5
1CF
100
AcDbEntity
  8
0
  6
CONTINUOUS
 62
               2
100
AcDbLine
 10
88.800000000000011
 20
-4.7704999999999984
 30
0.0
 11
89.770500000000013
 21
-4.7704999999999984
 31
0.0
  0
LINE
  5
1D0
100
AcDbEntity
  8
0
  6
CONTINUOUS
 62
               2
100
AcDbLine
 10
88.800000000000011
 20
-7.2295000000000016
 30
0.0
 11
89.770500000000013
 21
-7.2295000000000016
 31
0.0
  0
LINE
  5
1D1
100
AcDbEntity
  8
0
  6
CONTINUOUS
 62
               7
100
AcDbLine
 10
90.000000000000014
 20
-5.0
 30
0.0
 11
89.500000000000014
 21
-4.5
 31
0.0
  0
LINE
  5
1D2
100
AcDbEntity
  8
0
  6
CONTINUOUS
 62
               7
100
AcDbLine
 10
89.5
 20
-4.5
 30
0.0
 11
89.5
 21
-7.5
 31
0.0
  0
LINE
  5
1D3
100
AcDbEntity
  8
0
  6
CONTINUOUS
 62
               7
100
AcDbLine
 10
90.000000000000014
 20
-5.0
 30
0.0
 11
90.000000000000014
 21
-7.0
 31
0.0
  0
LINE
  5
1D4
100
AcDbEntity
  8
0
  6
CONTINUOUS
 62
               7
100
AcDbLine
 10
90.000000000000014
 20
-7.0
 30
0.0
 11
89.500000000000014
 21
-7.4999999999999716
 31
0.0
  0
LINE
  5
1D5
100
AcDbEntity
  8
0
  6
CONTINUOUS
 62
               7
100
AcDbLine
 10
77.0
 20
-8.75
 30
0.0
 11
75.0
 21
-8.75
 31
0.0
  0
LINE
  5
1D6
100
AcDbEntity
  8
0
  6
CONTINUOUS
 62
               7
100
AcDbLine
 10
75.0
 20
-3.25
 30
0.0
 11
75.0
 21
-8.75
 31
0.0
  0
LINE
  5
1D7
100
AcDbEntity
  8
0
  6
CONTINUOUS
 62
               7
100
AcDbLine
 10
77.0
 20
-3.25
 30
0.0
 11
75.0
 21
-3.25
 31
0.0
  0
LINE
  5
1D8
100
AcDbEntity
  8
0
  6
CONTINUOUS
 62
               7
100
AcDbLine
 10
88.800000000000011
 20
-4.5
 30
0.0
 11
89.5
 21
-4.5
 31
0.0
  0
LINE
  5
1D9
100
AcDbEntity
  8
0
  6
CONTINUOUS
 62
               7
100
AcDbLine
 10
88.800000000000011
 20
-7.5
 30
0.0
 11
89.5
 21
-7.5
 31
0.0
  0
LINE
  5
1DA
100
AcDbEntity
  8
0
  6
CONTINUOUS
 62
               7
100
AcDbLine
 10
59.0
 20
-4.5
 30
0.0
 11
75.0
 21
-4.5
 31
0.0
  0
LINE
  5
1DB
100
AcDbEntity
  8
0
  6
CONTINUOUS
 62
               7
100
AcDbLine
 10
59.0
 20
-7.5
 30
0.0
 11
75.0
 21
-7.5
 31
0.0
  0
LINE
  5
1DC
100
AcDbEntity
  8
0
  6
CONTINUOUS
 62
               7
100
AcDbLine
 10
59.0
 20
-8.9803847577293254
 30
0.0
 11
59.0
 21
-3.0196152422706746
 31
0.0
  0
LINE
  5
1DD
100
AcDbEntity
  8
0
  6
CONTINUOUS
 62
               7
100
AcDbLine
 10
58.700000000000003
 20
-9.5
 30
0.0
 11
58.700000000000003
 21
-2.5
 31
0.0
  0
LINE
  5
1DE
100
AcDbEntity
  8
0
  6
CONTINUOUS
 62
               7
100
AcDbLine
 10
58.700000000000003
 20
-2.5
 30
0.0
 11
59.0
 21
-3.0196152422706746
 31
0.0
  0
LINE
  5
1DF
100
AcDbEntity
  8
0
  6
CONTINUOUS
 62
               7
100
AcDbLine
 10
58.700000000000003
 20
-9.5
 30
0.0
 11
59.0
 21
-8.9803847577293254
 31
0.0
  0
LINE
  5
1E0
100
AcDbEntity
  8
0
  6
CONTINUOUS
 62
               7
100
AcDbLine
 10
58.700000000000003
 20
-2.5
 30
0.0
 11
55.0
 21
-2.5
 31
0.0
  0
LINE
  5
1E1
100
AcDbEntity
  8
0
  6
CONTINUOUS
 62
               7
100
AcDbLine
 10
58.700000000000003
 20
-9.5
 30
0.0
 11
55.0
 21
-9.5
 31
0.0
  0
LINE
  5
1E2
100
AcDbEntity
  8
0
  6
CONTINUOUS
 62
               7
100
AcDbLine
 10
55.0
 20
-10.0
 30
0.0
 11
55.0
 21
-2.0
 31
0.0
  0
LINE
  5
1E3
100
AcDbEntity
  8
0
  6
CONTINUOUS
 62
               7
100
AcDbLine
 10
51.0
 20
-2.0
 30
0.0
 11
55.0
 21
-2.0
 31
0.0
  0
LINE
  5
1E4
100
AcDbEntity
  8
0
  6
CONTINUOUS
 62
               7
100
AcDbLine
 10
51.0
 20
-10.0
 30
0.0
 11
55.0
 21
-10.0
 31
0.0
  0
LINE
  5
1E5
100
AcDbEntity
  8
0
  6
CONTINUOUS
 62
               7
100
AcDbLine
 10
0.5000000000000568
 20
-1.0
 30
0.0
 11
5.5
 21
-1.0
 31
0.0
  0
LINE
  5
1E6
100
AcDbEntity
  8
0
  6
CONTINUOUS
 62
               7
100
AcDbLine
 10
51.0
 20
0.0
 30
0.0
 11
8.0
 21
0.0
 31
0.0
  0
LINE
  5
1E7
100
AcDbEntity
  8
0
  6
CONTINUOUS
 62
               7
100
AcDbLine
 10
8.0
 20
-15.0
 30
0.0
 11
51.0
 21
-15.0
 31
0.0
  0
LINE
  5
1E8
100
AcDbEntity
  8
0
  6
CENTER
 62
               2
100
AcDbLine
 10
92.000000000000014
 20
-6.0
 30
0.0
 11
-2.0
 21
-6.0
 31
0.0
  0
LINE
  5
1E9
100
AcDbEntity
  8
0
  6
CONTINUOUS
 62
               7
100
AcDbLine
 10
0.5
 20
-11.0
 30
0.0
 11
5.5
 21
-11.0
 31
0.0
  0
LINE
  5
1EA
100
AcDbEntity
  8
0
  6
CONTINUOUS
 62
               7
100
AcDbLine
 10
0.0
 20
-10.5
 30
0.0
 11
0.0
 21
-1.5
 31
0.0
  0
LINE
  5
1EB
100
AcDbEntity
  8
0
  6
CONTINUOUS
 62
               7
100
AcDbLine
 10
6.0
 20
-10.5
 30
0.0
 11
6.0
 21
-1.5
 31
0.0
  0
LINE
  5
1EC
100
AcDbEntity
  8
0
  6
CONTINUOUS
 62
               7
100
AcDbLine
 10
8.0
 20
-15.0
 30
0.0
 11
8.0
 21
0.0
 31
0.0
  0
LINE
  5
1ED
100
AcDbEntity
  8
0
  6
CONTINUOUS
 62
               7
100
AcDbLine
 10
51.0
 20
-15.0
 30
0.0
 11
51.0
 21
0.0
 31
0.0
  0
LINE
  5
1EE
100
AcDbEntity
  8
0
  6
CONTINUOUS
 62
               7
100
AcDbLine
 10
0.0
 20
-10.5
 30
0.0
 11
0.5
 21
-11.0
 31
0.0
  0
LINE
  5
1EF
100
AcDbEntity
  8
0
  6
CONTINUOUS
 62
               7
100
AcDbLine
 10
5.5
 20
-11.0
 30
0.0
 11
6.0
 21
-10.5
 31
0.0
  0
LINE
  5
1F0
100
AcDbEntity
  8
0
  6
CONTINUOUS
 62
               7
100
AcDbLine
 10
6.0
 20
-1.5
 30
0.0
 11
5.5
 21
-1.0
 31
0.0
  0
LINE
  5
1F1
100
AcDbEntity
  8
0
  6
CONTINUOUS
 62
               7
100
AcDbLine
 10
0.0
 20
-1.5
 30
0.0
 11
0.5000000000000568
 21
-1.0
 31
0.0
  0
LINE
  5
1F2
100
AcDbEntity
  8
0
  6
CONTINUOUS
 62
               7
100
AcDbLine
 10
6.0
 20
-8.0
 30
0.0
 11
8.0
 21
-8.0
 31
0.0
  0
LINE
  5
1F3
100
AcDbEntity
  8
0
  6
CONTINUOUS
 62
               7
100
AcDbLine
 10
6.0
 20
-4.0
 30
0.0
 11
8.0
 21
-4.0
 31
0.0
  0
LINE
  5
1F4
100
AcDbEntity
  8
0
  6
CONTINUOUS
 62
               7
100
AcDbLine
 10
7.5
 20
-3.5
 30
0.0
 11
8.0
 21
-3.5
 31
0.0
  0
LINE
  5
1F5
100
AcDbEntity
  8
0
  6
CONTINUOUS
 62
               7
100
AcDbLine
 10
7.5
 20
-8.5
 30
0.0
 11
8.0
 21
-8.5
 31
0.0
  0
LINE
  5
1F6
100
AcDbEntity
  8
0
  6
CONTINUOUS
 62
               7
100
AcDbLine
 10
7.5
 20
-8.0
 30
0.0
 11
7.5
 21
-9.5
 31
0.0
  0
LINE
  5
1F7
100
AcDbEntity
  8
0
  6
CONTINUOUS
 62
               7
100
AcDbLine
 10
7.5
 20
-9.5
 30
0.0
 11
6.0
 21
-9.5
 31
0.0
  0
LINE
  5
1F8
100
AcDbEntity
  8
0
  6
CONTINUOUS
 62
               7
100
AcDbLine
 10
7.5
 20
-2.5
 30
0.0
 11
6.0
 21
-2.5
 31
0.0
  0
LINE
  5
1F9
100
AcDbEntity
  8
0
  6
CONTINUOUS
 62
               7
100
AcDbLine
 10
7.5
 20
-4.0
 30
0.0
 11
7.5
 21
-2.5
 31
0.0
  0
LINE
  5
1FA
100
AcDbEntity
  8
0
  6
CONTINUOUS
 62
               7
100
AcDbLine
 10
8.0
 20
-14.5
 30
0.0
 11
51.0
 21
-14.5
 31
0.0
  0
LINE
  5
1FB
100
AcDbEntity
  8
0
  6
CONTINUOUS
 62
               7
100
AcDbLine
 10
8.0
 20
-0.3000000000000114
 30
0.0
 11
51.0
 21
-0.3000000000000114
 31
0.0
  0
LINE
  5
1FC
100
AcDbEntity
  8
0
  6
CENTER
 62
               2
100
AcDbLine
 10
46.0
 20
-16.740000000000009
 30
0.0
 11
46.0
 21
-13.0
 31
0.0
  0
LINE
  5
1FD
100
AcDbEntity
  8
0
  6
CENTER
 62
               2
100
AcDbLine
 10
15.0
 20
-16.740000000000009
 30
0.0
 11
15.0
 21
-13.0
 31
0.0
  0
ENDBLK
  5
1FE
100
AcDbEntity
  8
0
100
AcDbBlockEnd
  0
BLOCK
  5
1FF
100
AcDbEntity
  8
0
100
AcDbBlockBegin
  2
SGDAP6-6
 70
               0
 10
0.0
 20
0.0
 30
0.0
  3
SGDAP6-6
  1

  0
LINE
  5
200
100
AcDbEntity
  8
0
  6
PHANTOM
 62
               3
100
AcDbLine
 10
33.775255113840103
 20
-7.7602367830018579
 30
0.0
 11
33.775255113840103
 21
32.372395894773973
 31
0.0
  0
LINE
  5
201
100
AcDbEntity
  8
0
  6
PHANTOM
 62
               3
100
AcDbLine
 10
67.0
 20
-7.7602367830018579
 30
0.0
 11
67.0
 21
32.372395894773973
 31
0.0
  0
LINE
  5
202
100
AcDbEntity
  8
0
  6
CENTER
 62
               2
100
AcDbLine
 10
15.0
 20
16.740000000000009
 30
0.0
 11
15.0
 21
13.0
 31
0.0
  0
LINE
  5
203
100
AcDbEntity
  8
0
  6
CENTER
 62
               2
100
AcDbLine
 10
46.0
 20
16.740000000000009
 30
0.0
 11
46.0
 21
13.0
 31
0.0
  0
LINE
  5
204
100
AcDbEntity
  8
0
  6
CONTINUOUS
 62
               7
100
AcDbLine
 10
8.0
 20
0.3000000000000114
 30
0.0
 11
51.0
 21
0.3000000000000114
 31
0.0
  0
LINE
  5
205
100
AcDbEntity
  8
0
  6
CONTINUOUS
 62
               7
100
AcDbLine
 10
8.0
 20
14.5
 30
0.0
 11
51.0
 21
14.5
 31
0.0
  0
LINE
  5
206
100
AcDbEntity
  8
0
  6
CONTINUOUS
 62
               7
100
AcDbLine
 10
7.5
 20
4.0
 30
0.0
 11
7.5
 21
2.5
 31
0.0
  0
LINE
  5
207
100
AcDbEntity
  8
0
  6
CONTINUOUS
 62
               7
100
AcDbLine
 10
7.5
 20
2.5
 30
0.0
 11
6.0
 21
2.5
 31
0.0
  0
LINE
  5
208
100
AcDbEntity
  8
0
  6
CONTINUOUS
 62
               7
100
AcDbLine
 10
7.5
 20
9.5
 30
0.0
 11
6.0
 21
9.5
 31
0.0
  0
LINE
  5
209
100
AcDbEntity
  8
0
  6
CONTINUOUS
 62
               7
100
AcDbLine
 10
7.5
 20
8.0
 30
0.0
 11
7.5
 21
9.5
 31
0.0
  0
LINE
  5
20A
100
AcDbEntity
  8
0
  6
CONTINUOUS
 62
               7
100
AcDbLine
 10
7.5
 20
8.5
 30
0.0
 11
8.0
 21
8.5
 31
0.0
  0
LINE
  5
20B
100
AcDbEntity
  8
0
  6
CONTINUOUS
 62
               7
100
AcDbLine
 10
7.5
 20
3.5
 30
0.0
 11
8.0
 21
3.5
 31
0.0
  0
LINE
  5
20C
100
AcDbEntity
  8
0
  6
CONTINUOUS
 62
               7
100
AcDbLine
 10
6.0
 20
4.0
 30
0.0
 11
8.0
 21
4.0
 31
0.0
  0
LINE
  5
20D
100
AcDbEntity
  8
0
  6
CONTINUOUS
 62
               7
100
AcDbLine
 10
6.0
 20
8.0
 30
0.0
 11
8.0
 21
8.0
 31
0.0
  0
LINE
  5
20E
100
AcDbEntity
  8
0
  6
CONTINUOUS
 62
               7
100
AcDbLine
 10
0.0
 20
1.5
 30
0.0
 11
0.5000000000000568
 21
1.0
 31
0.0
  0
LINE
  5
20F
100
AcDbEntity
  8
0
  6
CONTINUOUS
 62
               7
100
AcDbLine
 10
6.0
 20
1.5
 30
0.0
 11
5.5
 21
1.0
 31
0.0
  0
LINE
  5
210
100
AcDbEntity
  8
0
  6
CONTINUOUS
 62
               7
100
AcDbLine
 10
5.5
 20
11.0
 30
0.0
 11
6.0
 21
10.5
 31
0.0
  0
LINE
  5
211
100
AcDbEntity
  8
0
  6
CONTINUOUS
 62
               7
100
AcDbLine
 10
0.0
 20
10.5
 30
0.0
 11
0.5
 21
11.0
 31
0.0
  0
LINE
  5
212
100
AcDbEntity
  8
0
  6
CONTINUOUS
 62
               7
100
AcDbLine
 10
51.0
 20
15.0
 30
0.0
 11
51.0
 21
0.0
 31
0.0
  0
LINE
  5
213
100
AcDbEntity
  8
0
  6
CONTINUOUS
 62
               7
100
AcDbLine
 10
8.0
 20
15.0
 30
0.0
 11
8.0
 21
0.0
 31
0.0
  0
LINE
  5
214
100
AcDbEntity
  8
0
  6
CONTINUOUS
 62
               7
100
AcDbLine
 10
6.0
 20
10.5
 30
0.0
 11
6.0
 21
1.5
 31
0.0
  0
LINE
  5
215
100
AcDbEntity
  8
0
  6
CONTINUOUS
 62
               7
100
AcDbLine
 10
0.0
 20
10.5
 30
0.0
 11
0.0
 21
1.5
 31
0.0
  0
LINE
  5
216
100
AcDbEntity
  8
0
  6
CONTINUOUS
 62
               7
100
AcDbLine
 10
0.5
 20
11.0
 30
0.0
 11
5.5
 21
11.0
 31
0.0
  0
LINE
  5
217
100
AcDbEntity
  8
0
  6
CENTER
 62
               2
100
AcDbLine
 10
92.000000000000014
 20
6.0
 30
0.0
 11
-2.0
 21
6.0
 31
0.0
  0
LINE
  5
218
100
AcDbEntity
  8
0
  6
CONTINUOUS
 62
               7
100
AcDbLine
 10
8.0
 20
15.0
 30
0.0
 11
51.0
 21
15.0
 31
0.0
  0
LINE
  5
219
100
AcDbEntity
  8
0
  6
CONTINUOUS
 62
               7
100
AcDbLine
 10
51.0
 20
0.0
 30
0.0
 11
8.0
 21
0.0
 31
0.0
  0
LINE
  5
21A
100
AcDbEntity
  8
0
  6
CONTINUOUS
 62
               7
100
AcDbLine
 10
0.5000000000000568
 20
1.0
 30
0.0
 11
5.5
 21
1.0
 31
0.0
  0
LINE
  5
21B
100
AcDbEntity
  8
0
  6
CONTINUOUS
 62
               7
100
AcDbLine
 10
51.0
 20
10.0
 30
0.0
 11
55.0
 21
10.0
 31
0.0
  0
LINE
  5
21C
100
AcDbEntity
  8
0
  6
CONTINUOUS
 62
               7
100
AcDbLine
 10
51.0
 20
2.0
 30
0.0
 11
55.0
 21
2.0
 31
0.0
  0
LINE
  5
21D
100
AcDbEntity
  8
0
  6
CONTINUOUS
 62
               7
100
AcDbLine
 10
55.0
 20
10.0
 30
0.0
 11
55.0
 21
2.0
 31
0.0
  0
LINE
  5
21E
100
AcDbEntity
  8
0
  6
CONTINUOUS
 62
               7
100
AcDbLine
 10
58.700000000000003
 20
9.5
 30
0.0
 11
55.0
 21
9.5
 31
0.0
  0
LINE
  5
21F
100
AcDbEntity
  8
0
  6
CONTINUOUS
 62
               7
100
AcDbLine
 10
58.700000000000003
 20
2.5
 30
0.0
 11
55.0
 21
2.5
 31
0.0
  0
LINE
  5
220
100
AcDbEntity
  8
0
  6
CONTINUOUS
 62
               7
100
AcDbLine
 10
58.700000000000003
 20
9.5
 30
0.0
 11
59.0
 21
8.9803847577293254
 31
0.0
  0
LINE
  5
221
100
AcDbEntity
  8
0
  6
CONTINUOUS
 62
               7
100
AcDbLine
 10
58.700000000000003
 20
2.5
 30
0.0
 11
59.0
 21
3.0196152422706746
 31
0.0
  0
LINE
  5
222
100
AcDbEntity
  8
0
  6
CONTINUOUS
 62
               7
100
AcDbLine
 10
58.700000000000003
 20
9.5
 30
0.0
 11
58.700000000000003
 21
2.5
 31
0.0
  0
LINE
  5
223
100
AcDbEntity
  8
0
  6
CONTINUOUS
 62
               7
100
AcDbLine
 10
59.0
 20
8.9803847577293254
 30
0.0
 11
59.0
 21
3.0196152422706746
 31
0.0
  0
LINE
  5
224
100
AcDbEntity
  8
0
  6
CONTINUOUS
 62
               7
100
AcDbLine
 10
59.0
 20
7.5
 30
0.0
 11
75.0
 21
7.5
 31
0.0
  0
LINE
  5
225
100
AcDbEntity
  8
0
  6
CONTINUOUS
 62
               7
100
AcDbLine
 10
59.0
 20
4.5
 30
0.0
 11
75.0
 21
4.5
 31
0.0
  0
LINE
  5
226
100
AcDbEntity
  8
0
  6
CONTINUOUS
 62
               7
100
AcDbLine
 10
88.800000000000011
 20
7.5
 30
0.0
 11
89.5
 21
7.5
 31
0.0
  0
LINE
  5
227
100
AcDbEntity
  8
0
  6
CONTINUOUS
 62
               7
100
AcDbLine
 10
88.800000000000011
 20
4.5
 30
0.0
 11
89.5
 21
4.5
 31
0.0
  0
LINE
  5
228
100
AcDbEntity
  8
0
  6
CONTINUOUS
 62
               7
100
AcDbLine
 10
77.0
 20
3.25
 30
0.0
 11
75.0
 21
3.25
 31
0.0
  0
LINE
  5
229
100
AcDbEntity
  8
0
  6
CONTINUOUS
 62
               7
100
AcDbLine
 10
75.0
 20
3.25
 30
0.0
 11
75.0
 21
8.75
 31
0.0
  0
LINE
  5
22A
100
AcDbEntity
  8
0
  6
CONTINUOUS
 62
               7
100
AcDbLine
 10
77.0
 20
8.75
 30
0.0
 11
75.0
 21
8.75
 31
0.0
  0
LINE
  5
22B
100
AcDbEntity
  8
0
  6
CONTINUOUS
 62
               7
100
AcDbLine
 10
90.000000000000014
 20
7.0
 30
0.0
 11
89.500000000000014
 21
7.5
 31
0.0
  0
LINE
  5
22C
100
AcDbEntity
  8
0
  6
CONTINUOUS
 62
               7
100
AcDbLine
 10
90.000000000000014
 20
5.0
 30
0.0
 11
90.000000000000014
 21
7.0
 31
0.0
  0
LINE
  5
22D
100
AcDbEntity
  8
0
  6
CONTINUOUS
 62
               7
100
AcDbLine
 10
89.5
 20
4.5
 30
0.0
 11
89.5
 21
7.5
 31
0.0
  0
LINE
  5
22E
100
AcDbEntity
  8
0
  6
CONTINUOUS
 62
               7
100
AcDbLine
 10
90.000000000000014
 20
5.0
 30
0.0
 11
89.500000000000014
 21
4.5
 31
0.0
  0
LINE
  5
22F
100
AcDbEntity
  8
0
  6
CONTINUOUS
 62
               2
100
AcDbLine
 10
88.800000000000011
 20
7.2294999999999732
 30
0.0
 11
89.770500000000013
 21
7.2294999999999732
 31
0.0
  0
LINE
  5
230
100
AcDbEntity
  8
0
  6
CONTINUOUS
 62
               2
100
AcDbLine
 10
88.800000000000011
 20
4.77049999999997
 30
0.0
 11
89.770500000000013
 21
4.77049999999997
 31
0.0
  0
LINE
  5
231
100
AcDbEntity
  8
0
  6
CONTINUOUS
 62
               7
100
AcDbLine
 10
77.0
 20
1.381197846483019
 30
0.0
 11
77.0
 21
10.618802153516981
 31
0.0
  0
LINE
  5
232
100
AcDbEntity
  8
0
  6
CONTINUOUS
 62
               7
100
AcDbLine
 10
88.800000000000011
 20
3.25
 30
0.0
 11
88.800000000000011
 21
8.75
 31
0.0
  0
LINE
  5
233
100
AcDbEntity
  8
0
  6
CONTINUOUS
 62
               7
100
AcDbLine
 10
87.0
 20
2.0
 30
0.0
 11
87.0
 21
10.0
 31
0.0
  0
LINE
  5
234
100
AcDbEntity
  8
0
  6
CONTINUOUS
 62
               7
100
AcDbLine
 10
86.381197846482991
 20
10.618802153516981
 30
0.0
 11
77.0
 21
10.618802153516981
 31
0.0
  0
LINE
  5
235
100
AcDbEntity
  8
0
  6
CONTINUOUS
 62
               7
100
AcDbLine
 10
86.381197846482991
 20
8.3094010767584905
 30
0.0
 11
77.0
 21
8.3094010767584905
 31
0.0
  0
LINE
  5
236
100
AcDbEntity
  8
0
  6
CONTINUOUS
 62
               7
100
AcDbLine
 10
88.800000000000011
 20
8.75
 30
0.0
 11
88.554379906938152
 21
9.1754264805429102
 31
0.0
  0
LINE
  5
237
100
AcDbEntity
  8
0
  6
CONTINUOUS
 62
               7
100
AcDbLine
 10
87.0
 20
10.0
 30
0.0
 11
86.381197846482991
 21
10.618802153516981
 31
0.0
  0
ARC
  5
238
100
AcDbEntity
  8
0
  6
CONTINUOUS
 62
               7
100
AcDbCircle
 10
85.613248654051887
 20
9.4641016151377357
 30
0.0
 40
1.3867513459481176
100
AcDbArc
 50
303.62642913597159
 51
33.626429135972629
  0
ARC
  5
239
100
AcDbEntity
  8
0
  6
CONTINUOUS
 62
               7
100
AcDbCircle
 10
87.394297488367329
 20
8.3815698604072395
 30
0.0
 40
1.4057025116326889
100
AcDbArc
 50
325.6157525319565
 51
34.384247468042716
  0
LINE
  5
23A
100
AcDbEntity
  8
0
  6
CONTINUOUS
 62
               7
100
AcDbLine
 10
86.381197846482991
 20
1.381197846483019
 30
0.0
 11
77.0
 21
1.381197846483019
 31
0.0
  0
LINE
  5
23B
100
AcDbEntity
  8
0
  6
CONTINUOUS
 62
               7
100
AcDbLine
 10
86.381197846482991
 20
3.6905989232415095
 30
0.0
 11
77.0
 21
3.6905989232415095
 31
0.0
  0
LINE
  5
23C
100
AcDbEntity
  8
0
  6
CONTINUOUS
 62
               7
100
AcDbLine
 10
87.0
 20
2.0
 30
0.0
 11
86.381197846482991
 21
1.381197846483019
 31
0.0
  0
ARC
  5
23D
100
AcDbEntity
  8
0
  6
CONTINUOUS
 62
               7
100
AcDbCircle
 10
85.613248654051887
 20
2.5358983848622643
 30
0.0
 40
1.3867513459481176
100
AcDbArc
 50
326.37357086402739
 51
56.373570864027627
  0
LINE
  5
23E
100
AcDbEntity
  8
0
  6
CONTINUOUS
 62
               7
100
AcDbLine
 10
88.800000000000011
 20
3.25
 30
0.0
 11
88.554379906938152
 21
2.8245735194570898
 31
0.0
  0
ARC
  5
23F
100
AcDbEntity
  8
0
  6
CONTINUOUS
 62
               7
100
AcDbCircle
 10
87.394297488367329
 20
3.6184301395927605
 30
0.0
 40
1.4057025116326889
100
AcDbArc
 50
325.6157525319573
 51
34.384247468042716
  0
ARC
  5
240
100
AcDbEntity
  8
0
  6
CONTINUOUS
 62
               7
100
AcDbCircle
 10
82.381197846483047
 20
6.0
 30
0.0
 40
4.6188021535169455
100
AcDbArc
 50
329.99999999999881
 51
30.000000000000423
  0
ARC
  5
241
100
AcDbEntity
  8
0
  6
CONTINUOUS
 62
               7
100
AcDbCircle
 10
83.545620093061871
 20
6.0
 30
0.0
 40
5.2543799069381398
100
AcDbArc
 50
342.41204622600543
 51
17.587953773993881
  0
LINE
  5
242
100
AcDbEntity
  8
0
  6
CONTINUOUS
 62
               7
100
AcDbLine
 10
87.245620093061873
 20
9.1754264805429102
 30
0.0
 11
88.554379906938166
 21
9.1754264805429102
 31
0.0
  0
LINE
  5
243
100
AcDbEntity
  8
0
  6
CONTINUOUS
 62
               7
100
AcDbLine
 10
87.000000000000014
 20
8.75
 30
0.0
 11
87.245620093061873
 21
9.1754264805429102
 31
0.0
  0
LINE
  5
244
100
AcDbEntity
  8
0
  6
CONTINUOUS
 62
               7
100
AcDbLine
 10
88.554379906938166
 20
7.5877132402714551
 30
0.0
 11
87.245620093061873
 21
7.5877132402714551
 31
0.0
  0
ARC
  5
245
100
AcDbEntity
  8
0
  6
CONTINUOUS
 62
               7
100
AcDbCircle
 10
88.40570251163274
 20
8.3815698604071827
 30
0.0
 40
1.4057025116327224
100
AcDbArc
 50
145.61575253195787
 51
214.38424746804131
  0
ARC
  5
246
100
AcDbEntity
  8
0
  6
CONTINUOUS
 62
               7
100
AcDbCircle
 10
92.254379906938254
 20
6.0
 30
0.0
 40
5.2543799069382384
100
AcDbArc
 50
162.41204622600617
 51
197.58795377399304
  0
LINE
  5
247
100
AcDbEntity
  8
0
  6
CONTINUOUS
 62
               7
100
AcDbLine
 10
87.245620093061873
 20
2.8245735194570329
 30
0.0
 11
88.554379906938166
 21
2.8245735194570329
 31
0.0
  0
LINE
  5
248
100
AcDbEntity
  8
0
  6
CONTINUOUS
 62
               7
100
AcDbLine
 10
87.000000000000014
 20
3.25
 30
0.0
 11
87.245620093061873
 21
2.8245735194570329
 31
0.0
  0
ARC
  5
249
100
AcDbEntity
  8
0
  6
CONTINUOUS
 62
               7
100
AcDbCircle
 10
88.40570251163274
 20
3.6184301395928173
 30
0.0
 40
1.4057025116327224
100
AcDbArc
 50
145.61575253195787
 51
214.38424746804131
  0
LINE
  5
24A
100
AcDbEntity
  8
0
  6
CONTINUOUS
 62
               7
100
AcDbLine
 10
88.554379906938166
 20
4.4122867597285449
 30
0.0
 11
87.245620093061873
 21
4.4122867597285449
 31
0.0
  0
ENDBLK
  5
24B
100
AcDbEntity
  8
0
100
AcDbBlockEnd
  0
BLOCK
  5
24C
100
AcDbEntity
  8
0
100
AcDbBlockBegin
  2
SGDAP6-7
 70
               0
 10
0.0
 20
0.0
 30
0.0
  3
SGDAP6-7
  1

  0
LINE
  5
24D
100
AcDbEntity
  8
0
  6
PHANTOM
 62
               3
100
AcDbLine
 10
67.0
 20
-49.627604105226027
 30
0.0
 11
67.0
 21
47.516327879991991
 31
0.0
  0
LINE
  5
24E
100
AcDbEntity
  8
0
  6
PHANTOM
 62
               3
100
AcDbLine
 10
33.775255113840103
 20
-49.627604105226027
 30
0.0
 11
33.775255113840103
 21
47.516327879991991
 31
0.0
  0
LINE
  5
24F
100
AcDbEntity
  8
0
  6
CENTER
 62
               2
100
AcDbLine
 10
28.0
 20
-8.0
 30
0.0
 11
10.5
 21
-8.0
 31
0.0
  0
LINE
  5
250
100
AcDbEntity
  8
0
  6
CONTINUOUS
 62
               7
100
AcDbLine
 10
87.245620093061859
 20
0.0
 30
0.0
 11
88.554379906938152
 21
0.0
 31
0.0
  0
ARC
  5
251
100
AcDbEntity
  8
0
  6
CONTINUOUS
 62
               7
100
AcDbCircle
 10
90.971487441836359
 20
-1.375
 30
0.0
 40
3.9714874418363646
100
AcDbArc
 50
159.74384199958351
 51
200.2561580004157
  0
ARC
  5
252
100
AcDbEntity
  8
0
  6
CONTINUOUS
 62
               7
100
AcDbCircle
 10
90.971487441836359
 20
1.375
 30
0.0
 40
3.9714874418363646
100
AcDbArc
 50
159.74384199958351
 51
200.2561580004157
  0
ARC
  5
253
100
AcDbEntity
  8
0
  6
CONTINUOUS
 62
               4
100
AcDbCircle
 10
46.0
 20
-8.0
 30
0.0
 40
2.2999999999999998
100
AcDbArc
 50
192.55585779858558
 51
347.44414220141329
  0
ARC
  5
254
100
AcDbEntity
  8
0
  6
CONTINUOUS
 62
               4
100
AcDbCircle
 10
46.0
 20
-8.0
 30
0.0
 40
2.2999999999999998
100
AcDbArc
 50
12.555857798585919
 51
167.44414220141365
  0
LINE
  5
255
100
AcDbEntity
  8
0
  6
CONTINUOUS
 62
               4
100
AcDbLine
 10
43.550510227680206
 20
-8.5
 30
0.0
 11
48.449489742783186
 21
-8.5
 31
0.0
  0
LINE
  5
256
100
AcDbEntity
  8
0
  6
CONTINUOUS
 62
               4
100
AcDbLine
 10
43.550510227680206
 20
-7.5
 30
0.0
 11
48.449489742783186
 21
-7.5
 31
0.0
  0
LINE
  5
257
100
AcDbEntity
  8
0
  6
CENTER
 62
               2
100
AcDbLine
 10
46.0
 20
-3.5
 30
0.0
 11
46.0
 21
-12.5
 31
0.0
  0
LINE
  5
258
100
AcDbEntity
  8
0
  6
CENTER
 62
               2
100
AcDbLine
 10
50.5
 20
-8.0
 30
0.0
 11
41.5
 21
-8.0
 31
0.0
  0
CIRCLE
  5
259
100
AcDbEntity
  8
0
  6
CONTINUOUS
 62
               4
100
AcDbCircle
 10
46.0
 20
-8.0
 30
0.0
 40
2.5
  0
LINE
  5
25A
100
AcDbEntity
  8
0
  6
CENTER
 62
               2
100
AcDbLine
 10
15.0
 20
-3.5
 30
0.0
 11
15.0
 21
-12.5
 31
0.0
  0
ARC
  5
25B
100
AcDbEntity
  8
0
  6
CONTINUOUS
 62
               4
100
AcDbCircle
 10
15.0
 20
-8.0
 30
0.0
 40
2.2999999999999998
100
AcDbArc
 50
192.55585779858558
 51
347.44414220141329
  0
LINE
  5
25C
100
AcDbEntity
  8
0
  6
CONTINUOUS
 62
               4
100
AcDbLine
 10
12.550510227680206
 20
-8.5
 30
0.0
 11
17.449489742783186
 21
-8.5
 31
0.0
  0
ARC
  5
25D
100
AcDbEntity
  8
0
  6
CONTINUOUS
 62
               4
100
AcDbCircle
 10
15.0
 20
-8.0
 30
0.0
 40
2.2999999999999998
100
AcDbArc
 50
12.555857798585919
 51
167.44414220141365
  0
LINE
  5
25E
100
AcDbEntity
  8
0
  6
CONTINUOUS
 62
               4
100
AcDbLine
 10
12.550510227680206
 20
-7.5
 30
0.0
 11
17.449489742783186
 21
-7.5
 31
0.0
  0
CIRCLE
  5
25F
100
AcDbEntity
  8
0
  6
CONTINUOUS
 62
               4
100
AcDbCircle
 10
15.0
 20
-8.0
 30
0.0
 40
2.5
  0
ARC
  5
260
100
AcDbEntity
  8
0
  6
CONTINUOUS
 62
               7
100
AcDbCircle
 10
84.828512558163709
 20
-1.375
 30
0.0
 40
3.9714874418362967
100
AcDbArc
 50
339.74384199958342
 51
20.256158000416612
  0
ARC
  5
261
100
AcDbEntity
  8
0
  6
CONTINUOUS
 62
               7
100
AcDbCircle
 10
83.45854811567267
 20
-2.0
 30
0.0
 40
3.5414518843273428
100
AcDbArc
 50
325.6157525319577
 51
34.38424746804251
  0
ARC
  5
262
100
AcDbEntity
  8
0
  6
CONTINUOUS
 62
               7
100
AcDbCircle
 10
83.45854811567267
 20
2.0
 30
0.0
 40
3.5414518843273428
100
AcDbArc
 50
325.61575253195673
 51
34.384247468042311
  0
ARC
  5
263
100
AcDbEntity
  8
0
  6
CONTINUOUS
 62
               7
100
AcDbCircle
 10
84.828512558163709
 20
1.375
 30
0.0
 40
3.9714874418362967
100
AcDbArc
 50
339.74384199958257
 51
20.256158000416512
  0
LINE
  5
264
100
AcDbEntity
  8
0
  6
CONTINUOUS
 62
               7
100
AcDbLine
 10
77.0
 20
0.0
 30
0.0
 11
86.381197846482991
 21
0.0
 31
0.0
  0
LINE
  5
265
100
AcDbEntity
  8
0
  6
CONTINUOUS
 62
               7
100
AcDbLine
 10
88.800000000000011
 20
-2.75
 30
0.0
 11
87.0
 21
-2.75
 31
0.0
  0
LINE
  5
266
100
AcDbEntity
  8
0
  6
CONTINUOUS
 62
               7
100
AcDbLine
 10
88.800000000000011
 20
2.75
 30
0.0
 11
87.0
 21
2.75
 31
0.0
  0
LINE
  5
267
100
AcDbEntity
  8
0
  6
CONTINUOUS
 62
               7
100
AcDbLine
 10
87.0
 20
-4.0
 30
0.0
 11
77.0
 21
-4.0
 31
0.0
  0
LINE
  5
268
100
AcDbEntity
  8
0
  6
CONTINUOUS
 62
               7
100
AcDbLine
 10
87.0
 20
4.0
 30
0.0
 11
77.0
 21
4.0
 31
0.0
  0
LINE
  5
269
100
AcDbEntity
  8
0
  6
CONTINUOUS
 62
               7
100
AcDbLine
 10
88.800000000000011
 20
1.5
 30
0.0
 11
89.5
 21
1.5
 31
0.0
  0
LINE
  5
26A
100
AcDbEntity
  8
0
  6
CONTINUOUS
 62
               7
100
AcDbLine
 10
88.800000000000011
 20
-1.5
 30
0.0
 11
89.5
 21
-1.5
 31
0.0
  0
ARC
  5
26B
100
AcDbEntity
  8
0
  6
CONTINUOUS
 62
               7
100
AcDbCircle
 10
75.0
 20
0.0
 30
0.0
 40
0.5
100
AcDbArc
 50
269.99999999999937
 51
89.999999999999801
  0
LINE
  5
26C
100
AcDbEntity
  8
0
  6
CONTINUOUS
 62
               7
100
AcDbLine
 10
75.0
 20
-0.5
 30
0.0
 11
75.0
 21
-2.75
 31
0.0
  0
LINE
  5
26D
100
AcDbEntity
  8
0
  6
CONTINUOUS
 62
               7
100
AcDbLine
 10
77.0
 20
-2.75
 30
0.0
 11
75.0
 21
-2.75
 31
0.0
  0
LINE
  5
26E
100
AcDbEntity
  8
0
  6
CONTINUOUS
 62
               7
100
AcDbLine
 10
75.0
 20
0.5
 30
0.0
 11
75.0
 21
2.75
 31
0.0
  0
LINE
  5
26F
100
AcDbEntity
  8
0
  6
CONTINUOUS
 62
               7
100
AcDbLine
 10
77.0
 20
2.75
 30
0.0
 11
75.0
 21
2.75
 31
0.0
  0
LINE
  5
270
100
AcDbEntity
  8
0
  6
CONTINUOUS
 62
               7
100
AcDbLine
 10
58.699999999999989
 20
-12.5
 30
0.0
 11
55.0
 21
-12.5
 31
0.0
  0
LINE
  5
271
100
AcDbEntity
  8
0
  6
CONTINUOUS
 62
               7
100
AcDbLine
 10
58.699999999999989
 20
-5.5
 30
0.0
 11
55.0
 21
-5.5
 31
0.0
  0
LINE
  5
272
100
AcDbEntity
  8
0
  6
CONTINUOUS
 62
               7
100
AcDbLine
 10
58.699999999999989
 20
-5.5
 30
0.0
 11
59.0
 21
-6.0196152422706746
 31
0.0
  0
LINE
  5
273
100
AcDbEntity
  8
0
  6
CONTINUOUS
 62
               7
100
AcDbLine
 10
58.699999999999989
 20
-12.5
 30
0.0
 11
59.0
 21
-11.980384757729325
 31
0.0
  0
LINE
  5
274
100
AcDbEntity
  8
0
  6
CONTINUOUS
 62
               7
100
AcDbLine
 10
58.699999999999989
 20
-5.5
 30
0.0
 11
58.699999999999989
 21
-12.5
 31
0.0
  0
LINE
  5
275
100
AcDbEntity
  8
0
  6
CONTINUOUS
 62
               7
100
AcDbLine
 10
59.0
 20
-6.0196152422706746
 30
0.0
 11
59.0
 21
-11.980384757729325
 31
0.0
  0
LINE
  5
276
100
AcDbEntity
  8
0
  6
CONTINUOUS
 62
               7
100
AcDbLine
 10
58.699999999999989
 20
5.5
 30
0.0
 11
58.699999999999989
 21
12.5
 31
0.0
  0
LINE
  5
277
100
AcDbEntity
  8
0
  6
CONTINUOUS
 62
               7
100
AcDbLine
 10
58.699999999999989
 20
5.5
 30
0.0
 11
55.0
 21
5.5
 31
0.0
  0
LINE
  5
278
100
AcDbEntity
  8
0
  6
CONTINUOUS
 62
               7
100
AcDbLine
 10
59.0
 20
6.0196152422706746
 30
0.0
 11
59.0
 21
11.980384757729325
 31
0.0
  0
LINE
  5
279
100
AcDbEntity
  8
0
  6
CONTINUOUS
 62
               7
100
AcDbLine
 10
58.699999999999989
 20
5.5
 30
0.0
 11
59.0
 21
6.0196152422706746
 31
0.0
  0
LINE
  5
27A
100
AcDbEntity
  8
0
  6
CONTINUOUS
 62
               7
100
AcDbLine
 10
58.699999999999989
 20
12.5
 30
0.0
 11
55.0
 21
12.5
 31
0.0
  0
LINE
  5
27B
100
AcDbEntity
  8
0
  6
CONTINUOUS
 62
               7
100
AcDbLine
 10
58.699999999999989
 20
12.5
 30
0.0
 11
59.0
 21
11.980384757729325
 31
0.0
  0
LINE
  5
27C
100
AcDbEntity
  8
0
  6
CONTINUOUS
 62
               7
100
AcDbLine
 10
90.0
 20
1.0
 30
0.0
 11
89.5
 21
1.5
 31
0.0
  0
LINE
  5
27D
100
AcDbEntity
  8
0
  6
CONTINUOUS
 62
               7
100
AcDbLine
 10
90.0
 20
-1.0
 30
0.0
 11
90.0
 21
1.0
 31
0.0
  0
LINE
  5
27E
100
AcDbEntity
  8
0
  6
CONTINUOUS
 62
               7
100
AcDbLine
 10
89.5
 20
-1.5
 30
0.0
 11
89.5
 21
1.5
 31
0.0
  0
LINE
  5
27F
100
AcDbEntity
  8
0
  6
CONTINUOUS
 62
               7
100
AcDbLine
 10
90.0
 20
-1.0
 30
0.0
 11
89.5
 21
-1.5
 31
0.0
  0
LINE
  5
280
100
AcDbEntity
  8
0
  6
CONTINUOUS
 62
               2
100
AcDbLine
 10
88.800000000000011
 20
1.2294999999999732
 30
0.0
 11
89.770500000000027
 21
1.2294999999999732
 31
0.0
  0
LINE
  5
281
100
AcDbEntity
  8
0
  6
CONTINUOUS
 62
               2
100
AcDbLine
 10
88.800000000000011
 20
-1.22950000000003
 30
0.0
 11
89.770500000000027
 21
-1.22950000000003
 31
0.0
  0
LINE
  5
282
100
AcDbEntity
  8
0
  6
CONTINUOUS
 62
               7
100
AcDbLine
 10
55.0
 20
14.0
 30
0.0
 11
55.0
 21
-14.0
 31
0.0
  0
LINE
  5
283
100
AcDbEntity
  8
0
  6
CONTINUOUS
 62
               7
100
AcDbLine
 10
77.0
 20
-4.0
 30
0.0
 11
77.0
 21
4.0
 31
0.0
  0
LINE
  5
284
100
AcDbEntity
  8
0
  6
CONTINUOUS
 62
               7
100
AcDbLine
 10
87.0
 20
-4.0
 30
0.0
 11
87.0
 21
4.0
 31
0.0
  0
LINE
  5
285
100
AcDbEntity
  8
0
  6
CONTINUOUS
 62
               7
100
AcDbLine
 10
88.800000000000011
 20
-2.75
 30
0.0
 11
88.800000000000011
 21
2.75
 31
0.0
  0
LINE
  5
286
100
AcDbEntity
  8
0
  6
CONTINUOUS
 62
               7
100
AcDbLine
 10
55.0
 20
-1.5
 30
0.0
 11
75.0
 21
-1.5
 31
0.0
  0
LINE
  5
287
100
AcDbEntity
  8
0
  6
CONTINUOUS
 62
               7
100
AcDbLine
 10
55.0
 20
1.5
 30
0.0
 11
75.0
 21
1.5
 31
0.0
  0
LINE
  5
288
100
AcDbEntity
  8
0
  6
CONTINUOUS
 62
               7
100
AcDbLine
 10
51.0
 20
14.0
 30
0.0
 11
55.0
 21
14.0
 31
0.0
  0
LINE
  5
289
100
AcDbEntity
  8
0
  6
CONTINUOUS
 62
               7
100
AcDbLine
 10
51.0
 20
-14.0
 30
0.0
 11
55.0
 21
-14.0
 31
0.0
  0
LINE
  5
28A
100
AcDbEntity
  8
0
  6
CENTER
 62
               2
100
AcDbLine
 10
49.0
 20
9.0
 30
0.0
 11
61.0
 21
9.0
 31
0.0
  0
LINE
  5
28B
100
AcDbEntity
  8
0
  6
CENTER
 62
               2
100
AcDbLine
 10
49.0
 20
-9.0
 30
0.0
 11
61.0
 21
-9.0
 31
0.0
  0
LINE
  5
28C
100
AcDbEntity
  8
0
  6
CONTINUOUS
 62
               2
100
AcDbLine
 10
7.5
 20
1.1999999999999886
 30
0.0
 11
6.0
 21
-1.1999999999999886
 31
0.0
  0
LINE
  5
28D
100
AcDbEntity
  8
0
  6
CONTINUOUS
 62
               2
100
AcDbLine
 10
6.0
 20
1.1999999999999886
 30
0.0
 11
7.5
 21
-1.1999999999999886
 31
0.0
  0
LINE
  5
28E
100
AcDbEntity
  8
0
  6
CONTINUOUS
 62
               7
100
AcDbLine
 10
6.0
 20
-1.1999999999999886
 30
0.0
 11
7.5
 21
-1.1999999999999886
 31
0.0
  0
LINE
  5
28F
100
AcDbEntity
  8
0
  6
CONTINUOUS
 62
               7
100
AcDbLine
 10
6.0
 20
1.1999999999999886
 30
0.0
 11
7.5
 21
1.1999999999999886
 31
0.0
  0
LINE
  5
290
100
AcDbEntity
  8
0
  6
CONTINUOUS
 62
               7
100
AcDbLine
 10
8.0
 20
-1.0
 30
0.0
 11
51.0
 21
-1.0
 31
0.0
  0
LINE
  5
291
100
AcDbEntity
  8
0
  6
CONTINUOUS
 62
               7
100
AcDbLine
 10
8.0
 20
-4.1999999999999886
 30
0.0
 11
51.0
 21
-4.1999999999999886
 31
0.0
  0
LINE
  5
292
100
AcDbEntity
  8
0
  6
CONTINUOUS
 62
               7
100
AcDbLine
 10
8.0
 20
-11.5
 30
0.0
 11
51.0
 21
-11.5
 31
0.0
  0
LINE
  5
293
100
AcDbEntity
  8
0
  6
CONTINUOUS
 62
               7
100
AcDbLine
 10
8.0
 20
-13.145170600913389
 30
0.0
 11
51.0
 21
-13.145170600913389
 31
0.0
  0
LINE
  5
294
100
AcDbEntity
  8
0
  6
CONTINUOUS
 62
               7
100
AcDbLine
 10
8.0
 20
-18.080682293650455
 30
0.0
 11
51.0
 21
-18.080682293650455
 31
0.0
  0
LINE
  5
295
100
AcDbEntity
  8
0
  6
CONTINUOUS
 62
               7
100
AcDbLine
 10
8.0
 20
1.0
 30
0.0
 11
51.0
 21
1.0
 31
0.0
  0
LINE
  5
296
100
AcDbEntity
  8
0
  6
CONTINUOUS
 62
               7
100
AcDbLine
 10
8.0
 20
4.1999999999999886
 30
0.0
 11
51.0
 21
4.1999999999999886
 31
0.0
  0
LINE
  5
297
100
AcDbEntity
  8
0
  6
CONTINUOUS
 62
               7
100
AcDbLine
 10
8.0
 20
11.5
 30
0.0
 11
51.0
 21
11.5
 31
0.0
  0
LINE
  5
298
100
AcDbEntity
  8
0
  6
CONTINUOUS
 62
               7
100
AcDbLine
 10
8.0
 20
13.145170600913389
 30
0.0
 11
51.0
 21
13.145170600913389
 31
0.0
  0
LINE
  5
299
100
AcDbEntity
  8
0
  6
CONTINUOUS
 62
               7
100
AcDbLine
 10
8.0
 20
18.080682293650455
 30
0.0
 11
51.0
 21
18.080682293650455
 31
0.0
  0
LINE
  5
29A
100
AcDbEntity
  8
0
  6
CENTER
 62
               2
100
AcDbLine
 10
92.0
 20
0.0
 30
0.0
 11
-2.0
 21
0.0
 31
0.0
  0
LINE
  5
29B
100
AcDbEntity
  8
0
  6
CENTER
 62
               2
100
AcDbLine
 10
53.0
 20
15.0
 30
0.0
 11
-2.0
 21
15.0
 31
0.0
  0
LINE
  5
29C
100
AcDbEntity
  8
0
  6
CENTER
 62
               2
100
AcDbLine
 10
53.0
 20
-15.0
 30
0.0
 11
-2.0
 21
-15.0
 31
0.0
  0
CIRCLE
  5
29D
100
AcDbEntity
  8
0
  6
CONTINUOUS
 62
               7
100
AcDbCircle
 10
49.0
 20
-15.0
 30
0.0
 40
0.9000000000000057
  0
LINE
  5
29E
100
AcDbEntity
  8
0
  6
CENTER
 62
               2
100
AcDbLine
 10
49.0
 20
-12.100000000000023
 30
0.0
 11
49.0
 21
-17.899999999999977
 31
0.0
  0
LINE
  5
29F
100
AcDbEntity
  8
0
  6
CENTER
 62
               2
100
AcDbLine
 10
49.0
 20
12.100000000000023
 30
0.0
 11
49.0
 21
17.899999999999977
 31
0.0
  0
CIRCLE
  5
2A0
100
AcDbEntity
  8
0
  6
CONTINUOUS
 62
               7
100
AcDbCircle
 10
49.0
 20
15.0
 30
0.0
 40
0.9000000000000057
  0
LINE
  5
2A1
100
AcDbEntity
  8
0
  6
CONTINUOUS
 62
               7
100
AcDbLine
 10
51.0
 20
-20.5
 30
0.0
 11
51.0
 21
20.5
 31
0.0
  0
LINE
  5
2A2
100
AcDbEntity
  8
0
  6
CONTINUOUS
 62
               7
100
AcDbLine
 10
50.5
 20
-21.0
 30
0.0
 11
8.5
 21
-21.0
 31
0.0
  0
LINE
  5
2A3
100
AcDbEntity
  8
0
  6
CONTINUOUS
 62
               7
100
AcDbLine
 10
51.0
 20
-20.5
 30
0.0
 11
50.5
 21
-21.0
 31
0.0
  0
LINE
  5
2A4
100
AcDbEntity
  8
0
  6
CONTINUOUS
 62
               7
100
AcDbLine
 10
8.5
 20
-21.0
 30
0.0
 11
8.0
 21
-20.5
 31
0.0
  0
CIRCLE
  5
2A5
100
AcDbEntity
  8
0
  6
CONTINUOUS
 62
               7
100
AcDbCircle
 10
23.0
 20
-8.0
 30
0.0
 40
3.25
  0
LINE
  5
2A6
100
AcDbEntity
  8
0
  6
CENTER
 62
               2
100
AcDbLine
 10
23.0
 20
-3.0
 30
0.0
 11
23.0
 21
-13.0
 31
0.0
  0
CIRCLE
  5
2A7
100
AcDbEntity
  8
0
  6
CONTINUOUS
 62
               7
100
AcDbCircle
 10
23.0
 20
-8.0
 30
0.0
 40
1.6499999999999999
  0
CIRCLE
  5
2A8
100
AcDbEntity
  8
0
  6
CONTINUOUS
 62
               2
100
AcDbCircle
 10
23.0
 20
-8.0
 30
0.0
 40
2.0
  0
CIRCLE
  5
2A9
100
AcDbEntity
  8
0
  6
CONTINUOUS
 62
               7
100
AcDbCircle
 10
23.0
 20
8.0
 30
0.0
 40
3.25
  0
LINE
  5
2AA
100
AcDbEntity
  8
0
  6
CENTER
 62
               2
100
AcDbLine
 10
23.0
 20
3.0
 30
0.0
 11
23.0
 21
13.0
 31
0.0
  0
CIRCLE
  5
2AB
100
AcDbEntity
  8
0
  6
CONTINUOUS
 62
               2
100
AcDbCircle
 10
23.0
 20
8.0
 30
0.0
 40
2.0
  0
CIRCLE
  5
2AC
100
AcDbEntity
  8
0
  6
CONTINUOUS
 62
               7
100
AcDbCircle
 10
23.0
 20
8.0
 30
0.0
 40
1.6499999999999999
  0
LINE
  5
2AD
100
AcDbEntity
  8
0
  6
CENTER
 62
               2
100
AcDbLine
 10
18.0
 20
8.0
 30
0.0
 11
28.0
 21
8.0
 31
0.0
  0
LINE
  5
2AE
100
AcDbEntity
  8
0
  6
CONTINUOUS
 62
               7
100
AcDbLine
 10
51.0
 20
20.5
 30
0.0
 11
50.5
 21
21.0
 31
0.0
  0
LINE
  5
2AF
100
AcDbEntity
  8
0
  6
CONTINUOUS
 62
               7
100
AcDbLine
 10
50.5
 20
21.0
 30
0.0
 11
8.5
 21
21.0
 31
0.0
  0
LINE
  5
2B0
100
AcDbEntity
  8
0
  6
CONTINUOUS
 62
               7
100
AcDbLine
 10
8.5
 20
21.0
 30
0.0
 11
8.0
 21
20.5
 31
0.0
  0
LINE
  5
2B1
100
AcDbEntity
  8
0
  6
CONTINUOUS
 62
               7
100
AcDbLine
 10
7.5
 20
3.6999999999999886
 30
0.0
 11
6.0
 21
3.6999999999999886
 31
0.0
  0
LINE
  5
2B2
100
AcDbEntity
  8
0
  6
CONTINUOUS
 62
               7
100
AcDbLine
 10
7.5
 20
-3.6999999999999886
 30
0.0
 11
7.5
 21
3.6999999999999886
 31
0.0
  0
LINE
  5
2B3
100
AcDbEntity
  8
0
  6
CONTINUOUS
 62
               7
100
AcDbLine
 10
7.5
 20
2.5
 30
0.0
 11
8.0
 21
2.5
 31
0.0
  0
LINE
  5
2B4
100
AcDbEntity
  8
0
  6
CONTINUOUS
 62
               7
100
AcDbLine
 10
7.5
 20
-2.5
 30
0.0
 11
8.0
 21
-2.5
 31
0.0
  0
LINE
  5
2B5
100
AcDbEntity
  8
0
  6
CONTINUOUS
 62
               7
100
AcDbLine
 10
7.5
 20
-3.6999999999999886
 30
0.0
 11
6.0
 21
-3.6999999999999886
 31
0.0
  0
LINE
  5
2B6
100
AcDbEntity
  8
0
  6
CONTINUOUS
 62
               7
100
AcDbLine
 10
0.0
 20
-19.5
 30
0.0
 11
0.0
 21
19.5
 31
0.0
  0
LINE
  5
2B7
100
AcDbEntity
  8
0
  6
CONTINUOUS
 62
               7
100
AcDbLine
 10
5.5
 20
20.0
 30
0.0
 11
0.5
 21
20.0
 31
0.0
  0
LINE
  5
2B8
100
AcDbEntity
  8
0
  6
CONTINUOUS
 62
               7
100
AcDbLine
 10
5.5
 20
20.0
 30
0.0
 11
6.0
 21
19.5
 31
0.0
  0
LINE
  5
2B9
100
AcDbEntity
  8
0
  6
CONTINUOUS
 62
               7
100
AcDbLine
 10
0.5
 20
20.0
 30
0.0
 11
0.0
 21
19.5
 31
0.0
  0
LINE
  5
2BA
100
AcDbEntity
  8
0
  6
CONTINUOUS
 62
               7
100
AcDbLine
 10
0.5
 20
-20.0
 30
0.0
 11
0.0
 21
-19.5
 31
0.0
  0
LINE
  5
2BB
100
AcDbEntity
  8
0
  6
CONTINUOUS
 62
               7
100
AcDbLine
 10
5.5
 20
-20.0
 30
0.0
 11
6.0
 21
-19.5
 31
0.0
  0
LINE
  5
2BC
100
AcDbEntity
  8
0
  6
CONTINUOUS
 62
               7
100
AcDbLine
 10
5.5
 20
-20.0
 30
0.0
 11
0.5
 21
-20.0
 31
0.0
  0
LINE
  5
2BD
100
AcDbEntity
  8
0
  6
CONTINUOUS
 62
               7
100
AcDbLine
 10
8.0
 20
13.0
 30
0.0
 11
6.0
 21
13.0
 31
0.0
  0
LINE
  5
2BE
100
AcDbEntity
  8
0
  6
CONTINUOUS
 62
               7
100
AcDbLine
 10
8.0
 20
17.0
 30
0.0
 11
6.0
 21
17.0
 31
0.0
  0
LINE
  5
2BF
100
AcDbEntity
  8
0
  6
CONTINUOUS
 62
               7
100
AcDbLine
 10
8.0
 20
-20.5
 30
0.0
 11
8.0
 21
20.5
 31
0.0
  0
LINE
  5
2C0
100
AcDbEntity
  8
0
  6
CONTINUOUS
 62
               7
100
AcDbLine
 10
6.0
 20
-19.5
 30
0.0
 11
6.0
 21
19.5
 31
0.0
  0
LINE
  5
2C1
100
AcDbEntity
  8
0
  6
CONTINUOUS
 62
               7
100
AcDbLine
 10
8.0
 20
-13.0
 30
0.0
 11
6.0
 21
-13.0
 31
0.0
  0
LINE
  5
2C2
100
AcDbEntity
  8
0
  6
CONTINUOUS
 62
               7
100
AcDbLine
 10
8.0
 20
-17.0
 30
0.0
 11
6.0
 21
-17.0
 31
0.0
  0
ENDBLK
  5
2C3
100
AcDbEntity
  8
0
100
AcDbBlockEnd
  0
BLOCK
  5
2C4
100
AcDbEntity
  8
0
100
AcDbBlockBegin
  2
SGDAP6-8
 70
               0
 10
0.0
 20
0.0
 30
0.0
  3
SGDAP6-8
  1

  0
LINE
  5
2C5
100
AcDbEntity
  8
0
  6
CONTINUOUS
 62
               4
100
AcDbLine
 10
15.639999999999986
 20
-10.5
 30
0.0
 11
15.639999999999986
 21
-5.5
 31
0.0
  0
LINE
  5
2C6
100
AcDbEntity
  8
0
  6
CONTINUOUS
 62
               4
100
AcDbLine
 10
16.54000000000002
 20
-10.5
 30
0.0
 11
16.740000000000009
 21
-10.300000000000011
 31
0.0
  0
LINE
  5
2C7
100
AcDbEntity
  8
0
  6
CONTINUOUS
 62
               4
100
AcDbLine
 10
16.54000000000002
 20
-8.5
 30
0.0
 11
16.54000000000002
 21
-10.5
 31
0.0
  0
LINE
  5
2C8
100
AcDbEntity
  8
0
  6
CONTINUOUS
 62
               4
100
AcDbLine
 10
16.740000000000009
 20
-10.300000000000011
 30
0.0
 11
16.740000000000009
 21
-8.5
 31
0.0
  0
LINE
  5
2C9
100
AcDbEntity
  8
0
  6
CONTINUOUS
 62
               4
100
AcDbLine
 10
15.939999999999998
 20
-8.5
 30
0.0
 11
16.740000000000009
 21
-8.5
 31
0.0
  0
LINE
  5
2CA
100
AcDbEntity
  8
0
  6
CONTINUOUS
 62
               4
100
AcDbLine
 10
16.740000000000009
 20
-5.6999999999999886
 30
0.0
 11
16.54000000000002
 21
-5.5
 31
0.0
  0
LINE
  5
2CB
100
AcDbEntity
  8
0
  6
CONTINUOUS
 62
               4
100
AcDbLine
 10
15.939999999999998
 20
-7.5
 30
0.0
 11
16.740000000000009
 21
-7.5
 31
0.0
  0
LINE
  5
2CC
100
AcDbEntity
  8
0
  6
CONTINUOUS
 62
               4
100
AcDbLine
 10
16.740000000000009
 20
-7.5
 30
0.0
 11
16.740000000000009
 21
-5.6999999999999886
 31
0.0
  0
LINE
  5
2CD
100
AcDbEntity
  8
0
  6
CONTINUOUS
 62
               4
100
AcDbLine
 10
16.54000000000002
 20
-5.5
 30
0.0
 11
16.54000000000002
 21
-7.5
 31
0.0
  0
LINE
  5
2CE
100
AcDbEntity
  8
0
  6
CONTINUOUS
 62
               4
100
AcDbLine
 10
15.939999999999998
 20
-8.5
 30
0.0
 11
15.939999999999998
 21
-7.5
 31
0.0
  0
LINE
  5
2CF
100
AcDbEntity
  8
0
  6
CONTINUOUS
 62
               4
100
AcDbLine
 10
16.54000000000002
 20
-5.5
 30
0.0
 11
15.0
 21
-5.5
 31
0.0
  0
LINE
  5
2D0
100
AcDbEntity
  8
0
  6
CONTINUOUS
 62
               4
100
AcDbLine
 10
16.54000000000002
 20
-10.5
 30
0.0
 11
15.0
 21
-10.5
 31
0.0
  0
LINE
  5
2D1
100
AcDbEntity
  8
0
  6
CENTER
 62
               2
100
AcDbLine
 10
18.740000000000009
 20
-8.0
 30
0.0
 11
13.0
 21
-8.0
 31
0.0
  0
LINE
  5
2D2
100
AcDbEntity
  8
0
  6
CONTINUOUS
 62
               7
100
AcDbLine
 10
1.0
 20
19.5
 30
0.0
 11
1.0
 21
-19.5
 31
0.0
  0
CIRCLE
  5
2D3
100
AcDbEntity
  8
0
  6
CONTINUOUS
 62
               7
100
AcDbCircle
 10
6.0
 20
-15.0
 30
0.0
 40
2.0
  0
LINE
  5
2D4
100
AcDbEntity
  8
0
  6
CENTER
 62
               2
100
AcDbLine
 10
2.0
 20
-15.0
 30
0.0
 11
10.0
 21
-15.0
 31
0.0
  0
LINE
  5
2D5
100
AcDbEntity
  8
0
  6
CONTINUOUS
 62
               7
100
AcDbLine
 10
0.0
 20
-20.699999999999932
 30
0.0
 11
0.0
 21
-18.5
 31
0.0
  0
LINE
  5
2D6
100
AcDbEntity
  8
0
  6
CONTINUOUS
 62
               7
100
AcDbLine
 10
0.0
 20
-18.5
 30
0.0
 11
0.3000000000000114
 21
-18.199999999999989
 31
0.0
  0
LINE
  5
2D7
100
AcDbEntity
  8
0
  6
CONTINUOUS
 62
               7
100
AcDbLine
 10
0.3000000000000114
 20
-21.0
 30
0.0
 11
0.0
 21
-20.699999999999932
 31
0.0
  0
LINE
  5
2D8
100
AcDbEntity
  8
0
  6
CONTINUOUS
 62
               7
100
AcDbLine
 10
14.5
 20
-21.0
 30
0.0
 11
0.3000000000000114
 21
-21.0
 31
0.0
  0
LINE
  5
2D9
100
AcDbEntity
  8
0
  6
CONTINUOUS
 62
               7
100
AcDbLine
 10
0.3000000000000114
 20
-11.800000000000011
 30
0.0
 11
0.3000000000000398
 21
-18.199999999999989
 31
0.0
  0
LINE
  5
2DA
100
AcDbEntity
  8
0
  6
CONTINUOUS
 62
               7
100
AcDbLine
 10
0.3000000000000114
 20
21.0
 30
0.0
 11
0.0
 21
20.699999999999932
 31
0.0
  0
LINE
  5
2DB
100
AcDbEntity
  8
0
  6
CONTINUOUS
 62
               7
100
AcDbLine
 10
0.0
 20
18.5
 30
0.0
 11
0.3000000000000114
 21
18.199999999999989
 31
0.0
  0
LINE
  5
2DC
100
AcDbEntity
  8
0
  6
CONTINUOUS
 62
               7
100
AcDbLine
 10
0.0
 20
20.699999999999932
 30
0.0
 11
0.0
 21
18.5
 31
0.0
  0
ARC
  5
2DD
100
AcDbEntity
  8
0
  6
CONTINUOUS
 62
               7
100
AcDbCircle
 10
11.0
 20
-9.0
 30
0.0
 40
0.8916697508023077
100
AcDbArc
 50
269.99999999999937
 51
89.999999999999801
  0
LINE
  5
2DE
100
AcDbEntity
  8
0
  6
CONTINUOUS
 62
               2
100
AcDbLine
 10
8.0999999999999943
 20
-9.0
 30
0.0
 11
13.900000000000006
 21
-9.0
 31
0.0
  0
LINE
  5
2DF
100
AcDbEntity
  8
0
  6
CONTINUOUS
 62
               7
100
AcDbLine
 10
15.0
 20
11.5
 30
0.0
 11
12.150480965877875
 21
13.145170600913389
 31
0.0
  0
LINE
  5
2E0
100
AcDbEntity
  8
0
  6
CONTINUOUS
 62
               7
100
AcDbLine
 10
14.5
 20
21.0
 30
0.0
 11
0.3000000000000114
 21
21.0
 31
0.0
  0
LINE
  5
2E1
100
AcDbEntity
  8
0
  6
CONTINUOUS
 62
               7
100
AcDbLine
 10
15.0
 20
18.080682293650455
 30
0.0
 11
15.0
 21
20.5
 31
0.0
  0
LINE
  5
2E2
100
AcDbEntity
  8
0
  6
CONTINUOUS
 62
               7
100
AcDbLine
 10
12.150480965877875
 20
13.145170600913389
 30
0.0
 11
15.000000059604645
 21
18.080682396888733
 31
0.0
  0
LINE
  5
2E3
100
AcDbEntity
  8
0
  6
CONTINUOUS
 62
               7
100
AcDbLine
 10
14.5
 20
21.0
 30
0.0
 11
15.0
 21
20.5
 31
0.0
  0
LINE
  5
2E4
100
AcDbEntity
  8
0
  6
CONTINUOUS
 62
               7
100
AcDbLine
 10
15.0
 20
4.5
 30
0.0
 11
15.0
 21
11.5
 31
0.0
  0
LINE
  5
2E5
100
AcDbEntity
  8
0
  6
CONTINUOUS
 62
               7
100
AcDbLine
 10
15.0
 20
-18.080682293650455
 30
0.0
 11
15.0
 21
-20.5
 31
0.0
  0
LINE
  5
2E6
100
AcDbEntity
  8
0
  6
CONTINUOUS
 62
               7
100
AcDbLine
 10
12.150480965877875
 20
-13.145170600913389
 30
0.0
 11
15.000000059604645
 21
-18.080682396888733
 31
0.0
  0
LINE
  5
2E7
100
AcDbEntity
  8
0
  6
CONTINUOUS
 62
               7
100
AcDbLine
 10
14.5
 20
-21.0
 30
0.0
 11
15.0
 21
-20.5
 31
0.0
  0
LINE
  5
2E8
100
AcDbEntity
  8
0
  6
CONTINUOUS
 62
               7
100
AcDbLine
 10
15.0
 20
-11.5
 30
0.0
 11
12.150480965877875
 21
-13.145170600913389
 31
0.0
  0
LINE
  5
2E9
100
AcDbEntity
  8
0
  6
CONTINUOUS
 62
               7
100
AcDbLine
 10
0.0
 20
-4.5
 30
0.0
 11
0.3000000000000114
 21
-4.1999999999999886
 31
0.0
  0
LINE
  5
2EA
100
AcDbEntity
  8
0
  6
CONTINUOUS
 62
               7
100
AcDbLine
 10
0.0
 20
-11.5
 30
0.0
 11
0.3000000000000114
 21
-11.800000000000011
 31
0.0
  0
LINE
  5
2EB
100
AcDbEntity
  8
0
  6
CONTINUOUS
 62
               7
100
AcDbLine
 10
0.0
 20
-4.5
 30
0.0
 11
0.0
 21
-11.5
 31
0.0
  0
LINE
  5
2EC
100
AcDbEntity
  8
0
  6
CONTINUOUS
 62
               7
100
AcDbLine
 10
0.0
 20
4.5
 30
0.0
 11
0.3000000000000114
 21
4.1999999999999886
 31
0.0
  0
LINE
  5
2ED
100
AcDbEntity
  8
0
  6
CONTINUOUS
 62
               7
100
AcDbLine
 10
0.3000000000000114
 20
4.1999999999999886
 30
0.0
 11
0.3000000000000114
 21
-4.1999999999999886
 31
0.0
  0
LINE
  5
2EE
100
AcDbEntity
  8
0
  6
CONTINUOUS
 62
               7
100
AcDbLine
 10
0.0
 20
11.5
 30
0.0
 11
0.3000000000000114
 21
11.800000000000011
 31
0.0
  0
LINE
  5
2EF
100
AcDbEntity
  8
0
  6
CONTINUOUS
 62
               7
100
AcDbLine
 10
0.3000000000000114
 20
11.800000000000011
 30
0.0
 11
0.3000000000000398
 21
18.199999999999989
 31
0.0
  0
LINE
  5
2F0
100
AcDbEntity
  8
0
  6
CONTINUOUS
 62
               7
100
AcDbLine
 10
0.0
 20
4.5
 30
0.0
 11
0.0
 21
11.5
 31
0.0
  0
LINE
  5
2F1
100
AcDbEntity
  8
0
  6
CONTINUOUS
 62
               7
100
AcDbLine
 10
12.275000000000006
 20
-0.5249999999999773
 30
0.0
 11
13.900000000000006
 21
-0.5249999999999773
 31
0.0
  0
LINE
  5
2F2
100
AcDbEntity
  8
0
  6
CONTINUOUS
 62
               7
100
AcDbLine
 10
12.275000000000006
 20
-4.6750000000000114
 30
0.0
 11
13.899999988079088
 21
-4.6750000000000114
 31
0.0
  0
LINE
  5
2F3
100
AcDbEntity
  8
0
  6
CONTINUOUS
 62
               7
100
AcDbLine
 10
14.375
 20
-1.0
 30
0.0
 11
14.599999999999994
 21
-1.0
 31
0.0
  0
LINE
  5
2F4
100
AcDbEntity
  8
0
  6
CONTINUOUS
 62
               7
100
AcDbLine
 10
14.374999928474438
 20
-4.1999999999999886
 30
0.0
 11
14.69999999999996
 21
-4.1999999999999886
 31
0.0
  0
LINE
  5
2F5
100
AcDbEntity
  8
0
  6
CONTINUOUS
 62
               7
100
AcDbLine
 10
14.375000059604645
 20
-4.1999998688697815
 30
0.0
 11
13.900000035762787
 21
-4.6749999523162842
 31
0.0
  0
LINE
  5
2F6
100
AcDbEntity
  8
0
  6
CONTINUOUS
 62
               7
100
AcDbLine
 10
13.900000000000006
 20
-0.5249999999999773
 30
0.0
 11
14.375
 21
-1.0
 31
0.0
  0
ARC
  5
2F7
100
AcDbEntity
  8
0
  6
CONTINUOUS
 62
               7
100
AcDbCircle
 10
14.599999999999994
 20
-0.6999999999999886
 30
0.0
 40
0.3
100
AcDbArc
 50
269.99999999999937
 51
0.0
  0
LINE
  5
2F8
100
AcDbEntity
  8
0
  6
CONTINUOUS
 62
               7
100
AcDbLine
 10
15.0
 20
-4.5
 30
0.0
 11
14.69999999999996
 21
-4.1999999999999886
 31
0.0
  0
ARC
  5
2F9
100
AcDbEntity
  8
0
  6
CONTINUOUS
 62
               7
100
AcDbCircle
 10
12.275000000000006
 20
-2.6000000000000227
 30
0.0
 40
2.0750000000000011
100
AcDbArc
 50
232.08746409492679
 51
269.99999999999937
  0
LINE
  5
2FA
100
AcDbEntity
  8
0
  6
CONTINUOUS
 62
               7
100
AcDbLine
 10
15.0
 20
4.5
 30
0.0
 11
14.69999999999996
 21
4.1999999999999886
 31
0.0
  0
LINE
  5
2FB
100
AcDbEntity
  8
0
  6
CONTINUOUS
 62
               7
100
AcDbLine
 10
15.0
 20
-4.5
 30
0.0
 11
15.0
 21
-11.5
 31
0.0
  0
ARC
  5
2FC
100
AcDbEntity
  8
0
  6
CONTINUOUS
 62
               7
100
AcDbCircle
 10
14.599999999999994
 20
0.6999999999999886
 30
0.0
 40
0.3
100
AcDbArc
 50
0.0
 51
89.999999999999815
  0
LINE
  5
2FD
100
AcDbEntity
  8
0
  6
CONTINUOUS
 62
               7
100
AcDbLine
 10
13.900000000000006
 20
0.5249999999999773
 30
0.0
 11
14.375
 21
1.0
 31
0.0
  0
LINE
  5
2FE
100
AcDbEntity
  8
0
  6
CONTINUOUS
 62
               7
100
AcDbLine
 10
14.375000059604645
 20
4.1999998688697815
 30
0.0
 11
13.900000035762787
 21
4.6749999523162842
 31
0.0
  0
LINE
  5
2FF
100
AcDbEntity
  8
0
  6
CONTINUOUS
 62
               7
100
AcDbLine
 10
14.374999928474438
 20
4.1999999999999886
 30
0.0
 11
14.69999999999996
 21
4.1999999999999886
 31
0.0
  0
LINE
  5
300
100
AcDbEntity
  8
0
  6
CONTINUOUS
 62
               7
100
AcDbLine
 10
14.375
 20
1.0
 30
0.0
 11
14.599999999999994
 21
1.0
 31
0.0
  0
ARC
  5
301
100
AcDbEntity
  8
0
  6
CONTINUOUS
 62
               7
100
AcDbCircle
 10
12.275000000000006
 20
2.6000000000000227
 30
0.0
 40
2.0750000000000011
100
AcDbArc
 50
89.999999999999815
 51
127.91253590507236
  0
LINE
  5
302
100
AcDbEntity
  8
0
  6
CONTINUOUS
 62
               7
100
AcDbLine
 10
14.900000000000006
 20
-0.6999999999999886
 30
0.0
 11
14.900000000000006
 21
0.6999999999999886
 31
0.0
  0
LINE
  5
303
100
AcDbEntity
  8
0
  6
CONTINUOUS
 62
               7
100
AcDbLine
 10
12.275000000000006
 20
4.6750000000000114
 30
0.0
 11
13.899999988079088
 21
4.6750000000000114
 31
0.0
  0
LINE
  5
304
100
AcDbEntity
  8
0
  6
CONTINUOUS
 62
               7
100
AcDbLine
 10
12.275000000000006
 20
0.5249999999999773
 30
0.0
 11
13.900000000000006
 21
0.5249999999999773
 31
0.0
  0
ARC
  5
305
100
AcDbEntity
  8
0
  6
CONTINUOUS
 62
               7
100
AcDbCircle
 10
6.0
 20
0.0
 30
0.0
 40
6.5
100
AcDbArc
 50
140.28486276817347
 51
151.27339465185861
  0
ARC
  5
306
100
AcDbEntity
  8
0
  6
CONTINUOUS
 62
               7
100
AcDbCircle
 10
6.0
 20
0.0
 30
0.0
 40
6.5
100
AcDbArc
 50
355.36721749758738
 51
4.6327825024126055
  0
ARC
  5
307
100
AcDbEntity
  8
0
  6
CONTINUOUS
 62
               7
100
AcDbCircle
 10
6.0
 20
0.0
 30
0.0
 40
6.5
100
AcDbArc
 50
208.72660534814057
 51
219.71513723182568
  0
LINE
  5
308
100
AcDbEntity
  8
0
  6
CENTER
 62
               2
100
AcDbLine
 10
-2.0
 20
0.0
 30
0.0
 11
17.0
 21
0.0
 31
0.0
  0
LINE
  5
309
100
AcDbEntity
  8
0
  6
CENTER
 62
               2
100
AcDbLine
 10
6.0
 20
-23.0
 30
0.0
 11
6.0
 21
23.0
 31
0.0
  0
LINE
  5
30A
100
AcDbEntity
  8
0
  6
CONTINUOUS
 62
               7
100
AcDbLine
 10
11.0
 20
19.5
 30
0.0
 11
11.0
 21
-19.5
 31
0.0
  0
LINE
  5
30B
100
AcDbEntity
  8
0
  6
CONTINUOUS
 62
               7
100
AcDbLine
 10
10.5
 20
-20.0
 30
0.0
 11
1.5
 21
-20.0
 31
0.0
  0
LINE
  5
30C
100
AcDbEntity
  8
0
  6
CONTINUOUS
 62
               7
100
AcDbLine
 10
10.5
 20
20.0
 30
0.0
 11
1.5
 21
20.0
 31
0.0
  0
LINE
  5
30D
100
AcDbEntity
  8
0
  6
CONTINUOUS
 62
               7
100
AcDbLine
 10
11.0
 20
-19.5
 30
0.0
 11
10.5
 21
-20.0
 31
0.0
  0
LINE
  5
30E
100
AcDbEntity
  8
0
  6
CONTINUOUS
 62
               7
100
AcDbLine
 10
1.5
 20
-20.0
 30
0.0
 11
1.0
 21
-19.5
 31
0.0
  0
LINE
  5
30F
100
AcDbEntity
  8
0
  6
CONTINUOUS
 62
               7
100
AcDbLine
 10
1.0
 20
19.5
 30
0.0
 11
1.5
 21
20.0
 31
0.0
  0
LINE
  5
310
100
AcDbEntity
  8
0
  6
CONTINUOUS
 62
               7
100
AcDbLine
 10
10.5
 20
20.0
 30
0.0
 11
11.0
 21
19.5
 31
0.0
  0
CIRCLE
  5
311
100
AcDbEntity
  8
0
  6
CONTINUOUS
 62
               7
100
AcDbCircle
 10
6.0
 20
15.0
 30
0.0
 40
2.0
  0
CIRCLE
  5
312
100
AcDbEntity
  8
0
  6
CONTINUOUS
 62
               7
100
AcDbCircle
 10
6.0
 20
0.0
 30
0.0
 40
4.0
  0
LINE
  5
313
100
AcDbEntity
  8
0
  6
CENTER
 62
               2
100
AcDbLine
 10
9.5
 20
-8.0
 30
0.0
 11
2.5
 21
-8.0
 31
0.0
  0
CIRCLE
  5
314
100
AcDbEntity
  8
0
  6
CONTINUOUS
 62
               2
100
AcDbCircle
 10
6.0
 20
-8.0
 30
0.0
 40
1.5
  0
CIRCLE
  5
315
100
AcDbEntity
  8
0
  6
CONTINUOUS
 62
               7
100
AcDbCircle
 10
6.0
 20
-8.0
 30
0.0
 40
1.2000000000000028
  0
LINE
  5
316
100
AcDbEntity
  8
0
  6
CENTER
 62
               2
100
AcDbLine
 10
9.5
 20
8.0
 30
0.0
 11
2.5
 21
8.0
 31
0.0
  0
CIRCLE
  5
317
100
AcDbEntity
  8
0
  6
CONTINUOUS
 62
               2
100
AcDbCircle
 10
6.0
 20
8.0
 30
0.0
 40
1.5
  0
CIRCLE
  5
318
100
AcDbEntity
  8
0
  6
CONTINUOUS
 62
               7
100
AcDbCircle
 10
6.0
 20
8.0
 30
0.0
 40
1.2000000000000028
  0
LINE
  5
319
100
AcDbEntity
  8
0
  6
CENTER
 62
               2
100
AcDbLine
 10
2.0
 20
15.0
 30
0.0
 11
10.0
 21
15.0
 31
0.0
  0
ARC
  5
31A
100
AcDbEntity
  8
0
  6
CONTINUOUS
 62
               7
100
AcDbCircle
 10
12.275000000000006
 20
2.6000000000000227
 30
0.0
 40
2.0750000000000011
100
AcDbArc
 50
232.08746409492679
 51
269.99999999999937
  0
ARC
  5
31B
100
AcDbEntity
  8
0
  6
CONTINUOUS
 62
               7
100
AcDbCircle
 10
12.275000000000006
 20
-2.6000000000000227
 30
0.0
 40
2.0750000000000011
100
AcDbArc
 50
89.999999999999815
 51
127.91253590507239
  0
CIRCLE
  5
31C
100
AcDbEntity
  8
0
  6
CONTINUOUS
 62
               7
100
AcDbCircle
 10
6.0
 20
0.0
 30
0.0
 40
3.6999999999999993
  0
CIRCLE
  5
31D
100
AcDbEntity
  8
0
  6
CONTINUOUS
 62
               7
100
AcDbCircle
 10
6.0
 20
0.0
 30
0.0
 40
1.5
  0
CIRCLE
  5
31E
100
AcDbEntity
  8
0
  6
CONTINUOUS
 62
               2
100
AcDbCircle
 10
6.0
 20
0.0
 30
0.0
 40
1.3250000000000028
  0
ENDBLK
  5
31F
100
AcDbEntity
  8
0
100
AcDbBlockEnd
  0
BLOCK
  5
320
100
AcDbEntity
  8
0
100
AcDbBlockBegin
  2
SGDAP6-9
 70
               0
 10
0.0
 20
0.0
 30
0.0
  3
SGDAP6-9
  1

  0
LINE
  5
321
100
AcDbEntity
  8
0
  6
CONTINUOUS
 62
               4
100
AcDbLine
 10
-15.939999999999998
 20
-8.5
 30
0.0
 11
-15.939999999999998
 21
-7.5
 31
0.0
  0
LINE
  5
322
100
AcDbEntity
  8
0
  6
CONTINUOUS
 62
               4
100
AcDbLine
 10
-16.54000000000002
 20
-5.5
 30
0.0
 11
-16.54000000000002
 21
-7.5
 31
0.0
  0
LINE
  5
323
100
AcDbEntity
  8
0
  6
CONTINUOUS
 62
               4
100
AcDbLine
 10
-16.740000000000009
 20
-7.5
 30
0.0
 11
-16.740000000000009
 21
-5.6999999999999886
 31
0.0
  0
LINE
  5
324
100
AcDbEntity
  8
0
  6
CONTINUOUS
 62
               4
100
AcDbLine
 10
-15.939999999999998
 20
-7.5
 30
0.0
 11
-16.740000000000009
 21
-7.5
 31
0.0
  0
LINE
  5
325
100
AcDbEntity
  8
0
  6
CONTINUOUS
 62
               4
100
AcDbLine
 10
-16.740000000000009
 20
-5.6999999999999886
 30
0.0
 11
-16.54000000000002
 21
-5.5
 31
0.0
  0
LINE
  5
326
100
AcDbEntity
  8
0
  6
CONTINUOUS
 62
               4
100
AcDbLine
 10
-15.939999999999998
 20
-8.5
 30
0.0
 11
-16.740000000000009
 21
-8.5
 31
0.0
  0
LINE
  5
327
100
AcDbEntity
  8
0
  6
CONTINUOUS
 62
               4
100
AcDbLine
 10
-16.740000000000009
 20
-10.300000000000011
 30
0.0
 11
-16.740000000000009
 21
-8.5
 31
0.0
  0
LINE
  5
328
100
AcDbEntity
  8
0
  6
CONTINUOUS
 62
               4
100
AcDbLine
 10
-16.54000000000002
 20
-8.5
 30
0.0
 11
-16.54000000000002
 21
-10.5
 31
0.0
  0
LINE
  5
329
100
AcDbEntity
  8
0
  6
CONTINUOUS
 62
               4
100
AcDbLine
 10
-16.54000000000002
 20
-10.5
 30
0.0
 11
-16.740000000000009
 21
-10.300000000000011
 31
0.0
  0
LINE
  5
32A
100
AcDbEntity
  8
0
  6
CONTINUOUS
 62
               4
100
AcDbLine
 10
-15.639999999999986
 20
-10.5
 30
0.0
 11
-15.639999999999986
 21
-5.5
 31
0.0
  0
LINE
  5
32B
100
AcDbEntity
  8
0
  6
CONTINUOUS
 62
               4
100
AcDbLine
 10
-16.54000000000002
 20
-5.5
 30
0.0
 11
-15.0
 21
-5.5
 31
0.0
  0
LINE
  5
32C
100
AcDbEntity
  8
0
  6
CONTINUOUS
 62
               4
100
AcDbLine
 10
-16.54000000000002
 20
-10.5
 30
0.0
 11
-15.0
 21
-10.5
 31
0.0
  0
LINE
  5
32D
100
AcDbEntity
  8
0
  6
CENTER
 62
               2
100
AcDbLine
 10
-18.740000000000009
 20
-8.0
 30
0.0
 11
-13.0
 21
-8.0
 31
0.0
  0
LINE
  5
32E
100
AcDbEntity
  8
0
  6
CONTINUOUS
 62
               7
100
AcDbLine
 10
-5.1339745962155803
 20
-10.5
 30
0.0
 11
-6.8660254037844197
 21
-10.5
 31
0.0
  0
LINE
  5
32F
100
AcDbEntity
  8
0
  6
CONTINUOUS
 62
               7
100
AcDbLine
 10
-6.8660254037844197
 20
-10.5
 30
0.0
 11
-7.7320508075688963
 21
-9.0
 31
0.0
  0
LINE
  5
330
100
AcDbEntity
  8
0
  6
CONTINUOUS
 62
               7
100
AcDbLine
 10
-7.7320508075688963
 20
-9.0
 30
0.0
 11
-6.8660254037844197
 21
-7.5
 31
0.0
  0
LINE
  5
331
100
AcDbEntity
  8
0
  6
CONTINUOUS
 62
               7
100
AcDbLine
 10
-6.8660254037844197
 20
-7.5
 30
0.0
 11
-5.1339745962155803
 21
-7.5
 31
0.0
  0
LINE
  5
332
100
AcDbEntity
  8
0
  6
CONTINUOUS
 62
               7
100
AcDbLine
 10
-5.1339745962155803
 20
-7.5
 30
0.0
 11
-4.2679491924311321
 21
-9.0
 31
0.0
  0
LINE
  5
333
100
AcDbEntity
  8
0
  6
CONTINUOUS
 62
               7
100
AcDbLine
 10
-4.2679491924311321
 20
-9.0
 30
0.0
 11
-5.1339745962155803
 21
-10.5
 31
0.0
  0
LINE
  5
334
100
AcDbEntity
  8
0
  6
CENTER
 62
               2
100
AcDbLine
 10
-0.5
 20
-9.0
 30
0.0
 11
-11.5
 21
-9.0
 31
0.0
  0
CIRCLE
  5
335
100
AcDbEntity
  8
0
  6
CONTINUOUS
 62
               7
100
AcDbCircle
 10
-6.0
 20
-9.0
 30
0.0
 40
2.9803847577293396
  0
CIRCLE
  5
336
100
AcDbEntity
  8
0
  6
CONTINUOUS
 62
               7
100
AcDbCircle
 10
-6.0
 20
-9.0
 30
0.0
 40
3.5
  0
LINE
  5
337
100
AcDbEntity
  8
0
  6
CENTER
 62
               2
100
AcDbLine
 10
-0.5
 20
9.0
 30
0.0
 11
-11.5
 21
9.0
 31
0.0
  0
LINE
  5
338
100
AcDbEntity
  8
0
  6
CONTINUOUS
 62
               7
100
AcDbLine
 10
-4.2679491924311321
 20
9.0
 30
0.0
 11
-5.1339745962155803
 21
10.5
 31
0.0
  0
LINE
  5
339
100
AcDbEntity
  8
0
  6
CONTINUOUS
 62
               7
100
AcDbLine
 10
-5.1339745962155803
 20
7.5
 30
0.0
 11
-4.2679491924311321
 21
9.0
 31
0.0
  0
LINE
  5
33A
100
AcDbEntity
  8
0
  6
CONTINUOUS
 62
               7
100
AcDbLine
 10
-6.8660254037844197
 20
7.5
 30
0.0
 11
-5.1339745962155803
 21
7.5
 31
0.0
  0
LINE
  5
33B
100
AcDbEntity
  8
0
  6
CONTINUOUS
 62
               7
100
AcDbLine
 10
-7.7320508075688963
 20
9.0
 30
0.0
 11
-6.8660254037844197
 21
7.5
 31
0.0
  0
LINE
  5
33C
100
AcDbEntity
  8
0
  6
CONTINUOUS
 62
               7
100
AcDbLine
 10
-6.8660254037844197
 20
10.5
 30
0.0
 11
-7.7320508075688963
 21
9.0
 31
0.0
  0
LINE
  5
33D
100
AcDbEntity
  8
0
  6
CONTINUOUS
 62
               7
100
AcDbLine
 10
-5.1339745962155803
 20
10.5
 30
0.0
 11
-6.8660254037844197
 21
10.5
 31
0.0
  0
CIRCLE
  5
33E
100
AcDbEntity
  8
0
  6
CONTINUOUS
 62
               7
100
AcDbCircle
 10
-6.0
 20
9.0
 30
0.0
 40
2.9803847577293396
  0
CIRCLE
  5
33F
100
AcDbEntity
  8
0
  6
CONTINUOUS
 62
               7
100
AcDbCircle
 10
-6.0
 20
9.0
 30
0.0
 40
3.5
  0
CIRCLE
  5
340
100
AcDbEntity
  8
0
  6
CONTINUOUS
 62
               2
100
AcDbCircle
 10
-6.0
 20
0.0
 30
0.0
 40
1.2294999999999945
  0
CIRCLE
  5
341
100
AcDbEntity
  8
0
  6
CONTINUOUS
 62
               7
100
AcDbCircle
 10
-6.0
 20
0.0
 30
0.0
 40
1.4999999999999929
  0
LINE
  5
342
100
AcDbEntity
  8
0
  6
CONTINUOUS
 62
               7
100
AcDbLine
 10
-10.0
 20
1.0717967697244717
 30
0.0
 11
-10.0
 21
14.0
 31
0.0
  0
LINE
  5
343
100
AcDbEntity
  8
0
  6
CONTINUOUS
 62
               7
100
AcDbLine
 10
-2.0
 20
1.0717967697244717
 30
0.0
 11
-2.0
 21
14.0
 31
0.0
  0
LINE
  5
344
100
AcDbEntity
  8
0
  6
CONTINUOUS
 62
               7
100
AcDbLine
 10
-10.0
 20
-14.0
 30
0.0
 11
-10.0
 21
-1.0717967697245285
 31
0.0
  0
LINE
  5
345
100
AcDbEntity
  8
0
  6
CONTINUOUS
 62
               7
100
AcDbLine
 10
-2.0
 20
-14.0
 30
0.0
 11
-2.0
 21
-1.0717967697244717
 31
0.0
  0
LINE
  5
346
100
AcDbEntity
  8
0
  6
CONTINUOUS
 62
               7
100
AcDbLine
 10
-10.0
 20
-14.0
 30
0.0
 11
-2.0
 21
-14.0
 31
0.0
  0
LINE
  5
347
100
AcDbEntity
  8
0
  6
CONTINUOUS
 62
               7
100
AcDbLine
 10
-10.0
 20
14.0
 30
0.0
 11
-2.0
 21
14.0
 31
0.0
  0
CIRCLE
  5
348
100
AcDbEntity
  8
0
  6
CONTINUOUS
 62
               7
100
AcDbCircle
 10
-6.0
 20
0.0
 30
0.0
 40
2.75
  0
CIRCLE
  5
349
100
AcDbEntity
  8
0
  6
CONTINUOUS
 62
               7
100
AcDbCircle
 10
-6.0
 20
0.0
 30
0.0
 40
4.0
  0
LINE
  5
34A
100
AcDbEntity
  8
0
  6
CONTINUOUS
 62
               7
100
AcDbLine
 10
-7.5877132402714551
 20
2.75
 30
0.0
 11
-9.1754264805429386
 21
0.0
 31
0.0
  0
LINE
  5
34B
100
AcDbEntity
  8
0
  6
CONTINUOUS
 62
               7
100
AcDbLine
 10
-4.4122867597285165
 20
2.75
 30
0.0
 11
-7.5877132402714551
 21
2.75
 31
0.0
  0
LINE
  5
34C
100
AcDbEntity
  8
0
  6
CONTINUOUS
 62
               7
100
AcDbLine
 10
-2.8245735194570614
 20
0.0
 30
0.0
 11
-4.4122867597285165
 21
2.75
 31
0.0
  0
LINE
  5
34D
100
AcDbEntity
  8
0
  6
CONTINUOUS
 62
               7
100
AcDbLine
 10
-4.4122867597285449
 20
-2.75
 30
0.0
 11
-2.8245735194570614
 21
0.0
 31
0.0
  0
LINE
  5
34E
100
AcDbEntity
  8
0
  6
CONTINUOUS
 62
               7
100
AcDbLine
 10
-7.5877132402714551
 20
-2.75
 30
0.0
 11
-4.4122867597285449
 21
-2.75
 31
0.0
  0
LINE
  5
34F
100
AcDbEntity
  8
0
  6
CONTINUOUS
 62
               7
100
AcDbLine
 10
-9.1754264805429386
 20
0.0
 30
0.0
 11
-7.5877132402714551
 21
-2.75
 31
0.0
  0
LINE
  5
350
100
AcDbEntity
  8
0
  6
CONTINUOUS
 62
               7
100
AcDbLine
 10
-8.3094010767584905
 20
4.0
 30
0.0
 11
-10.618802153517009
 21
0.0
 31
0.0
  0
LINE
  5
351
100
AcDbEntity
  8
0
  6
CONTINUOUS
 62
               7
100
AcDbLine
 10
-3.6905989232415095
 20
4.0
 30
0.0
 11
-8.3094010767584905
 21
4.0
 31
0.0
  0
LINE
  5
352
100
AcDbEntity
  8
0
  6
CONTINUOUS
 62
               7
100
AcDbLine
 10
-1.3811978464829906
 20
0.0
 30
0.0
 11
-3.6905989232415095
 21
4.0
 31
0.0
  0
LINE
  5
353
100
AcDbEntity
  8
0
  6
CONTINUOUS
 62
               7
100
AcDbLine
 10
-3.6905989232415095
 20
-4.0
 30
0.0
 11
-1.3811978464829906
 21
0.0
 31
0.0
  0
LINE
  5
354
100
AcDbEntity
  8
0
  6
CONTINUOUS
 62
               7
100
AcDbLine
 10
-8.3094010767584905
 20
-4.0
 30
0.0
 11
-3.6905989232415095
 21
-4.0
 31
0.0
  0
LINE
  5
355
100
AcDbEntity
  8
0
  6
CONTINUOUS
 62
               7
100
AcDbLine
 10
-10.618802153517009
 20
0.0
 30
0.0
 11
-8.3094010767584905
 21
-4.0
 31
0.0
  0
LINE
  5
356
100
AcDbEntity
  8
0
  6
CONTINUOUS
 62
               7
100
AcDbLine
 10
-11.0
 20
-0.9629294456254911
 30
0.0
 11
-11.0
 21
-4.2370705543744975
 31
0.0
  0
LINE
  5
357
100
AcDbEntity
  8
0
  6
CONTINUOUS
 62
               7
100
AcDbLine
 10
-11.0
 20
4.2370705543744975
 30
0.0
 11
-11.0
 21
0.9629294456254911
 31
0.0
  0
LINE
  5
358
100
AcDbEntity
  8
0
  6
CENTER
 62
               2
100
AcDbLine
 10
-6.0
 20
-23.0
 30
0.0
 11
-6.0
 21
23.0
 31
0.0
  0
LINE
  5
359
100
AcDbEntity
  8
0
  6
CENTER
 62
               2
100
AcDbLine
 10
2.0
 20
0.0
 30
0.0
 11
-17.0
 21
0.0
 31
0.0
  0
LINE
  5
35A
100
AcDbEntity
  8
0
  6
CONTINUOUS
 62
               7
100
AcDbLine
 10
0.0
 20
-20.699999999999989
 30
0.0
 11
-0.3000000000000114
 21
-21.0
 31
0.0
  0
LINE
  5
35B
100
AcDbEntity
  8
0
  6
CONTINUOUS
 62
               7
100
AcDbLine
 10
0.0
 20
-18.5
 30
0.0
 11
-0.3000000000000114
 21
-18.199999999999989
 31
0.0
  0
LINE
  5
35C
100
AcDbEntity
  8
0
  6
CONTINUOUS
 62
               7
100
AcDbLine
 10
0.0
 20
-20.699999999999989
 30
0.0
 11
0.0
 21
-18.5
 31
0.0
  0
LINE
  5
35D
100
AcDbEntity
  8
0
  6
CONTINUOUS
 62
               7
100
AcDbLine
 10
-0.3000000000000114
 20
21.0
 30
0.0
 11
0.0
 21
20.700000000000045
 31
0.0
  0
LINE
  5
35E
100
AcDbEntity
  8
0
  6
CONTINUOUS
 62
               7
100
AcDbLine
 10
0.0
 20
20.700000000000045
 30
0.0
 11
0.0
 21
18.5
 31
0.0
  0
LINE
  5
35F
100
AcDbEntity
  8
0
  6
CONTINUOUS
 62
               7
100
AcDbLine
 10
0.0
 20
18.5
 30
0.0
 11
-0.3000000000000114
 21
18.199999999999989
 31
0.0
  0
LINE
  5
360
100
AcDbEntity
  8
0
  6
CONTINUOUS
 62
               7
100
AcDbLine
 10
0.0
 20
-11.5
 30
0.0
 11
-0.3000000000000114
 21
-11.800000000000011
 31
0.0
  0
LINE
  5
361
100
AcDbEntity
  8
0
  6
CONTINUOUS
 62
               7
100
AcDbLine
 10
0.0
 20
-4.5
 30
0.0
 11
-0.3000000000000114
 21
-4.1999999999999886
 31
0.0
  0
LINE
  5
362
100
AcDbEntity
  8
0
  6
CENTER
 62
               2
100
AcDbLine
 10
-1.4000000000000057
 20
-15.0
 30
0.0
 11
-10.599999999999994
 21
-15.0
 31
0.0
  0
LINE
  5
363
100
AcDbEntity
  8
0
  6
CONTINUOUS
 62
               7
100
AcDbLine
 10
-12.275000000000006
 20
0.5249999999999773
 30
0.0
 11
-13.900000000000006
 21
0.5249999999999773
 31
0.0
  0
LINE
  5
364
100
AcDbEntity
  8
0
  6
CONTINUOUS
 62
               7
100
AcDbLine
 10
-12.275000000000006
 20
4.6750000000000114
 30
0.0
 11
-13.899999988079088
 21
4.6750000000000114
 31
0.0
  0
LINE
  5
365
100
AcDbEntity
  8
0
  6
CONTINUOUS
 62
               7
100
AcDbLine
 10
-14.900000000000006
 20
-0.6999999999999886
 30
0.0
 11
-14.900000000000006
 21
0.6999999999999886
 31
0.0
  0
ARC
  5
366
100
AcDbEntity
  8
0
  6
CONTINUOUS
 62
               7
100
AcDbCircle
 10
-12.275000000000006
 20
2.6000000000000227
 30
0.0
 40
2.0750000000000011
100
AcDbArc
 50
270.00000000000023
 51
89.999999999999801
  0
LINE
  5
367
100
AcDbEntity
  8
0
  6
CONTINUOUS
 62
               7
100
AcDbLine
 10
-14.375
 20
1.0
 30
0.0
 11
-14.599999999999994
 21
1.0
 31
0.0
  0
LINE
  5
368
100
AcDbEntity
  8
0
  6
CONTINUOUS
 62
               7
100
AcDbLine
 10
-14.374999928474438
 20
4.1999999999999886
 30
0.0
 11
-14.69999999999996
 21
4.1999999999999886
 31
0.0
  0
LINE
  5
369
100
AcDbEntity
  8
0
  6
CONTINUOUS
 62
               7
100
AcDbLine
 10
-14.375000059604645
 20
4.1999998688697815
 30
0.0
 11
-13.900000035762787
 21
4.6749999523162842
 31
0.0
  0
LINE
  5
36A
100
AcDbEntity
  8
0
  6
CONTINUOUS
 62
               7
100
AcDbLine
 10
-13.900000000000006
 20
0.5249999999999773
 30
0.0
 11
-14.375
 21
1.0
 31
0.0
  0
ARC
  5
36B
100
AcDbEntity
  8
0
  6
CONTINUOUS
 62
               7
100
AcDbCircle
 10
-14.599999999999994
 20
0.6999999999999886
 30
0.0
 40
0.3
100
AcDbArc
 50
89.999999999999815
 51
179.99999999999963
  0
LINE
  5
36C
100
AcDbEntity
  8
0
  6
CONTINUOUS
 62
               7
100
AcDbLine
 10
-15.0
 20
-4.5
 30
0.0
 11
-15.0
 21
-11.5
 31
0.0
  0
LINE
  5
36D
100
AcDbEntity
  8
0
  6
CONTINUOUS
 62
               7
100
AcDbLine
 10
-15.0
 20
4.5
 30
0.0
 11
-14.69999999999996
 21
4.1999999999999886
 31
0.0
  0
ARC
  5
36E
100
AcDbEntity
  8
0
  6
CONTINUOUS
 62
               7
100
AcDbCircle
 10
-12.275000000000006
 20
-2.6000000000000227
 30
0.0
 40
2.0750000000000011
100
AcDbArc
 50
269.99999999999937
 51
89.999999999999801
  0
LINE
  5
36F
100
AcDbEntity
  8
0
  6
CONTINUOUS
 62
               7
100
AcDbLine
 10
-15.0
 20
-4.5
 30
0.0
 11
-14.69999999999996
 21
-4.1999999999999886
 31
0.0
  0
ARC
  5
370
100
AcDbEntity
  8
0
  6
CONTINUOUS
 62
               7
100
AcDbCircle
 10
-14.599999999999994
 20
-0.6999999999999886
 30
0.0
 40
0.3
100
AcDbArc
 50
179.99999999999963
 51
269.99999999999937
  0
LINE
  5
371
100
AcDbEntity
  8
0
  6
CONTINUOUS
 62
               7
100
AcDbLine
 10
-13.900000000000006
 20
-0.5249999999999773
 30
0.0
 11
-14.375
 21
-1.0
 31
0.0
  0
LINE
  5
372
100
AcDbEntity
  8
0
  6
CONTINUOUS
 62
               7
100
AcDbLine
 10
-14.375000059604645
 20
-4.1999998688697815
 30
0.0
 11
-13.900000035762787
 21
-4.6749999523162842
 31
0.0
  0
LINE
  5
373
100
AcDbEntity
  8
0
  6
CONTINUOUS
 62
               7
100
AcDbLine
 10
-14.374999928474438
 20
-4.1999999999999886
 30
0.0
 11
-14.69999999999996
 21
-4.1999999999999886
 31
0.0
  0
LINE
  5
374
100
AcDbEntity
  8
0
  6
CONTINUOUS
 62
               7
100
AcDbLine
 10
-14.375
 20
-1.0
 30
0.0
 11
-14.599999999999994
 21
-1.0
 31
0.0
  0
LINE
  5
375
100
AcDbEntity
  8
0
  6
CONTINUOUS
 62
               7
100
AcDbLine
 10
-12.275000000000006
 20
-4.6750000000000114
 30
0.0
 11
-13.899999988079088
 21
-4.6750000000000114
 31
0.0
  0
LINE
  5
376
100
AcDbEntity
  8
0
  6
CONTINUOUS
 62
               7
100
AcDbLine
 10
-12.275000000000006
 20
-0.5249999999999773
 30
0.0
 11
-13.900000000000006
 21
-0.5249999999999773
 31
0.0
  0
LINE
  5
377
100
AcDbEntity
  8
0
  6
CONTINUOUS
 62
               7
100
AcDbLine
 10
0.0
 20
4.5
 30
0.0
 11
0.0
 21
11.5
 31
0.0
  0
LINE
  5
378
100
AcDbEntity
  8
0
  6
CENTER
 62
               2
100
AcDbLine
 10
-1.4000000000000057
 20
15.0
 30
0.0
 11
-10.599999999999994
 21
15.0
 31
0.0
  0
LINE
  5
379
100
AcDbEntity
  8
0
  6
CONTINUOUS
 62
               7
100
AcDbLine
 10
-0.3000000000000114
 20
11.800000000000011
 30
0.0
 11
-0.3000000000000398
 21
18.199999999999989
 31
0.0
  0
LINE
  5
37A
100
AcDbEntity
  8
0
  6
CONTINUOUS
 62
               7
100
AcDbLine
 10
0.0
 20
11.5
 30
0.0
 11
-0.3000000000000114
 21
11.800000000000011
 31
0.0
  0
LINE
  5
37B
100
AcDbEntity
  8
0
  6
CONTINUOUS
 62
               7
100
AcDbLine
 10
-0.3000000000000114
 20
4.1999999999999886
 30
0.0
 11
-0.3000000000000114
 21
-4.1999999999999886
 31
0.0
  0
LINE
  5
37C
100
AcDbEntity
  8
0
  6
CONTINUOUS
 62
               7
100
AcDbLine
 10
0.0
 20
4.5
 30
0.0
 11
-0.3000000000000114
 21
4.1999999999999886
 31
0.0
  0
LINE
  5
37D
100
AcDbEntity
  8
0
  6
CONTINUOUS
 62
               7
100
AcDbLine
 10
-14.5
 20
-21.0
 30
0.0
 11
-0.3000000000000114
 21
-21.0
 31
0.0
  0
LINE
  5
37E
100
AcDbEntity
  8
0
  6
CONTINUOUS
 62
               7
100
AcDbLine
 10
0.0
 20
-4.5
 30
0.0
 11
0.0
 21
-11.5
 31
0.0
  0
LINE
  5
37F
100
AcDbEntity
  8
0
  6
CONTINUOUS
 62
               7
100
AcDbLine
 10
-0.3000000000000114
 20
-11.800000000000011
 30
0.0
 11
-0.3000000000000398
 21
-18.199999999999989
 31
0.0
  0
LINE
  5
380
100
AcDbEntity
  8
0
  6
CONTINUOUS
 62
               7
100
AcDbLine
 10
-15.0
 20
-11.5
 30
0.0
 11
-12.150480965877875
 21
-13.145170600913389
 31
0.0
  0
LINE
  5
381
100
AcDbEntity
  8
0
  6
CONTINUOUS
 62
               7
100
AcDbLine
 10
-14.5
 20
-21.0
 30
0.0
 11
-15.0
 21
-20.5
 31
0.0
  0
LINE
  5
382
100
AcDbEntity
  8
0
  6
CONTINUOUS
 62
               7
100
AcDbLine
 10
-12.150480965877875
 20
-13.145170600913389
 30
0.0
 11
-15.000000059604645
 21
-18.080682396888733
 31
0.0
  0
LINE
  5
383
100
AcDbEntity
  8
0
  6
CONTINUOUS
 62
               7
100
AcDbLine
 10
-15.0
 20
-18.080682293650455
 30
0.0
 11
-15.0
 21
-20.5
 31
0.0
  0
LINE
  5
384
100
AcDbEntity
  8
0
  6
CONTINUOUS
 62
               7
100
AcDbLine
 10
-15.0
 20
4.5
 30
0.0
 11
-15.0
 21
11.5
 31
0.0
  0
LINE
  5
385
100
AcDbEntity
  8
0
  6
CONTINUOUS
 62
               7
100
AcDbLine
 10
-14.5
 20
21.0
 30
0.0
 11
-15.0
 21
20.5
 31
0.0
  0
LINE
  5
386
100
AcDbEntity
  8
0
  6
CONTINUOUS
 62
               7
100
AcDbLine
 10
-12.150480965877875
 20
13.145170600913389
 30
0.0
 11
-15.000000059604645
 21
18.080682396888733
 31
0.0
  0
LINE
  5
387
100
AcDbEntity
  8
0
  6
CONTINUOUS
 62
               7
100
AcDbLine
 10
-15.0
 20
18.080682293650455
 30
0.0
 11
-15.0
 21
20.5
 31
0.0
  0
LINE
  5
388
100
AcDbEntity
  8
0
  6
CONTINUOUS
 62
               7
100
AcDbLine
 10
-14.5
 20
21.0
 30
0.0
 11
-0.3000000000000114
 21
21.0
 31
0.0
  0
LINE
  5
389
100
AcDbEntity
  8
0
  6
CONTINUOUS
 62
               7
100
AcDbLine
 10
-15.0
 20
11.5
 30
0.0
 11
-12.150480965877875
 21
13.145170600913389
 31
0.0
  0
ARC
  5
38A
100
AcDbEntity
  8
0
  6
CONTINUOUS
 62
               7
100
AcDbCircle
 10
-6.0
 20
15.0
 30
0.0
 40
2.6000000000000014
100
AcDbArc
 50
337.38013505195886
 51
202.61986494803998
  0
ARC
  5
38B
100
AcDbEntity
  8
0
  6
CONTINUOUS
 62
               7
100
AcDbCircle
 10
-6.0
 20
-15.0
 30
0.0
 40
2.6000000000000014
100
AcDbArc
 50
157.38013505195926
 51
22.619864948040341
  0
ARC
  5
38C
100
AcDbEntity
  8
0
  6
CONTINUOUS
 62
               7
100
AcDbCircle
 10
-6.0
 20
15.0
 30
0.0
 40
1.9999999999999964
100
AcDbArc
 50
329.99999999999909
 51
209.99999999999966
  0
ARC
  5
38D
100
AcDbEntity
  8
0
  6
CONTINUOUS
 62
               7
100
AcDbCircle
 10
-6.0
 20
-15.0
 30
0.0
 40
2.0
100
AcDbArc
 50
149.99999999999972
 51
29.999999999999915
  0
ENDBLK
  5
38E
100
AcDbEntity
  8
0
100
AcDbBlockEnd
  0
BLOCK
  5
38F
100
AcDbEntity
  8
0
100
AcDbBlockBegin
  2
SGDAP6-10
 70
               0
 10
0.0
 20
0.0
 30
0.0
  3
SGDAP6-10
  1

  0
LINE
  5
390
100
AcDbEntity
  8
0
  6
PHANTOM
 62
               3
100
AcDbLine
 10
67.0
 20
-35.033010160501618
 30
0.0
 11
67.0
 21
18.723977853865307
 31
0.0
  0
LINE
  5
391
100
AcDbEntity
  8
0
  6
PHANTOM
 62
               3
100
AcDbLine
 10
33.775255113840103
 20
-35.033010160501632
 30
0.0
 11
33.775255113840103
 21
26.723977853865307
 31
0.0
  0
LINE
  5
392
100
AcDbEntity
  8
0
  6
CONTINUOUS
 62
               4
100
AcDbLine
 10
12.5
 20
-15.639999999999986
 30
0.0
 11
17.5
 21
-15.639999999999986
 31
0.0
  0
LINE
  5
393
100
AcDbEntity
  8
0
  6
CONTINUOUS
 62
               4
100
AcDbLine
 10
12.5
 20
-16.54000000000002
 30
0.0
 11
12.699999999999989
 21
-16.740000000000009
 31
0.0
  0
LINE
  5
394
100
AcDbEntity
  8
0
  6
CONTINUOUS
 62
               4
100
AcDbLine
 10
17.300000000000011
 20
-16.740000000000009
 30
0.0
 11
17.5
 21
-16.54000000000002
 31
0.0
  0
LINE
  5
395
100
AcDbEntity
  8
0
  6
CONTINUOUS
 62
               4
100
AcDbLine
 10
12.699999999999989
 20
-16.740000000000009
 30
0.0
 11
17.300000000000011
 21
-16.740000000000009
 31
0.0
  0
LINE
  5
396
100
AcDbEntity
  8
0
  6
CONTINUOUS
 62
               4
100
AcDbLine
 10
17.5
 20
-16.54000000000002
 30
0.0
 11
12.5
 21
-16.54000000000002
 31
0.0
  0
LINE
  5
397
100
AcDbEntity
  8
0
  6
CONTINUOUS
 62
               4
100
AcDbLine
 10
12.5
 20
-16.54000000000002
 30
0.0
 11
12.5
 21
-15.0
 31
0.0
  0
LINE
  5
398
100
AcDbEntity
  8
0
  6
CONTINUOUS
 62
               4
100
AcDbLine
 10
17.5
 20
-16.54000000000002
 30
0.0
 11
17.5
 21
-15.0
 31
0.0
  0
LINE
  5
399
100
AcDbEntity
  8
0
  6
CENTER
 62
               2
100
AcDbLine
 10
15.0
 20
-18.740000000000009
 30
0.0
 11
15.0
 21
-13.0
 31
0.0
  0
LINE
  5
39A
100
AcDbEntity
  8
0
  6
CONTINUOUS
 62
               4
100
AcDbLine
 10
43.5
 20
-15.639999999999986
 30
0.0
 11
48.5
 21
-15.639999999999986
 31
0.0
  0
LINE
  5
39B
100
AcDbEntity
  8
0
  6
CONTINUOUS
 62
               4
100
AcDbLine
 10
43.5
 20
-16.54000000000002
 30
0.0
 11
43.699999999999989
 21
-16.740000000000009
 31
0.0
  0
LINE
  5
39C
100
AcDbEntity
  8
0
  6
CONTINUOUS
 62
               4
100
AcDbLine
 10
48.300000000000011
 20
-16.740000000000009
 30
0.0
 11
48.5
 21
-16.54000000000002
 31
0.0
  0
LINE
  5
39D
100
AcDbEntity
  8
0
  6
CONTINUOUS
 62
               4
100
AcDbLine
 10
43.699999999999989
 20
-16.740000000000009
 30
0.0
 11
48.300000000000011
 21
-16.740000000000009
 31
0.0
  0
LINE
  5
39E
100
AcDbEntity
  8
0
  6
CONTINUOUS
 62
               4
100
AcDbLine
 10
48.5
 20
-16.54000000000002
 30
0.0
 11
43.5
 21
-16.54000000000002
 31
0.0
  0
LINE
  5
39F
100
AcDbEntity
  8
0
  6
CONTINUOUS
 62
               4
100
AcDbLine
 10
43.5
 20
-16.54000000000002
 30
0.0
 11
43.5
 21
-15.0
 31
0.0
  0
LINE
  5
3A0
100
AcDbEntity
  8
0
  6
CONTINUOUS
 62
               4
100
AcDbLine
 10
48.5
 20
-16.54000000000002
 30
0.0
 11
48.5
 21
-15.0
 31
0.0
  0
LINE
  5
3A1
100
AcDbEntity
  8
0
  6
CENTER
 62
               2
100
AcDbLine
 10
46.0
 20
-18.740000000000009
 30
0.0
 11
46.0
 21
-13.0
 31
0.0
  0
LINE
  5
3A2
100
AcDbEntity
  8
0
  6
CENTER
 62
               2
100
AcDbLine
 10
17.0
 20
-7.5
 30
0.0
 11
17.0
 21
-14.5
 31
0.0
  0
CIRCLE
  5
3A4
100
AcDbEntity
  8
0
  6
DASHED
 62
               2
100
AcDbCircle
 10
17.0
 20
-11.0
 30
0.0
 40
1.5
  0
CIRCLE
  5
3A5
100
AcDbEntity
  8
0
  6
DASHED
 62
               7
100
AcDbCircle
 10
17.0
 20
-11.0
 30
0.0
 40
1.25
  0
LINE
  5
3A6
100
AcDbEntity
  8
0
  6
CONTINUOUS
 62
               2
100
AcDbLine
 10
20.5
 20
-11.0
 30
0.0
 11
13.5
 21
-11.0
 31
0.0
  0
LINE
  5
3A7
100
AcDbEntity
  8
0
  6
CENTER
 62
               2
100
AcDbLine
 10
45.0
 20
-7.5
 30
0.0
 11
45.0
 21
-14.5
 31
0.0
  0
CIRCLE
  5
3A8
100
AcDbEntity
  8
0
  6
DASHED
 62
               2
100
AcDbCircle
 10
45.0
 20
-11.0
 30
0.0
 40
1.5
  0
CIRCLE
  5
3A9
100
AcDbEntity
  8
0
  6
DASHED
 62
               7
100
AcDbCircle
 10
45.0
 20
-11.0
 30
0.0
 40
1.25
  0
LINE
  5
3AA
100
AcDbEntity
  8
0
  6
CONTINUOUS
 62
               2
100
AcDbLine
 10
48.5
 20
-11.0
 30
0.0
 11
41.5
 21
-11.0
 31
0.0
  0
LINE
  5
3AB
100
AcDbEntity
  8
0
  6
CONTINUOUS
 62
               7
100
AcDbLine
 10
8.0
 20
-0.3000000000000114
 30
0.0
 11
51.0
 21
-0.3000000000000114
 31
0.0
  0
LINE
  5
3AC
100
AcDbEntity
  8
0
  6
CONTINUOUS
 62
               7
100
AcDbLine
 10
8.0
 20
-14.5
 30
0.0
 11
51.0
 21
-14.5
 31
0.0
  0
LINE
  5
3AD
100
AcDbEntity
  8
0
  6
CONTINUOUS
 62
               7
100
AcDbLine
 10
7.5
 20
-4.0
 30
0.0
 11
7.5
 21
-2.5
 31
0.0
  0
LINE
  5
3AE
100
AcDbEntity
  8
0
  6
CONTINUOUS
 62
               7
100
AcDbLine
 10
7.5
 20
-2.5
 30
0.0
 11
6.0
 21
-2.5
 31
0.0
  0
LINE
  5
3AF
100
AcDbEntity
  8
0
  6
CONTINUOUS
 62
               7
100
AcDbLine
 10
7.5
 20
-9.5
 30
0.0
 11
6.0
 21
-9.5
 31
0.0
  0
LINE
  5
3B0
100
AcDbEntity
  8
0
  6
CONTINUOUS
 62
               7
100
AcDbLine
 10
7.5
 20
-8.0
 30
0.0
 11
7.5
 21
-9.5
 31
0.0
  0
LINE
  5
3B1
100
AcDbEntity
  8
0
  6
CONTINUOUS
 62
               7
100
AcDbLine
 10
7.5
 20
-8.5
 30
0.0
 11
8.0
 21
-8.5
 31
0.0
  0
LINE
  5
3B2
100
AcDbEntity
  8
0
  6
CONTINUOUS
 62
               7
100
AcDbLine
 10
7.5
 20
-3.5
 30
0.0
 11
8.0
 21
-3.5
 31
0.0
  0
LINE
  5
3B3
100
AcDbEntity
  8
0
  6
CONTINUOUS
 62
               7
100
AcDbLine
 10
6.0
 20
-4.0
 30
0.0
 11
8.0
 21
-4.0
 31
0.0
  0
LINE
  5
3B4
100
AcDbEntity
  8
0
  6
CONTINUOUS
 62
               7
100
AcDbLine
 10
6.0
 20
-8.0
 30
0.0
 11
8.0
 21
-8.0
 31
0.0
  0
LINE
  5
3B5
100
AcDbEntity
  8
0
  6
CONTINUOUS
 62
               7
100
AcDbLine
 10
0.0
 20
-1.5
 30
0.0
 11
0.5000000000000568
 21
-1.0
 31
0.0
  0
LINE
  5
3B6
100
AcDbEntity
  8
0
  6
CONTINUOUS
 62
               7
100
AcDbLine
 10
6.0
 20
-1.5
 30
0.0
 11
5.5
 21
-1.0
 31
0.0
  0
LINE
  5
3B7
100
AcDbEntity
  8
0
  6
CONTINUOUS
 62
               7
100
AcDbLine
 10
5.5
 20
-11.0
 30
0.0
 11
6.0
 21
-10.5
 31
0.0
  0
LINE
  5
3B8
100
AcDbEntity
  8
0
  6
CONTINUOUS
 62
               7
100
AcDbLine
 10
0.0
 20
-10.5
 30
0.0
 11
0.5
 21
-11.0
 31
0.0
  0
LINE
  5
3B9
100
AcDbEntity
  8
0
  6
CONTINUOUS
 62
               7
100
AcDbLine
 10
51.0
 20
-15.0
 30
0.0
 11
51.0
 21
0.0
 31
0.0
  0
LINE
  5
3BA
100
AcDbEntity
  8
0
  6
CONTINUOUS
 62
               7
100
AcDbLine
 10
8.0
 20
-15.0
 30
0.0
 11
8.0
 21
0.0
 31
0.0
  0
LINE
  5
3BB
100
AcDbEntity
  8
0
  6
CONTINUOUS
 62
               7
100
AcDbLine
 10
6.0
 20
-10.5
 30
0.0
 11
6.0
 21
-1.5
 31
0.0
  0
LINE
  5
3BC
100
AcDbEntity
  8
0
  6
CONTINUOUS
 62
               7
100
AcDbLine
 10
0.0
 20
-10.5
 30
0.0
 11
0.0
 21
-1.5
 31
0.0
  0
LINE
  5
3BD
100
AcDbEntity
  8
0
  6
CONTINUOUS
 62
               7
100
AcDbLine
 10
0.5
 20
-11.0
 30
0.0
 11
5.5
 21
-11.0
 31
0.0
  0
LINE
  5
3BE
100
AcDbEntity
  8
0
  6
CENTER
 62
               2
100
AcDbLine
 10
92.0
 20
-6.0
 30
0.0
 11
-2.0
 21
-6.0
 31
0.0
  0
LINE
  5
3BF
100
AcDbEntity
  8
0
  6
CONTINUOUS
 62
               7
100
AcDbLine
 10
8.0
 20
-15.0
 30
0.0
 11
51.0
 21
-15.0
 31
0.0
  0
LINE
  5
3C0
100
AcDbEntity
  8
0
  6
CONTINUOUS
 62
               7
100
AcDbLine
 10
51.0
 20
0.0
 30
0.0
 11
8.0
 21
0.0
 31
0.0
  0
LINE
  5
3C1
100
AcDbEntity
  8
0
  6
CONTINUOUS
 62
               7
100
AcDbLine
 10
0.5000000000000568
 20
-1.0
 30
0.0
 11
5.5
 21
-1.0
 31
0.0
  0
LINE
  5
3C2
100
AcDbEntity
  8
0
  6
CONTINUOUS
 62
               7
100
AcDbLine
 10
51.0
 20
-10.0
 30
0.0
 11
55.0
 21
-10.0
 31
0.0
  0
LINE
  5
3C3
100
AcDbEntity
  8
0
  6
CONTINUOUS
 62
               7
100
AcDbLine
 10
51.0
 20
-2.0
 30
0.0
 11
55.0
 21
-2.0
 31
0.0
  0
LINE
  5
3C4
100
AcDbEntity
  8
0
  6
CONTINUOUS
 62
               7
100
AcDbLine
 10
55.0
 20
-10.0
 30
0.0
 11
55.0
 21
-2.0
 31
0.0
  0
LINE
  5
3C5
100
AcDbEntity
  8
0
  6
CONTINUOUS
 62
               7
100
AcDbLine
 10
58.699999999999989
 20
-9.5
 30
0.0
 11
55.0
 21
-9.5
 31
0.0
  0
LINE
  5
3C6
100
AcDbEntity
  8
0
  6
CONTINUOUS
 62
               7
100
AcDbLine
 10
58.699999999999989
 20
-2.5
 30
0.0
 11
55.0
 21
-2.5
 31
0.0
  0
LINE
  5
3C7
100
AcDbEntity
  8
0
  6
CONTINUOUS
 62
               7
100
AcDbLine
 10
58.699999999999989
 20
-9.5
 30
0.0
 11
59.0
 21
-8.9803847577293254
 31
0.0
  0
LINE
  5
3C8
100
AcDbEntity
  8
0
  6
CONTINUOUS
 62
               7
100
AcDbLine
 10
58.699999999999989
 20
-2.5
 30
0.0
 11
59.0
 21
-3.0196152422706746
 31
0.0
  0
LINE
  5
3C9
100
AcDbEntity
  8
0
  6
CONTINUOUS
 62
               7
100
AcDbLine
 10
58.699999999999989
 20
-9.5
 30
0.0
 11
58.699999999999989
 21
-2.5
 31
0.0
  0
LINE
  5
3CA
100
AcDbEntity
  8
0
  6
CONTINUOUS
 62
               7
100
AcDbLine
 10
59.0
 20
-8.9803847577293254
 30
0.0
 11
59.0
 21
-3.0196152422706746
 31
0.0
  0
LINE
  5
3CB
100
AcDbEntity
  8
0
  6
CONTINUOUS
 62
               7
100
AcDbLine
 10
59.0
 20
-7.5
 30
0.0
 11
75.0
 21
-7.5
 31
0.0
  0
LINE
  5
3CC
100
AcDbEntity
  8
0
  6
CONTINUOUS
 62
               7
100
AcDbLine
 10
59.0
 20
-4.5
 30
0.0
 11
75.0
 21
-4.5
 31
0.0
  0
LINE
  5
3CD
100
AcDbEntity
  8
0
  6
CONTINUOUS
 62
               7
100
AcDbLine
 10
88.800000000000011
 20
-7.5
 30
0.0
 11
89.5
 21
-7.5
 31
0.0
  0
LINE
  5
3CE
100
AcDbEntity
  8
0
  6
CONTINUOUS
 62
               7
100
AcDbLine
 10
88.800000000000011
 20
-4.5
 30
0.0
 11
89.5
 21
-4.5
 31
0.0
  0
LINE
  5
3CF
100
AcDbEntity
  8
0
  6
CONTINUOUS
 62
               7
100
AcDbLine
 10
77.0
 20
-3.25
 30
0.0
 11
75.0
 21
-3.25
 31
0.0
  0
LINE
  5
3D0
100
AcDbEntity
  8
0
  6
CONTINUOUS
 62
               7
100
AcDbLine
 10
75.0
 20
-3.25
 30
0.0
 11
75.0
 21
-8.75
 31
0.0
  0
LINE
  5
3D1
100
AcDbEntity
  8
0
  6
CONTINUOUS
 62
               7
100
AcDbLine
 10
77.0
 20
-8.75
 30
0.0
 11
75.0
 21
-8.75
 31
0.0
  0
LINE
  5
3D2
100
AcDbEntity
  8
0
  6
CONTINUOUS
 62
               7
100
AcDbLine
 10
90.0
 20
-7.0
 30
0.0
 11
89.5
 21
-7.4999999999999716
 31
0.0
  0
LINE
  5
3D3
100
AcDbEntity
  8
0
  6
CONTINUOUS
 62
               7
100
AcDbLine
 10
90.0
 20
-5.0
 30
0.0
 11
90.0
 21
-7.0
 31
0.0
  0
LINE
  5
3D4
100
AcDbEntity
  8
0
  6
CONTINUOUS
 62
               7
100
AcDbLine
 10
89.5
 20
-4.5
 30
0.0
 11
89.5
 21
-7.5
 31
0.0
  0
LINE
  5
3D5
100
AcDbEntity
  8
0
  6
CONTINUOUS
 62
               7
100
AcDbLine
 10
90.0
 20
-5.0
 30
0.0
 11
89.5
 21
-4.5
 31
0.0
  0
LINE
  5
3D6
100
AcDbEntity
  8
0
  6
CONTINUOUS
 62
               2
100
AcDbLine
 10
88.800000000000011
 20
-7.2295000000000016
 30
0.0
 11
89.770500000000027
 21
-7.2295000000000016
 31
0.0
  0
LINE
  5
3D7
100
AcDbEntity
  8
0
  6
CONTINUOUS
 62
               2
100
AcDbLine
 10
88.800000000000011
 20
-4.7704999999999984
 30
0.0
 11
89.770500000000027
 21
-4.7704999999999984
 31
0.0
  0
LINE
  5
3D8
100
AcDbEntity
  8
0
  6
CONTINUOUS
 62
               7
100
AcDbLine
 10
77.0
 20
-1.3811978464829906
 30
0.0
 11
77.0
 21
-10.618802153517009
 31
0.0
  0
LINE
  5
3D9
100
AcDbEntity
  8
0
  6
CONTINUOUS
 62
               7
100
AcDbLine
 10
88.800000000000011
 20
-3.25
 30
0.0
 11
88.800000000000011
 21
-8.75
 31
0.0
  0
LINE
  5
3DA
100
AcDbEntity
  8
0
  6
CONTINUOUS
 62
               7
100
AcDbLine
 10
87.0
 20
-2.0
 30
0.0
 11
87.0
 21
-10.0
 31
0.0
  0
LINE
  5
3DB
100
AcDbEntity
  8
0
  6
CONTINUOUS
 62
               7
100
AcDbLine
 10
86.381197846482991
 20
-10.618802153517009
 30
0.0
 11
77.0
 21
-10.618802153517009
 31
0.0
  0
LINE
  5
3DC
100
AcDbEntity
  8
0
  6
CONTINUOUS
 62
               7
100
AcDbLine
 10
86.381197846482991
 20
-8.3094010767584905
 30
0.0
 11
77.0
 21
-8.3094010767584905
 31
0.0
  0
LINE
  5
3DD
100
AcDbEntity
  8
0
  6
CONTINUOUS
 62
               7
100
AcDbLine
 10
88.800000000000011
 20
-8.75
 30
0.0
 11
88.554379906938152
 21
-9.1754264805429386
 31
0.0
  0
LINE
  5
3DE
100
AcDbEntity
  8
0
  6
CONTINUOUS
 62
               7
100
AcDbLine
 10
87.0
 20
-10.0
 30
0.0
 11
86.381197846482991
 21
-10.618802153517009
 31
0.0
  0
ARC
  5
3DF
100
AcDbEntity
  8
0
  6
CONTINUOUS
 62
               7
100
AcDbCircle
 10
85.613248654051887
 20
-9.4641016151377642
 30
0.0
 40
1.3867513459481176
100
AcDbArc
 50
326.37357086402739
 51
56.373570864027627
  0
ARC
  5
3E0
100
AcDbEntity
  8
0
  6
CONTINUOUS
 62
               7
100
AcDbCircle
 10
87.394297488367329
 20
-8.3815698604072111
 30
0.0
 40
1.4057025116326889
100
AcDbArc
 50
325.6157525319573
 51
34.384247468042716
  0
LINE
  5
3E1
100
AcDbEntity
  8
0
  6
CONTINUOUS
 62
               7
100
AcDbLine
 10
86.381197846482991
 20
-1.3811978464829906
 30
0.0
 11
77.0
 21
-1.3811978464829906
 31
0.0
  0
LINE
  5
3E2
100
AcDbEntity
  8
0
  6
CONTINUOUS
 62
               7
100
AcDbLine
 10
86.381197846482991
 20
-3.6905989232415095
 30
0.0
 11
77.0
 21
-3.6905989232415095
 31
0.0
  0
LINE
  5
3E3
100
AcDbEntity
  8
0
  6
CONTINUOUS
 62
               7
100
AcDbLine
 10
87.0
 20
-2.0
 30
0.0
 11
86.381197846482991
 21
-1.3811978464829906
 31
0.0
  0
ARC
  5
3E4
100
AcDbEntity
  8
0
  6
CONTINUOUS
 62
               7
100
AcDbCircle
 10
85.613248654051887
 20
-2.5358983848622358
 30
0.0
 40
1.3867513459481176
100
AcDbArc
 50
303.62642913597159
 51
33.626429135972629
  0
LINE
  5
3E5
100
AcDbEntity
  8
0
  6
CONTINUOUS
 62
               7
100
AcDbLine
 10
88.800000000000011
 20
-3.25
 30
0.0
 11
88.554379906938152
 21
-2.8245735194570614
 31
0.0
  0
ARC
  5
3E6
100
AcDbEntity
  8
0
  6
CONTINUOUS
 62
               7
100
AcDbCircle
 10
87.394297488367329
 20
-3.6184301395927889
 30
0.0
 40
1.4057025116326889
100
AcDbArc
 50
325.6157525319565
 51
34.384247468042716
  0
ARC
  5
3E7
100
AcDbEntity
  8
0
  6
CONTINUOUS
 62
               7
100
AcDbCircle
 10
82.381197846483047
 20
-6.0
 30
0.0
 40
4.6188021535169455
100
AcDbArc
 50
329.9999999999996
 51
30.000000000000423
  0
ARC
  5
3E8
100
AcDbEntity
  8
0
  6
CONTINUOUS
 62
               7
100
AcDbCircle
 10
83.545620093061871
 20
-6.0
 30
0.0
 40
5.2543799069381398
100
AcDbArc
 50
342.41204622600611
 51
17.587953773993831
  0
LINE
  5
3E9
100
AcDbEntity
  8
0
  6
CONTINUOUS
 62
               7
100
AcDbLine
 10
87.245620093061859
 20
-9.1754264805429386
 30
0.0
 11
88.554379906938152
 21
-9.1754264805429386
 31
0.0
  0
LINE
  5
3EA
100
AcDbEntity
  8
0
  6
CONTINUOUS
 62
               7
100
AcDbLine
 10
87.245620093061859
 20
-2.8245735194570614
 30
0.0
 11
88.554379906938152
 21
-2.8245735194570614
 31
0.0
  0
LINE
  5
3EB
100
AcDbEntity
  8
0
  6
CONTINUOUS
 62
               7
100
AcDbLine
 10
87.0
 20
-3.25
 30
0.0
 11
87.245620093061859
 21
-2.8245735194570614
 31
0.0
  0
LINE
  5
3EC
100
AcDbEntity
  8
0
  6
CONTINUOUS
 62
               7
100
AcDbLine
 10
87.0
 20
-8.75
 30
0.0
 11
87.245620093061859
 21
-9.1754264805429386
 31
0.0
  0
LINE
  5
3ED
100
AcDbEntity
  8
0
  6
CONTINUOUS
 62
               7
100
AcDbLine
 10
88.554379906938152
 20
-4.4122867597285165
 30
0.0
 11
87.245620093061859
 21
-4.4122867597285165
 31
0.0
  0
ARC
  5
3EE
100
AcDbEntity
  8
0
  6
CONTINUOUS
 62
               7
100
AcDbCircle
 10
88.40570251163274
 20
-3.6184301395927889
 30
0.0
 40
1.4057025116327224
100
AcDbArc
 50
145.61575253195787
 51
214.38424746804131
  0
ARC
  5
3EF
100
AcDbEntity
  8
0
  6
CONTINUOUS
 62
               7
100
AcDbCircle
 10
88.40570251163274
 20
-8.3815698604072111
 30
0.0
 40
1.4057025116327224
100
AcDbArc
 50
145.61575253195787
 51
214.38424746804131
  0
LINE
  5
3F0
100
AcDbEntity
  8
0
  6
CONTINUOUS
 62
               7
100
AcDbLine
 10
88.554379906938152
 20
-7.5877132402714835
 30
0.0
 11
87.245620093061859
 21
-7.5877132402714835
 31
0.0
  0
ARC
  5
3F1
100
AcDbEntity
  8
0
  6
CONTINUOUS
 62
               7
100
AcDbCircle
 10
92.254379906938254
 20
-6.0
 30
0.0
 40
5.2543799069382384
100
AcDbArc
 50
162.41204622600617
 51
197.58795377399304
  0
ENDBLK
  5
3F2
100
AcDbEntity
  8
0
100
AcDbBlockEnd
  0
BLOCK
  5
431
100
AcDbEntity
  8
0
  6
ByBlock
 62
               0
100
AcDbBlockBegin
  2
_OPEN30
 70
               2
 10
0.0
 20
0.0
 30
0.0
  3
_OPEN30
  1

  0
LINE
  5
432
100
AcDbEntity
  8
0
  6
ByBlock
 62
               0
100
AcDbLine
 10
-1.0
 20
0.267949
 30
0.0
 11
0.0
 21
0.0
 31
0.0
  0
LINE
  5
433
100
AcDbEntity
  8
0
  6
ByBlock
 62
               0
100
AcDbLine
 10
0.0
 20
0.0
 30
0.0
 11
-1.0
 21
-0.267949
 31
0.0
  0
LINE
  5
434
100
AcDbEntity
  8
0
  6
ByBlock
 62
               0
100
AcDbLine
 10
0.0
 20
0.0
 30
0.0
 11
-1.0
 21
0.0
 31
0.0
  0
ENDBLK
  5
435
100
AcDbEntity
  8
0
  6
ByBlock
 62
               0
100
AcDbBlockEnd
  0
ENDSEC
  0
SECTION
  2
ENTITIES
  0
INSERT
  5
3F3
100
AcDbEntity
  8
0
  6
ByBlock
100
AcDbBlockReference
  2
SGDAP6-1
 10
-186.55196787932107
 20
-9.2242584106858203
 30
0.0
  0
INSERT
  5
3F4
100
AcDbEntity
  8
0
  6
ByBlock
100
AcDbBlockReference
  2
SGDAP6-3
 10
-247.55196787932107
 20
-9.2242584106858203
 30
0.0
  0
INSERT
  5
3F5
100
AcDbEntity
  8
0
  6
ByBlock
100
AcDbBlockReference
  2
SGDAP6-4
 10
-43.551967879321069
 20
-9.2242584106858203
 30
0.0
  0
INSERT
  5
3F6
100
AcDbEntity
  8
0
  6
ByBlock
100
AcDbBlockReference
  2
SGDAP6-5
 10
-186.55196787932107
 20
73.325079629807789
 30
0.0
  0
INSERT
  5
3F7
100
AcDbEntity
  8
0
  6
ByBlock
100
AcDbBlockReference
  2
SGDAP6-6
 10
-186.55196787932107
 20
-91.22425841068582
 30
0.0
  0
INSERT
  5
3F8
100
AcDbEntity
  8
0
  6
ByBlock
100
AcDbBlockReference
  2
SGDAP6-7
 10
95.122958878491431
 20
-9.2242584106858203
 30
0.0
  0
INSERT
  5
3F9
100
AcDbEntity
  8
0
  6
ByBlock
100
AcDbBlockReference
  2
SGDAP6-8
 10
34.122958878491431
 20
-9.2242584106858203
 30
0.0
  0
INSERT
  5
3FA
100
AcDbEntity
  8
0
  6
ByBlock
100
AcDbBlockReference
  2
SGDAP6-9
 10
238.12295887849143
 20
-9.2242584106858203
 30
0.0
  0
INSERT
  5
3FB
100
AcDbEntity
  8
0
  6
ByBlock
100
AcDbBlockReference
  2
SGDAP6-10
 10
95.122958878491431
 20
73.325079629807789
 30
0.0
  0
INSERT
  5
3FC
100
AcDbEntity
  8
0
  6
ByBlock
100
AcDbBlockReference
  2
SGDAP6-2
 10
95.122958878491431
 20
-91.22425841068582
 30
0.0
  0
MTEXT
  5
3FD
100
AcDbEntity
  8
0
  6
CONTINUOUS
 62
               7
100
AcDbMText
 10
-268.23529418280572
 20
160.5
 30
0.0
 40
6.3000001907348633
 41
0.0
 71
               4
 72
               1
  1
\W1.109;\A1;MODEL:SGDAP(Q)6*ST(20)
  0
LINE
  5
3FE
100
AcDbEntity
  8
0
  6
CONTINUOUS
 62
               7
100
AcDbLine
 10
-281.25
 20
-195.0
 30
0.0
 11
282.099853515625
 21
-195.0
 31
0.0
  0
LINE
  5
3FF
100
AcDbEntity
  8
0
  6
CONTINUOUS
 62
               7
100
AcDbLine
 10
-281.25
 20
195.5
 30
0.0
 11
-281.25
 21
-195.0
 31
0.0
  0
LINE
  5
400
100
AcDbEntity
  8
0
  6
CONTINUOUS
 62
               7
100
AcDbLine
 10
-281.25
 20
195.5
 30
0.0
 11
282.099853515625
 21
195.5
 31
0.0
  0
LINE
  5
401
100
AcDbEntity
  8
0
  6
CONTINUOUS
 62
               7
100
AcDbLine
 10
282.099853515625
 20
195.5
 30
0.0
 11
282.099853515625
 21
-195.0
 31
0.0
  0
LINE
  5
402
100
AcDbEntity
  8
0
  6
CONTINUOUS
 62
               7
100
AcDbLine
 10
162.0999755859375
 20
195.5
 30
0.0
 11
162.0999755859375
 21
175.5
 31
0.0
  0
LINE
  5
403
100
AcDbEntity
  8
0
  6
CONTINUOUS
 62
               7
100
AcDbLine
 10
162.0999755859375
 20
175.5
 30
0.0
 11
282.099853515625
 21
175.5
 31
0.0
  0
MTEXT
  5
404
100
AcDbEntity
  8
0
  6
CONTINUOUS
 62
               7
100
AcDbMText
 10
198.27702406779611
 20
185.5
 30
0.0
 40
6.3000001907348633
 41
0.0
 71
               4
 72
               1
  1
\W1.311;\A1;Ver. 1.0
  0
MTEXT
  5
405
100
AcDbEntity
  8
0
  6
CONTINUOUS
 62
               7
100
AcDbMText
 10
170.28099805280428
 20
-185.0
 30
0.0
 40
9.0
 41
0.0
 71
               4
 72
               1
  1
\W1.121;\A1;KOGANEI CORP.
  0
LINE
  5
406
100
AcDbEntity
  8
0
  6
CONTINUOUS
 62
               7
100
AcDbLine
 10
162.0999755859375
 20
-175.0
 30
0.0
 11
282.099853515625
 21
-175.0
 31
0.0
  0
LINE
  5
407
100
AcDbEntity
  8
0
  6
CONTINUOUS
 62
               7
100
AcDbLine
 10
162.0999755859375
 20
-175.0
 30
0.0
 11
162.0999755859375
 21
-195.0
 31
0.0
  0
LINE
  5
408
100
AcDbEntity
  8
0
  6
CONTINUOUS
 62
               7
100
AcDbLine
 10
-281.25
 20
175.5
 30
0.0
 11
-130.05000000000001
 21
175.5
 31
0.0
  0
LINE
  5
409
100
AcDbEntity
  8
0
  6
CONTINUOUS
 62
               7
100
AcDbLine
 10
0.4249267578125
 20
-195.0
 30
0.0
 11
0.4249267578125
 21
195.5
 31
0.0
  0
MTEXT
  5
40A
100
AcDbEntity
  8
0
  6
CONTINUOUS
 62
               7
100
AcDbMText
 10
-276.93894444950672
 20
185.5
 30
0.0
 40
6.3000001907348633
 41
0.0
 71
               4
 72
               1
  1
\W1.106;\A1;JIG CYLINDER WITH GUIDE
  0
LINE
  5
40B
100
AcDbEntity
  8
0
  6
CONTINUOUS
 62
               7
100
AcDbLine
 10
-130.05000000000001
 20
195.5
 30
0.0
 11
-130.05000000000001
 21
175.5
 31
0.0
  0
MTEXT
  5
40C
100
AcDbEntity
  8
0
  6
CONTINUOUS
 62
               3
100
AcDbMText
 10
-183.46065054767229
 20
105.0490574836731
 30
0.0
 40
4.5
 41
0.0
 71
               4
 72
               1
  1
\W1.088;\A1;STRETCH LINE A
  0
MTEXT
  5
40D
100
AcDbEntity
  8
0
  6
CONTINUOUS
 62
               7
100
AcDbMText
 10
-243.4511834411183
 20
-141.00000005549362
 30
0.0
 40
4.5
 41
0.0
 71
               4
 72
               1
  1
\W1.065;\A1;STRETCH LIST
  0
MTEXT
  5
40E
100
AcDbEntity
  8
0
  6
CONTINUOUS
 62
               7
100
AcDbMText
 10
-173.59999999284742
 20
-181.00000002774681
 30
0.0
 40
4.5
 41
0.0
 71
               4
 72
               1
  1
\W1.200;\A1;0
  0
MTEXT
  5
40F
100
AcDbEntity
  8
0
  6
CONTINUOUS
 62
               7
100
AcDbMText
 10
-194.0
 20
-181.00000002774681
 30
0.0
 40
4.5
 41
0.0
 71
               4
 72
               1
  1
\A1;-5
  0
MTEXT
  5
410
100
AcDbEntity
  8
0
  6
CONTINUOUS
 62
               7
100
AcDbMText
 10
-214.10000003576278
 20
-181.00000002774681
 30
0.0
 40
4.5
 41
0.0
 71
               4
 72
               1
  1
\W1.200;\A1;-10
  0
MTEXT
  5
411
100
AcDbEntity
  8
0
  6
CONTINUOUS
 62
               7
100
AcDbMText
 10
-232.15625001257285
 20
-181.00000002774681
 30
0.0
 40
4.5
 41
0.0
 71
               4
 72
               1
  1
\W1.125;\A1;-15
  0
MTEXT
  5
412
100
AcDbEntity
  8
0
  6
CONTINUOUS
 62
               7
100
AcDbMText
 10
-175.93181817221173
 20
-157.0000000485569
 30
0.0
 40
4.5
 41
0.0
 71
               4
 72
               1
  1
\W1.091;\A1;20
  0
MTEXT
  5
413
100
AcDbEntity
  8
0
  6
CONTINUOUS
 62
               7
100
AcDbMText
 10
-193.85000005722048
 20
-157.0000000485569
 30
0.0
 40
4.5
 41
0.0
 71
               4
 72
               1
  1
\W1.200;\A1;15
  0
MTEXT
  5
414
100
AcDbEntity
  8
0
  6
CONTINUOUS
 62
               7
100
AcDbMText
 10
-211.75000003311368
 20
-157.0000000485569
 30
0.0
 40
4.5
 41
0.0
 71
               4
 72
               1
  1
\W1.333;\A1;10
  0
MTEXT
  5
415
100
AcDbEntity
  8
0
  6
CONTINUOUS
 62
               7
100
AcDbMText
 10
-227.75
 20
-157.0000000485569
 30
0.0
 40
4.5
 41
0.0
 71
               4
 72
               1
  1
\A1;5
  0
LINE
  5
416
100
AcDbEntity
  8
0
  6
CONTINUOUS
 62
               7
100
AcDbLine
 10
-163.25
 20
-185.0
 30
0.0
 11
-163.25
 21
-145.00000005549362
 31
0.0
  0
LINE
  5
417
100
AcDbEntity
  8
0
  6
CONTINUOUS
 62
               7
100
AcDbLine
 10
-181.25
 20
-185.0
 30
0.0
 11
-181.25
 21
-145.00000005549362
 31
0.0
  0
LINE
  5
418
100
AcDbEntity
  8
0
  6
CONTINUOUS
 62
               7
100
AcDbLine
 10
-199.25
 20
-185.0
 30
0.0
 11
-199.25
 21
-145.00000005549362
 31
0.0
  0
LINE
  5
419
100
AcDbEntity
  8
0
  6
CONTINUOUS
 62
               7
100
AcDbLine
 10
-217.25
 20
-185.0
 30
0.0
 11
-217.25
 21
-145.00000005549362
 31
0.0
  0
LINE
  5
41A
100
AcDbEntity
  8
0
  6
CONTINUOUS
 62
               7
100
AcDbLine
 10
-235.25
 20
-185.0
 30
0.0
 11
-235.25
 21
-145.00000005549362
 31
0.0
  0
LINE
  5
41B
100
AcDbEntity
  8
0
  6
CONTINUOUS
 62
               7
100
AcDbLine
 10
-271.25
 20
-185.0
 30
0.0
 11
-271.25
 21
-145.00000005549362
 31
0.0
  0
MTEXT
  5
41C
100
AcDbEntity
  8
0
  6
CONTINUOUS
 62
               7
100
AcDbMText
 10
-254.75
 20
-181.0000000138734
 30
0.0
 40
4.5
 41
0.0
 71
               4
 72
               1
  1
\A1;B
  0
MTEXT
  5
41D
100
AcDbEntity
  8
0
  6
CONTINUOUS
 62
               7
100
AcDbMText
 10
-270.5384615220201
 20
-161.00000004393243
 30
0.0
 40
4.3874998092651367
 41
0.0
 71
               4
 72
               1
  1
\T0.975;\W1.052;\A1;STRETCH\P  PLACE
  0
LINE
  5
41E
100
AcDbEntity
  8
0
  6
CONTINUOUS
 62
               7
100
AcDbLine
 10
-271.25
 20
-145.00000005549362
 30
0.0
 11
-163.25
 21
-145.00000005549362
 31
0.0
  0
LINE
  5
41F
100
AcDbEntity
  8
0
  6
CONTINUOUS
 62
               7
100
AcDbLine
 10
-271.25
 20
-177.00000002774681
 30
0.0
 11
-163.25
 21
-177.00000002774681
 31
0.0
  0
LINE
  5
420
100
AcDbEntity
  8
0
  6
CONTINUOUS
 62
               7
100
AcDbLine
 10
-271.25
 20
-185.00000002774681
 30
0.0
 11
-163.25
 21
-185.00000002774681
 31
0.0
  0
MTEXT
  5
421
100
AcDbEntity
  8
0
  6
CONTINUOUS
 62
               3
100
AcDbMText
 10
-135.23590566151239
 20
96.049057483673096
 30
0.0
 40
4.5
 41
0.0
 71
               4
 72
               1
  1
\W1.088;\A1;STRETCH LINE B
  0
LINE
  5
422
100
AcDbEntity
  8
0
  6
CONTINUOUS
 62
               7
100
AcDbLine
 10
-271.25
 20
-169.00000004162021
 30
0.0
 11
-163.25
 21
-169.00000004162021
 31
0.0
  0
MTEXT
  5
423
100
AcDbEntity
  8
0
  6
CONTINUOUS
 62
               7
100
AcDbMText
 10
-254.75
 20
-173.00000003468352
 30
0.0
 40
4.5
 41
0.0
 71
               4
 72
               1
  1
\A1;A
  0
MTEXT
  5
424
100
AcDbEntity
  8
0
  6
CONTINUOUS
 62
               7
100
AcDbMText
 10
-173.59999999284742
 20
-173.00000003468352
 30
0.0
 40
4.5
 41
0.0
 71
               4
 72
               1
  1
\W1.200;\A1;0
  0
MTEXT
  5
425
100
AcDbEntity
  8
0
  6
CONTINUOUS
 62
               7
100
AcDbMText
 10
-194.0
 20
-173.00000003468352
 30
0.0
 40
4.5
 41
0.0
 71
               4
 72
               1
  1
\A1;-5
  0
MTEXT
  5
426
100
AcDbEntity
  8
0
  6
CONTINUOUS
 62
               7
100
AcDbMText
 10
-214.10000003576278
 20
-173.00000003468352
 30
0.0
 40
4.5
 41
0.0
 71
               4
 72
               1
  1
\W1.200;\A1;-10
  0
MTEXT
  5
427
100
AcDbEntity
  8
0
  6
CONTINUOUS
 62
               7
100
AcDbMText
 10
-232.15625001257285
 20
-173.00000003468352
 30
0.0
 40
4.5
 41
0.0
 71
               4
 72
               1
  1
\W1.125;\A1;-15
  0
MTEXT
  5
428
100
AcDbEntity
  8
0
  6
CONTINUOUS
 62
               7
100
AcDbMText
 10
-266.0
 20
-149.00000005318137
 30
0.0
 40
4.5
 41
0.0
 71
               4
 72
               1
  1
\A1;STORKE
  0
LINE
  5
429
100
AcDbEntity
  8
0
  6
CONTINUOUS
 62
               7
100
AcDbLine
 10
-235.25
 20
-169.00000004162021
 30
0.0
 11
-239.53718707641971
 21
-153.00000005086915
 31
0.0
  0
LINE
  5
42A
100
AcDbEntity
  8
0
  6
CONTINUOUS
 62
               7
100
AcDbLine
 10
-271.25
 20
-153.00000005086915
 30
0.0
 11
-239.53718707641971
 21
-153.00000005086915
 31
0.0
  0
MTEXT
  5
42B
100
AcDbEntity
  8
0
  6
CONTINUOUS
 62
               7
100
AcDbMText
 10
13.429125210283136
 20
160.5
 30
0.0
 40
6.3000001907348633
 41
0.0
 71
               4
 72
               1
  1
\W1.099;\A1;MODEL:SGDAP(Q)6*ST(20)-R
  0
MTEXT
  5
42C
100
AcDbEntity
  8
0
  6
CONTINUOUS
 62
               7
100
AcDbMText
 10
51.220382419348475
 20
152.5
 30
0.0
 40
6.3000001907348633
 41
0.0
 71
               4
 72
               1
  1
\W1.091;\A1;SGDAP(Q)6*ST(20)-L
  0
MTEXT
  5
42D
100
AcDbEntity
  8
0
  6
CONTINUOUS
 62
               3
100
AcDbMText
 10
146.43902109630011
 20
96.049057483673096
 30
0.0
 40
4.5
 41
0.0
 71
               4
 72
               1
  1
\W1.088;\A1;STRETCH LINE B
  0
MTEXT
  5
42E
100
AcDbEntity
  8
0
  6
CONTINUOUS
 62
               3
100
AcDbMText
 10
98.214276210140198
 20
105.0490574836731
 30
0.0
 40
4.5
 41
0.0
 71
               4
 72
               1
  1
\W1.088;\A1;STRETCH LINE A
  0
MTEXT
  5
42F
100
AcDbEntity
  8
0
  6
CONTINUOUS
 62
               2
100
AcDbMText
 10
148.05840502164176
 20
53.99094833462263
 30
0.0
 40
4.5
 41
0.0
 71
               4
 72
               1
  1
\A1;-L
  0
LEADER
  5
436
100
AcDbEntity
  8
0
  6
CONTINUOUS
 62
               2
100
AcDbLeader
  3
MXDIMSTYLE
 73
               3
 74
               0
 75
               0
 40
0.0
 76
               3
 10
140.87295887849143
 20
61.026041524131131
 30
0.0
 10
147.62295887849143
 20
49.334698573041209
 30
0.0
 10
157.05840502164176
 20
49.334698573041209
 30
0.0
 77
               2
1001
ACAD
1000
DSTYLE
1002
{
1070
               6
1000
_OPEN30
1070
               7
1000
_OPEN30
1070
              41
1040
2.77
1070
             173
1070
               1
1070
             341
1005
430
1002
}
  0
MTEXT
  5
437
100
AcDbEntity
  8
0
  6
CONTINUOUS
 62
               2
100
AcDbMText
 10
148.11998618624023
 20
-62.577627592337819
 30
0.0
 40
4.5
 41
0.0
 71
               4
 72
               1
  1
\A1;-R
  0
LEADER
  5
438
100
AcDbEntity
  8
0
  6
CONTINUOUS
 62
               2
100
AcDbLeader
  3
MXDIMSTYLE
 73
               3
 74
               0
 75
               0
 40
0.0
 76
               3
 10
140.87295887849143
 20
-78.925220305009162
 30
0.0
 10
147.62295887849143
 20
-67.23387735391924
 30
0.0
 10
157.11998618624023
 20
-67.23387735391924
 30
0.0
 77
               2
1001
ACAD
1000
DSTYLE
1002
{
1070
               6
1000
_OPEN30
1070
               7
1000
_OPEN30
1070
              41
1040
2.77
1070
             173
1070
               1
1070
             341
1005
430
1002
}
  0
ENDSEC
  0
SECTION
  2
OBJECTS
  0
DICTIONARY
  5
19
100
AcDbDictionary
  3
ACAD_GROUP
350
1A
  3
ACAD_MLINESTYLE
350
1B
  0
DICTIONARY
  5
1A
102
{ACAD_REACTORS
330
19
102
}
100
AcDbDictionary
  0
DICTIONARY
  5
1B
102
{ACAD_REACTORS
330
19
102
}
100
AcDbDictionary
  3
STANDARD
350
1C
  0
MLINESTYLE
  5
1C
102
{ACAD_REACTORS
330
1B
102
}
100
AcDbMlineStyle
  2
Standard
 70
               0
  3

 62
               0
 51
90.0
 52
90.0
 71
               2
 49
0.5
 62
             256
  6
ByLayer
 49
-0.5
 62
             256
  6
ByLayer
  0
ENDSEC
  0
EOF
