  0
SECTION
  2
HEADER
  0
ENDSEC
  0
SECTION
  2
TABLES
  0
TABLE
  2
LTYPE
 70
     4
  0
LTYPE
  2
CONTINUOUS
 70
    64
  3
Solid line
 72
    65
 73
     0
 40
0.000000
  0
LTYPE
  2
DASHED
 70
    64
  3
__ __ __ __ __ __ __ __ __ __ __ __ __ __ __
 72
    65
 73
     2
 40
3.500000
 49
2.000000
 49
-1.500000
  0
LTYPE
  2
CENTER
 70
    64
  3
____ _ ____ _ ____ _ ____ _ ____ _ ____ _ ____
 72
    65
 73
     4
 40
17.500000
 49
13.000000
 49
-1.500000
 49
1.500000
 49
-1.500000
  0
LTYPE
  2
PHANTOM
 70
    64
  3
_____ _ _ _____ _ _ _____ _ _ _____ _ _ ____  
 72
    65
 73
     6
 40
15.500000
 49
8.000000
 49
-1.500000
 49
1.500000
 49
-1.500000
 49
1.500000
 49
-1.500000
  0
LTYPE
  2
DASHED1
 70
    64
  3
__ __ __ __ __ __ __ __ __ __ __ __ __ __ __
 72
    65
 73
     2
 40
1.500000
 49
1.000000
 49
-0.500000
  0
LTYPE
  2
DASHED2
 70
    64
  3
__ __ __ __ __ __ __ __ __ __ __ __ __ __ __
 72
    65
 73
     2
 40
3.500000
 49
2.500000
 49
-1.000000
  0
LTYPE
  2
DASHED3
 70
    64
  3
__ __ __ __ __ __ __ __ __ __ __ __ __ __ __
 72
    65
 73
     2
 40
6.000000
 49
4.000000
 49
-2.000000
  0
LTYPE
  2
DASHED4
 70
    64
  3
__ __ __ __ __ __ __ __ __ __ __ __ __ __ __
 72
    65
 73
     2
 40
12.000000
 49
10.000000
 49
-2.000000
  0
LTYPE
  2
DASHED5
 70
    64
  3
__ __ __ __ __ __ __ __ __ __ __ __ __ __ __
 72
    65
 73
     2
 40
17.000000
 49
15.000000
 49
-2.000000
  0
LTYPE
  2
DASHED6
 70
    64
  3
__ __ __ __ __ __ __ __ __ __ __ __ __ __ __
 72
    65
 73
     2
 40
29.000000
 49
27.000000
 49
-2.000000
  0
LTYPE
  2
PHANTOM1
 70
    64
  3
_____ _ _ _____ _ _ _____ _ _ _____ _ _ ____  
 72
    65
 73
     6
 40
31.000000
 49
25.000000
 49
-1.500000
 49
1.000000
 49
-1.000000
 49
1.000000
 49
-1.500000
  0
LTYPE
  2
PHANTOM2
 70
    64
  3
_____ _ _ _____ _ _ _____ _ _ _____ _ _ ____  
 72
    65
 73
     6
 40
36.000000
 49
27.000000
 49
-1.500000
 49
2.500000
 49
-1.000000
 49
2.500000
 49
-1.500000
  0
LTYPE
  2
PHANTOM3
 70
    64
  3
_____ _ _ _____ _ _ _____ _ _ _____ _ _ ____  
 72
    65
 73
     6
 40
78.000000
 49
64.000000
 49
-2.000000
 49
4.000000
 49
-2.000000
 49
4.000000
 49
-2.000000
  0
LTYPE
  2
CENTER1
 70
    64
  3
____ _ ____ _ ____ _ ____ _ ____ _ ____ _ ____
 72
    65
 73
     4
 40
19.000000
 49
14.000000
 49
-1.000000
 49
3.000000
 49
-1.000000
  0
LTYPE
  2
CENTER2
 70
    64
  3
____ _ ____ _ ____ _ ____ _ ____ _ ____ _ ____
 72
    65
 73
     4
 40
28.500000
 49
25.000000
 49
-1.000000
 49
1.500000
 49
-1.000000
  0
LTYPE
  2
CENTER3
 70
    64
  3
____ _ ____ _ ____ _ ____ _ ____ _ ____ _ ____
 72
    65
 73
     4
 40
31.500000
 49
27.000000
 49
-1.000000
 49
2.500000
 49
-1.000000
  0
LTYPE
  2
CENTER4
 70
    64
  3
____ _ ____ _ ____ _ ____ _ ____ _ ____ _ ____
 72
    65
 73
     4
 40
50.000000
 49
45.000000
 49
-1.000000
 49
3.000000
 49
-1.000000
  0
LTYPE
  2
CENTER5
 70
    64
  3
____ _ ____ _ ____ _ ____ _ ____ _ ____ _ ____
 72
    65
 73
     4
 40
100.000000
 49
92.000000
 49
-2.000000
 49
4.000000
 49
-2.000000
  0
LTYPE
  2
SBK1
 70
    64
  3
______ _ _ _ ______ _ _ _ ______ _ _ _ _____  
 72
    65
 73
     8
 40
60.500000
 49
45.000000
 49
-2.000000
 49
2.500000
 49
-2.000000
 49
2.500000
 49
-2.000000
 49
2.500000
 49
-2.000000
  0
LTYPE
  2
SBK2
 70
    64
  3
______ _ _ _ ______ _ _ _ ______ _ _ _ _____  
 72
    65
 73
     8
 40
84.000000
 49
64.000000
 49
-2.000000
 49
4.000000
 49
-2.000000
 49
4.000000
 49
-2.000000
 49
4.000000
 49
-2.000000
  0
LTYPE
  2
STCH
 70
    64
  3
__ __ __ __ __ __ __ __ __ __ __ __ __ __ __
 72
    65
 73
     2
 40
3.000000
 49
1.000000
 49
-2.000000
  0
LTYPE
  2
MTCH
 70
    64
  3
_____ _ _ _____ _ _ _____ _ _ _____ _ _ ____  
 72
    65
 73
     6
 40
80.000000
 49
66.000000
 49
-2.000000
 49
4.000000
 49
-2.000000
 49
4.000000
 49
-2.000000
  0
ENDTAB
  0
TABLE
  2
LAYER
 70
     1
  0
LAYER
  2
0
 70
     0
 62
     7
  6
CONTINUOUS
  0
ENDTAB
  0
TABLE
  2
STYLE
 70
     1
  0
STYLE
  2
STANDARD
 70
     0
 40
0.000000
 41
1.000000
 50
0.000000
 71
     0
 42
0.200000
  3
txt
  4
BIGFONT
  0
ENDTAB
  0
TABLE
  2
VIEW
 70
     0
  0
ENDTAB
  0
ENDSEC
  0
SECTION
  2
BLOCKS
  0
ENDSEC
  0
SECTION
  2
ENTITIES
  0
LINE
  8
0
  6
DASHED
 62
     2
 10
40.000000
 20
-10.000000
 11
40.000000
 21
-25.000000
  0
LINE
  8
0
  6
DASHED
 62
     2
 10
12.000000
 20
-9.500000
 11
39.500000
 21
-9.500000
  0
LINE
  8
0
  6
DASHED
 62
     2
 10
12.000000
 20
-25.500000
 11
39.500000
 21
-25.500000
  0
LINE
  8
0
  6
DASHED
 62
     2
 10
39.499992
 20
-9.500004
 11
39.999992
 21
-10.000006
  0
LINE
  8
0
  6
DASHED
 62
     2
 10
39.999981
 20
-24.999987
 11
39.499981
 21
-25.499987
  0
LINE
  8
0
  6
DASHED
 62
     2
 10
39.500000
 20
-9.500000
 11
39.500000
 21
-25.500000
  0
LINE
  8
0
  6
DASHED
 62
     2
 10
40.000000
 20
53.000000
 11
40.000000
 21
38.000000
  0
LINE
  8
0
  6
DASHED
 62
     2
 10
12.000000
 20
53.500000
 11
39.500000
 21
53.500000
  0
LINE
  8
0
  6
DASHED
 62
     2
 10
12.000000
 20
37.500000
 11
39.500000
 21
37.500000
  0
LINE
  8
0
  6
DASHED
 62
     2
 10
39.499966
 20
53.499969
 11
39.999966
 21
52.999969
  0
LINE
  8
0
  6
DASHED
 62
     2
 10
39.999985
 20
37.999985
 11
39.499985
 21
37.499989
  0
LINE
  8
0
  6
DASHED
 62
     2
 10
39.500000
 20
53.500000
 11
39.500000
 21
37.500000
  0
LINE
  8
0
 10
20.000000
 20
8.000000
 11
30.000000
 21
8.000000
  0
LINE
  8
0
 10
20.000000
 20
36.500000
 11
20.000000
 21
-8.500000
  0
LINE
  8
0
 10
30.000000
 20
1.000000
 11
32.500000
 21
1.000000
  0
LINE
  8
0
 10
32.500000
 20
27.000000
 11
32.500000
 21
1.000000
  0
LINE
  8
0
 10
30.000000
 20
27.000000
 11
30.000000
 21
1.000000
  0
LINE
  8
0
 10
42.500000
 20
7.649151
 11
53.517548
 21
7.649151
  0
LINE
  8
0
 10
42.500000
 20
1.298298
 11
53.517517
 21
1.298298
  0
LINE
  8
0
 10
32.500000
 20
3.000000
 11
42.500000
 21
3.000000
  0
LINE
  8
0
 10
53.517567
 20
1.298280
 11
54.500042
 21
2.999977
  0
LINE
  8
0
 10
54.500000
 20
25.000061
 11
54.500000
 21
3.000000
  0
LINE
  8
0
 10
55.618683
 20
9.381199
 11
59.381348
 21
9.381199
  0
LINE
  8
0
 10
55.618683
 20
4.762398
 11
59.381348
 21
4.762398
  0
LINE
  8
0
 10
54.500053
 20
6.700019
 11
55.618736
 21
4.762403
  0
LINE
  8
0
 10
59.381374
 20
4.762372
 11
60.500050
 21
6.699975
  0
LINE
  8
0
 10
62.500000
 20
18.000004
 11
62.500000
 21
10.000000
  0
LINE
  8
0
 10
60.500000
 20
9.000000
 11
61.500000
 21
9.000000
  0
LINE
  8
0
 62
     2
 10
60.500000
 20
9.599998
 11
62.100006
 21
9.599998
  0
LINE
  8
0
 10
62.499985
 20
9.999995
 11
61.499989
 21
9.000000
  0
LINE
  8
0
 10
61.500000
 20
19.000000
 11
61.500000
 21
9.000000
  0
LINE
  8
0
 10
60.500000
 20
21.300077
 11
60.500000
 21
6.700001
  0
LINE
  8
0
 10
20.000000
 20
35.750000
 11
20.800018
 21
35.750000
  0
LINE
  8
0
 10
20.000000
 20
25.250000
 11
20.800018
 21
25.250000
  0
LINE
  8
0
 10
24.000000
 20
33.667747
 11
24.000000
 21
27.332253
  0
LINE
  8
0
 10
20.800018
 20
35.750000
 11
20.800018
 21
25.250000
  0
LINE
  8
0
 10
24.000000
 20
33.667755
 11
24.000000
 21
27.332245
  0
LINE
  8
0
 10
20.000000
 20
-7.750000
 11
20.700012
 21
-7.750000
  0
LINE
  8
0
 10
20.800018
 20
2.750000
 11
20.000000
 21
2.750000
  0
LINE
  8
0
 10
20.800018
 20
2.750000
 11
20.800018
 21
-7.750000
  0
LINE
  8
0
 10
24.000000
 20
0.667755
 11
24.000000
 21
-5.667755
  0
LINE
  8
0
 10
20.000000
 20
20.000000
 11
30.000000
 21
20.000000
  0
LINE
  8
0
 10
30.000000
 20
27.000000
 11
32.500000
 21
27.000000
  0
LINE
  8
0
 10
42.500000
 20
20.350849
 11
53.517548
 21
20.350849
  0
LINE
  8
0
 10
42.500000
 20
26.701706
 11
53.517517
 21
26.701706
  0
LINE
  8
0
 10
32.500000
 20
25.000000
 11
42.500000
 21
25.000000
  0
LINE
  8
0
 10
53.517574
 20
26.701731
 11
54.500050
 21
25.000034
  0
LINE
  8
0
 10
55.618683
 20
18.618801
 11
59.381348
 21
18.618801
  0
LINE
  8
0
 10
55.618683
 20
23.237602
 11
59.381348
 21
23.237602
  0
LINE
  8
0
 10
54.500042
 20
21.299995
 11
55.618725
 21
23.237610
  0
LINE
  8
0
 10
59.381401
 20
23.237637
 11
60.500076
 21
21.300034
  0
LINE
  8
0
 10
60.500000
 20
19.000000
 11
61.500000
 21
19.000000
  0
LINE
  8
0
 62
     2
 10
60.500000
 20
18.400002
 11
62.100006
 21
18.400002
  0
LINE
  8
0
 10
62.499939
 20
17.999983
 11
61.499939
 21
18.999983
  0
LINE
  8
0
 10
12.000000
 20
36.500000
 11
20.000000
 21
36.500000
  0
LINE
  8
0
 10
12.000000
 20
-8.500000
 11
20.000000
 21
-8.500000
  0
LINE
  8
0
 10
12.000000
 20
22.599998
 11
20.000000
 21
22.599998
  0
LINE
  8
0
 10
12.000000
 20
5.400002
 11
20.000000
 21
5.400002
  0
LINE
  8
0
 10
-40.000000
 20
20.000000
 11
-36.000000
 21
20.000000
  0
LINE
  8
0
 10
-40.000000
 20
-30.000000
 11
-40.000000
 21
57.999985
  0
LINE
  8
0
 10
-52.000000
 20
57.999985
 11
-52.000000
 21
-30.000000
  0
LINE
  8
0
 10
-40.000000
 20
-9.500000
 11
-36.000000
 21
-9.500000
  0
LINE
  8
0
 10
-40.000000
 20
-25.500000
 11
-36.000000
 21
-25.500000
  0
LINE
  8
0
 10
-38.500000
 20
17.316635
 11
-38.500000
 21
10.683365
  0
LINE
  8
0
 10
-40.000000
 20
10.683380
 11
-38.500000
 21
10.683380
  0
LINE
  8
0
 10
-40.000084
 20
12.341692
 11
-38.500050
 21
17.316746
  0
LINE
  8
0
 10
-38.500084
 20
10.683332
 11
-40.000031
 21
15.658092
  0
LINE
  8
0
 10
-40.000000
 20
8.000000
 11
-36.000000
 21
8.000000
  0
LINE
  8
0
 10
-51.000000
 20
-31.000000
 11
-41.000000
 21
-31.000000
  0
LINE
  8
0
 10
-51.000000
 20
58.999985
 11
-41.000000
 21
58.999985
  0
LINE
  8
0
 10
-51.999962
 20
-29.999960
 11
-50.999958
 21
-30.999958
  0
LINE
  8
0
 10
-40.000004
 20
-30.000002
 11
-41.000008
 21
-31.000006
  0
LINE
  8
0
 10
-51.000076
 20
59.000095
 11
-52.000080
 21
58.000095
  0
LINE
  8
0
 10
-41.000008
 20
59.000004
 11
-40.000008
 21
58.000000
  0
LINE
  8
0
 10
-35.500000
 20
59.999985
 11
11.500000
 21
59.999985
  0
LINE
  8
0
 10
-36.000000
 20
18.500000
 11
12.000000
 21
18.500000
  0
LINE
  8
0
 10
-36.000000
 20
21.699997
 11
12.000000
 21
21.699997
  0
LINE
  8
0
 10
-36.000000
 20
24.000000
 11
12.000000
 21
24.000000
  0
LINE
  8
0
 10
-36.000000
 20
25.000000
 11
12.000000
 21
25.000000
  0
LINE
  8
0
 10
-35.499981
 20
59.999920
 11
-35.999973
 21
59.499931
  0
LINE
  8
0
 10
11.500023
 20
60.000053
 11
12.000015
 21
59.500072
  0
LINE
  8
0
 10
-36.000000
 20
57.999985
 11
12.000000
 21
57.999985
  0
LINE
  8
0
 10
-36.000000
 20
43.149994
 11
12.000000
 21
43.149994
  0
LINE
  8
0
 10
-36.000000
 20
38.850006
 11
12.000000
 21
38.850006
  0
LINE
  8
0
  6
CENTER
 62
     2
 10
-35.684387
 20
30.500000
 11
-24.198090
 21
30.500000
  0
LINE
  8
0
  6
CENTER
 62
     2
 10
-54.505142
 20
45.500000
 11
-33.173477
 21
45.500000
  0
LINE
  8
0
  6
CENTER
 62
     2
 10
-54.505142
 20
-17.500000
 11
-33.173477
 21
-17.500000
  0
LINE
  8
0
 10
-40.000000
 20
17.316635
 11
-38.500000
 21
17.316635
  0
LINE
  8
0
 10
-40.000000
 20
53.500000
 11
-36.000000
 21
53.500000
  0
LINE
  8
0
 10
-40.000000
 20
37.500000
 11
-36.000000
 21
37.500000
  0
LINE
  8
0
  6
CENTER
 62
     2
 10
-10.000000
 20
-8.537125
 11
-10.000000
 21
4.202271
  0
LINE
  8
0
  6
CENTER
 62
     2
 10
-35.684387
 20
-2.500000
 11
-24.198090
 21
-2.500000
  0
LINE
  8
0
  6
CENTER
 62
     2
 10
-30.000000
 20
-8.537125
 11
-30.000000
 21
3.452881
  0
LINE
  8
0
 10
-36.000000
 20
3.000000
 11
12.000000
 21
3.000000
  0
LINE
  8
0
 10
-36.000000
 20
4.000000
 11
12.000000
 21
4.000000
  0
LINE
  8
0
 10
-36.000000
 20
9.500000
 11
12.000000
 21
9.500000
  0
LINE
  8
0
 10
-36.000000
 20
6.300003
 11
12.000000
 21
6.300003
  0
LINE
  8
0
  6
CENTER
 62
     2
 10
2.000000
 20
-22.325974
 11
2.000000
 21
-9.108181
  0
LINE
  8
0
 10
-36.000000
 20
-31.500000
 11
-36.000000
 21
59.499985
  0
LINE
  8
0
  6
CENTER
 62
     2
 10
-16.164734
 20
-2.500000
 11
-4.000000
 21
-2.500000
  0
LINE
  8
0
 10
12.000000
 20
59.499985
 11
12.000000
 21
-31.500000
  0
LINE
  8
0
 10
-35.500000
 20
-32.000000
 11
11.500000
 21
-32.000000
  0
LINE
  8
0
  6
DASHED
 62
     2
 10
-13.282990
 20
-28.869385
 11
-13.282990
 21
-32.000000
  0
LINE
  8
0
  6
DASHED
 62
     2
 10
-13.717289
 20
-28.869383
 11
-13.863971
 21
-31.999989
  0
LINE
  8
0
  6
DASHED
 62
     2
 10
-4.717010
 20
-28.869385
 11
-4.717010
 21
-32.000000
  0
LINE
  8
0
  6
DASHED
 62
     2
 10
-4.282560
 20
-28.869390
 11
-4.135877
 21
-32.000011
  0
LINE
  8
0
 10
-36.000000
 20
-31.000000
 11
12.000000
 21
-31.000000
  0
LINE
  8
0
  6
CENTER
 62
     2
 10
-3.932789
 20
-15.000000
 11
8.266647
 21
-15.000000
  0
LINE
  8
0
  6
CENTER
 62
     2
 10
-24.000000
 20
-21.998871
 11
-24.000000
 21
-9.037130
  0
LINE
  8
0
  6
DASHED
 62
     2
 10
-28.283005
 20
-28.869385
 11
-28.283005
 21
-32.000000
  0
LINE
  8
0
  6
DASHED
 62
     2
 10
-28.717344
 20
-28.869381
 11
-28.864027
 21
-31.999996
  0
LINE
  8
0
  6
DASHED
 62
     2
 10
-19.717010
 20
-28.869385
 11
-19.717010
 21
-32.000000
  0
LINE
  8
0
  6
DASHED
 62
     2
 10
-19.282642
 20
-28.869394
 11
-19.135960
 21
-32.000004
  0
LINE
  8
0
  6
CENTER
 62
     2
 10
-29.795250
 20
-15.000000
 11
-18.071880
 21
-15.000000
  0
LINE
  8
0
  6
CENTER
 62
     2
 10
-54.452652
 20
14.000000
 11
64.650810
 21
14.000000
  0
LINE
  8
0
 10
12.000007
 20
-31.499992
 11
11.500006
 21
-31.999994
  0
LINE
  8
0
 10
-36.000011
 20
-31.499950
 11
-35.500004
 21
-31.999962
  0
LINE
  8
0
  6
CENTER
 62
     2
 10
-24.000000
 20
-33.913498
 11
-24.000000
 21
-28.007671
  0
LINE
  8
0
  6
CENTER
 62
     2
 10
-10.000000
 20
36.796265
 11
-10.000000
 21
24.243973
  0
LINE
  8
0
  6
CENTER
 62
     2
 10
-30.000000
 20
36.677841
 11
-30.000000
 21
24.243973
  0
LINE
  8
0
  6
CENTER
 62
     2
 10
-16.174232
 20
30.500000
 11
-3.740356
 21
30.500000
  0
LINE
  8
0
 10
42.500000
 20
26.701706
 11
42.500000
 21
1.298298
  0
LINE
  8
0
  6
PHANTOM
 62
     3
 10
-2.400002
 20
64.400002
 11
-2.400002
 21
-10.400002
  0
LINE
  8
0
  6
PHANTOM
 62
     3
 10
-17.599998
 20
72.800003
 11
-17.599998
 21
-37.000000
  0
LINE
  8
0
  6
PHANTOM
 62
     3
 10
-15.099998
 20
-10.400002
 11
-15.099998
 21
-37.000000
  0
LINE
  8
0
  6
PHANTOM
 62
     3
 10
-15.099998
 20
-10.400002
 11
-2.400002
 21
-10.400002
  0
LINE
  8
0
  6
CENTER
 62
     2
 10
-9.000000
 20
-33.913498
 11
-9.000000
 21
-28.007671
  0
LINE
  8
0
 10
-153.000000
 20
58.000000
 11
-153.000000
 21
43.949997
  0
LINE
  8
0
 10
-112.000000
 20
-32.000000
 11
-151.000000
 21
-32.000000
  0
LINE
  8
0
 10
-113.000000
 20
60.000000
 11
-151.000000
 21
60.000000
  0
LINE
  8
0
  6
CENTER
 62
     2
 10
-108.173523
 20
14.000000
 11
-155.777618
 21
14.000000
  0
LINE
  8
0
 10
-111.000000
 20
3.000000
 11
-111.000000
 21
-31.000000
  0
LINE
  8
0
 10
-153.000000
 20
38.050003
 11
-153.000000
 21
25.000000
  0
LINE
  8
0
 10
-112.999924
 20
60.000061
 11
-110.999924
 21
58.000057
  0
LINE
  8
0
 10
-151.000061
 20
-32.000061
 11
-153.000061
 21
-30.000065
  0
LINE
  8
0
 10
-151.000076
 20
60.000050
 11
-153.000092
 21
58.000023
  0
LINE
  8
0
 10
-112.000000
 20
21.699997
 11
-112.500000
 21
21.699997
  0
LINE
  8
0
 10
-112.500069
 20
21.699982
 11
-113.000076
 21
22.199989
  0
LINE
  8
0
 10
-112.000000
 20
18.500000
 11
-112.500000
 21
18.500000
  0
LINE
  8
0
 10
-112.500000
 20
18.499912
 11
-113.000015
 21
17.999903
  0
LINE
  8
0
 10
-111.000000
 20
58.000031
 11
-111.000000
 21
43.449997
  0
LINE
  8
0
 10
-112.000000
 20
24.422653
 11
-112.000000
 21
21.699997
  0
LINE
  8
0
 10
-112.000000
 20
18.500000
 11
-112.000000
 21
9.500000
  0
LINE
  8
0
 10
-151.000000
 20
43.649994
 11
-152.700012
 21
43.649994
  0
LINE
  8
0
 10
-151.000000
 20
38.350006
 11
-152.700012
 21
38.350006
  0
LINE
  8
0
 10
-111.299988
 20
38.850006
 11
-113.000000
 21
38.850006
  0
LINE
  8
0
 10
-111.299988
 20
43.149994
 11
-113.000000
 21
43.149994
  0
LINE
  8
0
 10
-111.000000
 20
38.550003
 11
-111.000000
 21
25.000000
  0
LINE
  8
0
 10
-110.999939
 20
-30.999971
 11
-111.999962
 21
-31.999994
  0
LINE
  8
0
 10
-112.000000
 20
6.300003
 11
-112.500000
 21
6.300003
  0
LINE
  8
0
 10
-112.500076
 20
6.300026
 11
-113.000092
 21
5.800014
  0
LINE
  8
0
 10
-112.000000
 20
9.500000
 11
-112.500000
 21
9.500000
  0
LINE
  8
0
 10
-112.499969
 20
9.500063
 11
-112.999992
 21
10.000077
  0
LINE
  8
0
 10
-112.000000
 20
3.577354
 11
-112.000000
 21
6.300003
  0
LINE
  8
0
 10
-112.000015
 20
24.422686
 11
-111.000023
 21
25.000032
  0
LINE
  8
0
 10
-112.000015
 20
3.577328
 11
-110.999985
 21
2.999964
  0
LINE
  8
0
 10
-152.000000
 20
3.577386
 11
-153.000061
 21
3.000008
  0
LINE
  8
0
 10
-152.000000
 20
21.699997
 11
-151.500000
 21
21.699997
  0
LINE
  8
0
 10
-151.500015
 20
21.700047
 11
-151.000015
 21
22.200058
  0
LINE
  8
0
 10
-152.000000
 20
18.500000
 11
-151.500000
 21
18.500000
  0
LINE
  8
0
 10
-151.500000
 20
18.499969
 11
-150.999985
 21
17.999969
  0
LINE
  8
0
 10
-152.000000
 20
24.422653
 11
-152.000000
 21
21.699997
  0
LINE
  8
0
 10
-152.000000
 20
18.500000
 11
-152.000000
 21
9.500000
  0
LINE
  8
0
 10
-152.000000
 20
6.300003
 11
-151.500000
 21
6.300003
  0
LINE
  8
0
 10
-151.500031
 20
6.299992
 11
-151.000015
 21
5.799983
  0
LINE
  8
0
 10
-152.000000
 20
9.500000
 11
-151.500000
 21
9.500000
  0
LINE
  8
0
 10
-151.499985
 20
9.500021
 11
-150.999969
 21
10.000030
  0
LINE
  8
0
 10
-152.000000
 20
3.577354
 11
-152.000000
 21
6.300003
  0
LINE
  8
0
 10
-152.000031
 20
24.422611
 11
-153.000061
 21
24.999975
  0
LINE
  8
0
 10
-153.000000
 20
-30.000000
 11
-153.000000
 21
-15.949997
  0
LINE
  8
0
 10
-151.000000
 20
-15.650002
 11
-152.700012
 21
-15.650002
  0
LINE
  8
0
 10
-151.000000
 20
-10.349998
 11
-152.700012
 21
-10.349998
  0
LINE
  8
0
 10
-150.000000
 20
59.000000
 11
-114.000000
 21
59.000000
  0
LINE
  8
0
 10
-150.000000
 20
-31.000000
 11
-114.000000
 21
-31.000000
  0
LINE
  8
0
 10
-149.999969
 20
58.999966
 11
-150.999969
 21
57.999962
  0
LINE
  8
0
 10
-113.999908
 20
59.000114
 11
-112.999901
 21
58.000107
  0
LINE
  8
0
 10
-150.999985
 20
-29.999992
 11
-149.999969
 21
-30.999992
  0
LINE
  8
0
 10
-113.000015
 20
-29.999977
 11
-114.000000
 21
-30.999969
  0
LINE
  8
0
  6
CENTER
 62
     2
 10
-145.000000
 20
-28.603226
 11
-145.000000
 21
-19.512543
  0
LINE
  8
0
  6
CENTER
 62
     2
 10
-150.428070
 20
-24.000000
 11
-140.033188
 21
-24.000000
  0
LINE
  8
0
  6
CENTER
 62
     2
 10
-149.710083
 20
52.000000
 11
-140.225800
 21
52.000000
  0
LINE
  8
0
  6
CENTER
 62
     2
 10
-119.000000
 20
-28.603226
 11
-119.000000
 21
-19.512543
  0
LINE
  8
0
 10
-131.999985
 20
-15.190605
 11
-133.999985
 21
-16.345301
  0
LINE
  8
0
 10
-134.000000
 20
-16.345299
 11
-134.000000
 21
-18.654701
  0
LINE
  8
0
 10
-132.000000
 20
-19.809330
 11
-133.999985
 21
-18.654634
  0
LINE
  8
0
 10
-129.999969
 20
-18.654736
 11
-131.999985
 21
-19.809437
  0
LINE
  8
0
 10
-130.000000
 20
-16.345299
 11
-130.000000
 21
-18.654701
  0
LINE
  8
0
 10
-131.999969
 20
-15.190557
 11
-129.999985
 21
-16.345253
  0
LINE
  8
0
 10
-131.999985
 20
16.309374
 11
-133.999985
 21
15.154675
  0
LINE
  8
0
 10
-134.000000
 20
15.154701
 11
-134.000000
 21
12.845301
  0
LINE
  8
0
 10
-131.999985
 20
11.690623
 11
-133.999985
 21
12.845325
  0
LINE
  8
0
 10
-129.999985
 20
12.845262
 11
-131.999985
 21
11.690564
  0
LINE
  8
0
 10
-130.000000
 20
15.154699
 11
-130.000000
 21
12.845299
  0
LINE
  8
0
 10
-131.999985
 20
16.309422
 11
-129.999985
 21
15.154720
  0
LINE
  8
0
 10
-132.000000
 20
47.809357
 11
-133.999985
 21
46.654663
  0
LINE
  8
0
 10
-134.000000
 20
46.654701
 11
-134.000000
 21
44.345299
  0
LINE
  8
0
 10
-132.000000
 20
43.190620
 11
-134.000000
 21
44.345318
  0
LINE
  8
0
 10
-129.999969
 20
44.345276
 11
-131.999969
 21
43.190578
  0
LINE
  8
0
 10
-130.000000
 20
46.654701
 11
-130.000000
 21
44.345299
  0
LINE
  8
0
 10
-131.999985
 20
47.809410
 11
-130.000000
 21
46.654716
  0
LINE
  8
0
  6
CENTER
 62
     2
 10
-132.000000
 20
63.872604
 11
-132.000000
 21
-35.152332
  0
LINE
  8
0
 10
-151.000000
 20
58.000000
 11
-151.000000
 21
-30.000000
  0
LINE
  8
0
 10
-113.000000
 20
58.000000
 11
-113.000000
 21
-30.000000
  0
LINE
  8
0
 10
-153.000000
 20
-10.050003
 11
-153.000000
 21
3.000000
  0
LINE
  8
0
  6
CENTER
 62
     2
 10
-145.000000
 20
56.643517
 11
-145.000000
 21
47.159233
  0
LINE
  8
0
  6
CENTER
 62
     2
 10
-119.000000
 20
56.573776
 11
-119.000000
 21
47.159233
  0
LINE
  8
0
  6
CENTER
 62
     2
 10
-123.767776
 20
52.000000
 11
-114.144012
 21
52.000000
  0
LINE
  8
0
  6
CENTER
 62
     2
 10
-139.119156
 20
45.500000
 11
-124.901382
 21
45.500000
  0
LINE
  8
0
  6
CENTER
 62
     2
 10
-138.988602
 20
-17.500000
 11
-124.622147
 21
-17.500000
  0
LINE
  8
0
  6
CENTER
 62
     2
 10
-123.225555
 20
-24.000000
 11
-114.812668
 21
-24.000000
  0
LINE
  8
0
 10
112.000000
 20
36.500000
 11
112.000000
 21
32.100780
  0
LINE
  8
0
 10
112.000000
 20
6.300003
 11
112.500015
 21
6.300003
  0
LINE
  8
0
 10
112.000000
 20
22.599998
 11
114.600037
 21
22.599998
  0
LINE
  8
0
 10
112.000000
 20
5.400002
 11
114.600037
 21
5.400002
  0
LINE
  8
0
 10
117.100037
 20
20.099998
 11
117.100037
 21
7.900002
  0
LINE
  8
0
 10
149.400024
 20
22.599998
 11
152.000000
 21
22.599998
  0
LINE
  8
0
 10
149.400024
 20
5.400002
 11
152.000000
 21
5.400002
  0
LINE
  8
0
 10
146.900024
 20
20.099998
 11
146.900024
 21
7.900002
  0
LINE
  8
0
 10
115.000000
 20
29.345299
 11
115.000000
 21
31.654701
  0
LINE
  8
0
 10
119.000000
 20
29.345299
 11
119.000000
 21
31.654701
  0
LINE
  8
0
 10
115.000069
 20
29.345381
 11
117.000046
 21
28.190689
  0
LINE
  8
0
 10
117.000069
 20
32.809460
 11
119.000061
 21
31.654768
  0
LINE
  8
0
 10
115.000046
 20
31.654690
 11
117.000061
 21
32.809399
  0
LINE
  8
0
 10
117.000061
 20
28.190578
 11
119.000053
 21
29.345274
  0
LINE
  8
0
 10
145.000000
 20
-1.345329
 11
147.000015
 21
-0.190621
  0
LINE
  8
0
 10
145.000000
 20
-3.654701
 11
145.000000
 21
-1.345299
  0
LINE
  8
0
 10
145.000015
 20
-3.654639
 11
147.000000
 21
-4.809333
  0
LINE
  8
0
 10
146.999985
 20
-4.809458
 11
149.000015
 21
-3.654739
  0
LINE
  8
0
 10
149.000000
 20
-3.654701
 11
149.000000
 21
-1.345299
  0
LINE
  8
0
 10
147.000031
 20
-0.190555
 11
149.000031
 21
-1.345266
  0
LINE
  8
0
 10
121.000000
 20
20.350853
 11
121.000000
 21
7.649147
  0
LINE
  8
0
 10
143.000000
 20
20.350849
 11
143.000000
 21
7.649147
  0
LINE
  8
0
 10
120.999985
 20
20.350832
 11
131.999985
 21
26.701689
  0
LINE
  8
0
 10
132.000000
 20
1.298281
 11
143.000015
 21
7.649140
  0
LINE
  8
0
 10
132.000076
 20
26.701775
 11
143.000076
 21
20.350927
  0
LINE
  8
0
 10
121.000061
 20
7.649196
 11
132.000046
 21
1.298350
  0
LINE
  8
0
 10
124.000000
 20
18.618801
 11
124.000000
 21
9.381195
  0
LINE
  8
0
 10
140.000000
 20
18.618805
 11
140.000000
 21
9.381199
  0
LINE
  8
0
 10
124.000000
 20
18.618788
 11
132.000015
 21
23.237589
  0
LINE
  8
0
 10
132.000046
 20
4.762354
 11
140.000046
 21
9.381157
  0
LINE
  8
0
 10
132.000061
 20
23.237671
 11
140.000061
 21
18.618868
  0
LINE
  8
0
 10
124.000038
 20
9.381264
 11
132.000046
 21
4.762457
  0
LINE
  8
0
 10
112.000000
 20
36.500000
 11
152.000000
 21
36.500000
  0
LINE
  8
0
 10
112.000000
 20
-8.500000
 11
152.000000
 21
-8.500000
  0
LINE
  8
0
 10
152.000000
 20
36.500000
 11
152.000000
 21
21.699997
  0
LINE
  8
0
 10
112.000000
 20
6.300003
 11
112.000000
 21
-8.500000
  0
LINE
  8
0
 10
152.000000
 20
6.300003
 11
152.000000
 21
-0.899219
  0
LINE
  8
0
 10
152.000000
 20
21.699997
 11
151.499985
 21
21.699997
  0
LINE
  8
0
  6
DASHED
 62
     2
 10
112.782837
 20
-28.869385
 11
112.636154
 21
-31.999989
  0
LINE
  8
0
  6
DASHED
 62
     2
 10
113.216995
 20
-28.869385
 11
113.216995
 21
-32.000000
  0
LINE
  8
0
  6
DASHED
 62
     2
 10
121.783005
 20
-28.869385
 11
121.783005
 21
-32.000000
  0
LINE
  8
0
  6
DASHED
 62
     2
 10
122.217636
 20
-28.869385
 11
122.364319
 21
-31.999990
  0
LINE
  8
0
  6
CENTER
 62
     2
 10
117.000000
 20
37.325001
 11
117.000000
 21
23.675003
  0
LINE
  8
0
 10
153.000000
 20
57.999985
 11
153.000000
 21
43.949997
  0
LINE
  8
0
 10
112.000000
 20
-32.000000
 11
151.000000
 21
-32.000000
  0
LINE
  8
0
 10
113.000000
 20
59.999985
 11
151.000000
 21
59.999985
  0
LINE
  8
0
  6
CENTER
 62
     2
 10
121.054321
 20
45.500000
 11
143.158630
 21
45.500000
  0
LINE
  8
0
  6
CENTER
 62
     2
 10
110.175003
 20
30.500000
 11
123.824997
 21
30.500000
  0
LINE
  8
0
 10
111.000000
 20
3.000000
 11
111.000000
 21
-31.000000
  0
LINE
  8
0
 10
153.000000
 20
38.050003
 11
153.000000
 21
25.000000
  0
LINE
  8
0
 10
112.999878
 20
60.000076
 11
110.999870
 21
58.000057
  0
LINE
  8
0
 10
151.000015
 20
-32.000046
 11
153.000015
 21
-30.000042
  0
LINE
  8
0
 10
151.000092
 20
60.000095
 11
153.000092
 21
58.000080
  0
LINE
  8
0
 10
113.000015
 20
22.199997
 11
114.599991
 21
22.199997
  0
LINE
  8
0
 10
112.000000
 20
21.699997
 11
112.500015
 21
21.699997
  0
LINE
  8
0
 10
112.500061
 20
21.700001
 11
113.000046
 21
22.199989
  0
LINE
  8
0
 10
112.000000
 20
18.500000
 11
112.500015
 21
18.500000
  0
LINE
  8
0
 10
112.499969
 20
18.499918
 11
112.999985
 21
17.999916
  0
LINE
  8
0
 10
113.000015
 20
18.000000
 11
114.599991
 21
18.000000
  0
LINE
  8
0
 10
111.000000
 20
58.000046
 11
111.000000
 21
43.449997
  0
LINE
  8
0
 10
112.000000
 20
24.422653
 11
112.000000
 21
21.699997
  0
LINE
  8
0
 10
112.000000
 20
18.500000
 11
112.000000
 21
9.500000
  0
LINE
  8
0
 10
145.500000
 20
45.149994
 11
150.000000
 21
45.149994
  0
LINE
  8
0
 10
145.500000
 20
36.850006
 11
150.000000
 21
36.850006
  0
LINE
  8
0
 10
150.000000
 20
43.649994
 11
152.699997
 21
43.649994
  0
LINE
  8
0
 10
150.000000
 20
38.350006
 11
152.699997
 21
38.350006
  0
LINE
  8
0
 10
150.000000
 20
45.149994
 11
150.000000
 21
43.649994
  0
LINE
  8
0
 10
150.000000
 20
38.350006
 11
150.000000
 21
36.850006
  0
LINE
  8
0
 10
114.000000
 20
44.649994
 11
114.000000
 21
43.149994
  0
LINE
  8
0
 10
118.000000
 20
44.649994
 11
118.000000
 21
37.350006
  0
LINE
  8
0
 10
114.000000
 20
44.649994
 11
118.000000
 21
44.649994
  0
LINE
  8
0
 10
114.000000
 20
37.350006
 11
118.000000
 21
37.350006
  0
LINE
  8
0
 10
111.300003
 20
38.850006
 11
114.000000
 21
38.850006
  0
LINE
  8
0
 10
111.300003
 20
43.149994
 11
114.000000
 21
43.149994
  0
LINE
  8
0
 10
114.000000
 20
38.850006
 11
114.000000
 21
37.350006
  0
LINE
  8
0
 10
111.000000
 20
38.550003
 11
111.000000
 21
25.000000
  0
LINE
  8
0
 10
145.500000
 20
45.149994
 11
145.500000
 21
36.850006
  0
LINE
  8
0
 10
110.999977
 20
-31.000036
 11
111.999985
 21
-32.000038
  0
LINE
  8
0
 10
113.000015
 20
5.800003
 11
114.599991
 21
5.800003
  0
LINE
  8
0
 10
112.000000
 20
6.300003
 11
112.500015
 21
6.300003
  0
LINE
  8
0
 10
112.500061
 20
6.300035
 11
113.000061
 21
5.800034
  0
LINE
  8
0
 10
112.000000
 20
9.500000
 11
112.500015
 21
9.500000
  0
LINE
  8
0
 10
112.499992
 20
9.500051
 11
113.000000
 21
10.000053
  0
LINE
  8
0
 10
113.000015
 20
10.000000
 11
114.599991
 21
10.000000
  0
LINE
  8
0
 10
112.000000
 20
3.577347
 11
112.000000
 21
6.300003
  0
LINE
  8
0
 10
111.999992
 20
24.422668
 11
110.999977
 21
25.000031
  0
LINE
  8
0
 10
111.999977
 20
3.577363
 11
110.999947
 21
2.999996
  0
LINE
  8
0
 10
152.000015
 20
3.577389
 11
153.000061
 21
3.000018
  0
LINE
  8
0
 10
150.999985
 20
22.199997
 11
149.400009
 21
22.199997
  0
LINE
  8
0
 10
152.000000
 20
21.699997
 11
151.499985
 21
21.699997
  0
LINE
  8
0
 10
151.500046
 20
21.700062
 11
151.000046
 21
22.200064
  0
LINE
  8
0
 10
152.000000
 20
18.500000
 11
151.499985
 21
18.500000
  0
LINE
  8
0
 10
151.499969
 20
18.499990
 11
150.999985
 21
17.999998
  0
LINE
  8
0
 10
150.999985
 20
18.000000
 11
149.400009
 21
18.000000
  0
LINE
  8
0
 10
152.000000
 20
24.422653
 11
152.000000
 21
21.699997
  0
LINE
  8
0
 10
152.000000
 20
18.500000
 11
152.000000
 21
9.500000
  0
LINE
  8
0
 10
150.999985
 20
5.800003
 11
149.400009
 21
5.800003
  0
LINE
  8
0
 10
152.000000
 20
6.300003
 11
151.499985
 21
6.300003
  0
LINE
  8
0
 10
151.499985
 20
6.299942
 11
150.999985
 21
5.799942
  0
LINE
  8
0
 10
152.000000
 20
9.500000
 11
151.499985
 21
9.500000
  0
LINE
  8
0
 10
151.499985
 20
9.499972
 11
150.999985
 21
9.999973
  0
LINE
  8
0
 10
150.999985
 20
10.000000
 11
149.400009
 21
10.000000
  0
LINE
  8
0
 10
152.000000
 20
3.577347
 11
152.000000
 21
6.300003
  0
LINE
  8
0
 10
152.000015
 20
24.422668
 11
153.000015
 21
25.000013
  0
LINE
  8
0
 10
153.000000
 20
-30.000000
 11
153.000000
 21
-15.949997
  0
LINE
  8
0
 10
153.000000
 20
-10.050003
 11
153.000000
 21
3.000000
  0
LINE
  8
0
 10
145.500000
 20
-17.149994
 11
150.000000
 21
-17.149994
  0
LINE
  8
0
 10
145.500000
 20
-8.850006
 11
150.000000
 21
-8.850006
  0
LINE
  8
0
 10
150.000000
 20
-15.649994
 11
152.699997
 21
-15.649994
  0
LINE
  8
0
 10
150.000000
 20
-10.350006
 11
152.699997
 21
-10.350006
  0
LINE
  8
0
 10
150.000000
 20
-17.149994
 11
150.000000
 21
-15.649994
  0
LINE
  8
0
 10
150.000000
 20
-10.350006
 11
150.000000
 21
-8.850006
  0
LINE
  8
0
 10
145.500000
 20
-17.149994
 11
145.500000
 21
-8.850006
  0
LINE
  8
0
  6
CENTER
 62
     2
 10
121.054321
 20
-17.500000
 11
143.158630
 21
-17.500000
  0
LINE
  8
0
  6
CENTER
 62
     2
 10
117.000000
 20
-21.953461
 11
117.000000
 21
-30.418503
  0
LINE
  8
0
  6
CENTER
 62
     2
 10
121.278610
 20
-26.000000
 11
112.643509
 21
-26.000000
  0
LINE
  8
0
  6
CENTER
 62
     2
 10
147.000000
 20
49.953461
 11
147.000000
 21
58.418503
  0
LINE
  8
0
  6
CENTER
 62
     2
 10
151.278610
 20
54.000000
 11
142.643509
 21
54.000000
  0
LINE
  8
0
 10
138.708206
 20
-11.500000
 11
145.500000
 21
-11.500000
  0
LINE
  8
0
 10
140.485291
 20
-14.500000
 11
145.500000
 21
-14.500000
  0
LINE
  8
0
 10
138.708206
 20
39.500000
 11
145.500000
 21
39.500000
  0
LINE
  8
0
 10
140.485291
 20
42.500000
 11
145.500000
 21
42.500000
  0
LINE
  8
0
  6
CENTER
 62
     2
 10
117.000000
 20
49.953461
 11
117.000000
 21
58.418503
  0
LINE
  8
0
  6
CENTER
 62
     2
 10
112.721390
 20
54.000000
 11
121.356491
 21
54.000000
  0
LINE
  8
0
  6
CENTER
 62
     2
 10
144.042114
 20
41.000000
 11
148.158524
 21
41.000000
  0
LINE
  8
0
  6
CENTER
 62
     2
 10
143.889664
 20
-13.000000
 11
147.688660
 21
-13.000000
  0
LINE
  8
0
  6
CENTER
 62
     2
 10
114.000000
 20
41.000000
 11
120.123627
 21
41.000000
  0
LINE
  8
0
  6
CENTER
 62
     2
 10
117.500000
 20
-28.298557
 11
117.500000
 21
-33.820633
  0
LINE
  8
0
  6
CENTER
 62
     2
 10
115.510468
 20
-15.000000
 11
119.597702
 21
-15.000000
  0
LINE
  8
0
  6
CENTER
 62
     2
 10
117.500000
 20
-13.125015
 11
117.500000
 21
-17.017609
  0
LINE
  8
0
  6
CENTER
 62
     2
 10
147.000000
 20
-21.953461
 11
147.000000
 21
-30.418503
  0
LINE
  8
0
  6
CENTER
 62
     2
 10
151.278610
 20
-26.000000
 11
142.643509
 21
-26.000000
  0
LINE
  8
0
 10
113.000000
 20
43.149994
 11
113.000000
 21
38.850006
  0
LINE
  8
0
 10
151.000000
 20
43.649994
 11
151.000000
 21
38.350006
  0
LINE
  8
0
 10
113.000000
 20
22.199997
 11
113.000000
 21
18.000000
  0
LINE
  8
0
 10
113.000000
 20
10.000000
 11
113.000000
 21
5.800003
  0
LINE
  8
0
 10
151.000000
 20
22.199997
 11
151.000000
 21
18.000000
  0
LINE
  8
0
 10
151.000000
 20
10.000000
 11
151.000000
 21
5.800003
  0
LINE
  8
0
 10
151.000000
 20
-10.350006
 11
151.000000
 21
-15.649994
  0
LINE
  8
0
 10
112.000000
 20
28.899220
 11
112.000000
 21
21.699997
  0
LINE
  8
0
 10
152.000000
 20
-4.100780
 11
152.000000
 21
-8.500000
  0
LINE
  8
0
  6
CENTER
 62
     2
 10
132.000000
 20
62.663742
 11
132.000000
 21
-35.729996
  0
LINE
  8
0
  6
CENTER
 62
     2
 10
108.173523
 20
14.000000
 11
155.777618
 21
14.000000
  0
LINE
  8
0
  6
CENTER
 62
     2
 10
147.000000
 20
4.325000
 11
147.000000
 21
-9.324997
  0
LINE
  8
0
  6
CENTER
 62
     2
 10
140.175003
 20
-2.500000
 11
153.824997
 21
-2.500000
  0
LINE
  8
0
 10
-194.250000
 20
132.600006
 11
194.800003
 21
132.600006
  0
LINE
  8
0
 10
194.800003
 20
132.600006
 11
194.800003
 21
-133.500000
  0
LINE
  8
0
 10
-194.250000
 20
132.600006
 11
-194.250000
 21
-133.500000
  0
LINE
  8
0
 10
-194.250000
 20
-133.500000
 11
194.800003
 21
-133.500000
  0
LINE
  8
0
 10
109.800003
 20
-118.500000
 11
109.800003
 21
-133.500000
  0
LINE
  8
0
 10
109.800003
 20
-118.500000
 11
194.800003
 21
-118.500000
  0
LINE
  8
0
 10
109.800003
 20
132.600006
 11
109.800003
 21
117.600006
  0
LINE
  8
0
 10
109.800003
 20
117.600006
 11
194.800003
 21
117.600006
  0
LINE
  8
0
 10
-194.250000
 20
117.600006
 11
-84.250000
 21
117.600006
  0
LINE
  8
0
 10
-84.250000
 20
132.600006
 11
-84.250000
 21
117.600006
  0
LINE
  8
0
 10
-184.250000
 20
-123.500000
 11
-39.250000
 21
-123.500000
  0
LINE
  8
0
 10
-184.250000
 20
-123.500000
 11
-184.250000
 21
-92.500000
  0
LINE
  8
0
 10
-184.250000
 20
-115.500000
 11
-39.250000
 21
-115.500000
  0
LINE
  8
0
 10
-184.250000
 20
-107.500000
 11
-39.250000
 21
-107.500000
  0
LINE
  8
0
 10
-159.250000
 20
-123.500000
 11
-159.250000
 21
-92.500000
  0
LINE
  8
0
 10
-135.250000
 20
-123.500000
 11
-135.250000
 21
-92.500000
  0
LINE
  8
0
 10
-147.250000
 20
-123.500000
 11
-147.250000
 21
-92.500000
  0
LINE
  8
0
 10
-123.250000
 20
-123.500000
 11
-123.250000
 21
-92.500000
  0
LINE
  8
0
 10
-111.250000
 20
-123.500000
 11
-111.250000
 21
-92.500000
  0
LINE
  8
0
 10
-99.250000
 20
-123.500000
 11
-99.250000
 21
-92.500000
  0
LINE
  8
0
 10
-159.250046
 20
-107.500015
 11
-161.929535
 21
-97.500023
  0
LINE
  8
0
 10
-184.250000
 20
-97.500000
 11
-161.929489
 21
-97.500000
  0
LINE
  8
0
 10
-184.250000
 20
-92.500000
 11
-39.250000
 21
-92.500000
  0
LINE
  8
0
 10
-87.250000
 20
-123.500000
 11
-87.250000
 21
-92.500000
  0
LINE
  8
0
 10
-75.250000
 20
-123.500000
 11
-75.250000
 21
-92.500000
  0
LINE
  8
0
 10
-63.250000
 20
-123.500000
 11
-63.250000
 21
-92.500000
  0
LINE
  8
0
 10
-51.250000
 20
-123.500000
 11
-51.250000
 21
-92.500000
  0
LINE
  8
0
 10
-39.250000
 20
-123.500000
 11
-39.250000
 21
-92.500000
  0
ARC
  8
0
 10
20.800018
 20
28.750000
 40
3.500000
 50
269.999969
 51
336.104370
  0
ARC
  8
0
 10
20.800018
 20
32.250000
 40
3.500000
 50
23.895557
 51
89.999969
  0
ARC
  8
0
 10
20.800018
 20
-4.250000
 40
3.500000
 50
269.999969
 51
336.104370
  0
ARC
  8
0
 10
20.800018
 20
-0.750000
 40
3.500000
 50
23.895565
 51
89.999969
  0
ARC
  8
0
 10
-43.500000
 20
14.000000
 40
6.000000
 50
326.442688
 51
33.557331
  0
CIRCLE
  8
0
 10
-10.000000
 20
30.500000
 40
4.750000
  0
CIRCLE
  8
0
 10
-10.000000
 20
30.500000
 40
2.600000
  0
CIRCLE
  8
0
  6
DASHED
 62
     2
 10
-10.000000
 20
30.500000
 40
3.000000
  0
CIRCLE
  8
0
 10
-30.000000
 20
30.500000
 40
4.750000
  0
CIRCLE
  8
0
  6
DASHED
 62
     2
 10
-30.000000
 20
30.500000
 40
3.000000
  0
CIRCLE
  8
0
 10
-30.000000
 20
30.500000
 40
2.600000
  0
CIRCLE
  8
0
 10
-10.000000
 20
-2.500000
 40
4.750000
  0
CIRCLE
  8
0
  6
DASHED
 62
     2
 10
-10.000000
 20
-2.500000
 40
3.000000
  0
CIRCLE
  8
0
 10
-10.000000
 20
-2.500000
 40
2.600000
  0
CIRCLE
  8
0
 10
-30.000000
 20
-2.500000
 40
2.600000
  0
CIRCLE
  8
0
  6
DASHED
 62
     2
 10
-30.000000
 20
-2.500000
 40
3.000000
  0
CIRCLE
  8
0
 10
-30.000000
 20
-2.500000
 40
4.750000
  0
CIRCLE
  8
0
 62
     2
 10
2.000000
 20
-15.000000
 40
4.864004
  0
CIRCLE
  8
0
 10
2.000000
 20
-15.000000
 40
4.283003
  0
CIRCLE
  8
0
 62
     2
 10
-24.000000
 20
-15.000000
 40
4.864004
  0
CIRCLE
  8
0
 10
-24.000000
 20
-15.000000
 40
4.283003
  0
ARC
  8
0
 10
33.481934
 20
14.000000
 40
21.018070
 50
342.412537
 51
17.587467
  0
ARC
  8
0
 10
50.405396
 20
14.000000
 40
10.094605
 50
332.770782
 51
27.229221
  0
ARC
  8
0
 10
64.594360
 20
14.000000
 40
10.094359
 50
152.770081
 51
207.229889
  0
ARC
  8
0
 10
48.877052
 20
23.526278
 40
5.622948
 50
325.616699
 51
0.000000
  0
ARC
  8
0
 10
57.556854
 20
20.928202
 40
2.943146
 50
308.309753
 51
0.000000
  0
ARC
  8
0
 10
57.443092
 20
20.928200
 40
2.943092
 50
179.999969
 51
231.691498
  0
ARC
  8
0
 10
48.877052
 20
4.473722
 40
5.622948
 50
359.999939
 51
34.383251
  0
ARC
  8
0
 10
57.443092
 20
7.071800
 40
2.943093
 50
128.308487
 51
179.999969
  0
ARC
  8
0
 10
57.556854
 20
7.071798
 40
2.943146
 50
359.999939
 51
51.690159
  0
CIRCLE
  8
0
 10
-132.000000
 20
45.500000
 40
5.250000
  0
CIRCLE
  8
0
 10
-132.000000
 20
14.000000
 40
5.250000
  0
CIRCLE
  8
0
 10
-132.000000
 20
45.500000
 40
3.400000
  0
CIRCLE
  8
0
 10
-132.000000
 20
14.000000
 40
3.400000
  0
ARC
  8
0
 10
-152.700012
 20
43.949997
 40
0.300003
 50
180.000000
 51
270.000000
  0
ARC
  8
0
 10
-152.700012
 20
38.050003
 40
0.299999
 50
90.000000
 51
180.000000
  0
ARC
  8
0
 10
-152.700012
 20
-10.050003
 40
0.300003
 50
180.000000
 51
270.000000
  0
ARC
  8
0
 10
-152.700012
 20
-15.949997
 40
0.300000
 50
90.000000
 51
180.000000
  0
ARC
  8
0
 10
-111.299988
 20
43.449997
 40
0.299999
 50
270.000000
 51
0.000000
  0
ARC
  8
0
 10
-111.299988
 20
38.550003
 40
0.300003
 50
0.000000
 51
90.000000
  0
CIRCLE
  8
0
 10
-132.000000
 20
45.500000
 40
5.750000
  0
CIRCLE
  8
0
 10
-132.000000
 20
14.000000
 40
5.750000
  0
CIRCLE
  8
0
 62
     2
 10
-145.000000
 20
-24.000000
 40
3.000000
  0
CIRCLE
  8
0
 10
-145.000000
 20
-24.000000
 40
2.500000
  0
CIRCLE
  8
0
 10
-132.000000
 20
-17.500000
 40
5.750000
  0
CIRCLE
  8
0
 10
-145.000000
 20
52.000000
 40
2.500000
  0
CIRCLE
  8
0
 62
     2
 10
-145.000000
 20
52.000000
 40
3.000000
  0
CIRCLE
  8
0
 10
-119.000000
 20
-24.000000
 40
2.500000
  0
CIRCLE
  8
0
 62
     2
 10
-119.000000
 20
-24.000000
 40
3.000000
  0
CIRCLE
  8
0
 10
-119.000000
 20
52.000000
 40
2.500000
  0
CIRCLE
  8
0
 62
     2
 10
-119.000000
 20
52.000000
 40
3.000000
  0
CIRCLE
  8
0
 10
-132.000000
 20
-17.500000
 40
5.250000
  0
CIRCLE
  8
0
 10
-132.000000
 20
-17.500000
 40
3.400000
  0
CIRCLE
  8
0
 10
132.000000
 20
45.500000
 40
8.000000
  0
CIRCLE
  8
0
 10
132.000000
 20
-17.500000
 40
8.000000
  0
ARC
  8
0
 10
114.600037
 20
20.099998
 40
2.500000
 50
0.000000
 51
90.000000
  0
ARC
  8
0
 10
149.400024
 20
20.099998
 40
2.500000
 50
90.000000
 51
179.999954
  0
ARC
  8
0
 10
149.400024
 20
7.900002
 40
2.500000
 50
179.999985
 51
270.000000
  0
ARC
  8
0
 10
114.600037
 20
7.900002
 40
2.500000
 50
270.000000
 51
0.000000
  0
CIRCLE
  8
0
 10
117.000000
 20
30.500000
 40
5.250000
  0
CIRCLE
  8
0
 10
147.000000
 20
-2.500000
 40
5.250000
  0
CIRCLE
  8
0
 10
132.000000
 20
14.000000
 40
5.000000
  0
CIRCLE
  8
0
 62
     2
 10
132.000000
 20
14.000000
 40
4.400000
  0
CIRCLE
  8
0
 10
132.000000
 20
14.000000
 40
11.000000
  0
CIRCLE
  8
0
 10
132.000000
 20
14.000000
 40
8.000000
  0
CIRCLE
  8
0
 10
147.000000
 20
-2.500000
 40
3.150000
  0
CIRCLE
  8
0
 10
117.000000
 20
30.500000
 40
3.150000
  0
ARC
  8
0
 10
114.599991
 20
20.100006
 40
2.100000
 50
270.000000
 51
90.000000
  0
ARC
  8
0
 10
114.599991
 20
7.899994
 40
2.100000
 50
270.000000
 51
90.000000
  0
ARC
  8
0
 10
149.400009
 20
7.899994
 40
2.100000
 50
90.000000
 51
270.000000
  0
ARC
  8
0
 10
149.400009
 20
20.100006
 40
2.100000
 50
90.000000
 51
270.000000
  0
CIRCLE
  8
0
 10
132.000000
 20
45.500000
 40
9.000000
  0
CIRCLE
  8
0
 10
132.000000
 20
-17.500000
 40
9.000000
  0
CIRCLE
  8
0
 62
     2
 10
117.000000
 20
-26.000000
 40
3.000000
  0
CIRCLE
  8
0
 10
117.000000
 20
-26.000000
 40
2.500000
  0
CIRCLE
  8
0
 62
     2
 10
147.000000
 20
54.000000
 40
3.000000
  0
CIRCLE
  8
0
 10
147.000000
 20
54.000000
 40
2.500000
  0
ARC
  8
0
 10
152.699997
 20
43.949997
 40
0.299999
 50
270.000000
 51
0.000000
  0
ARC
  8
0
 10
152.699997
 20
38.050003
 40
0.300003
 50
0.000000
 51
90.000000
  0
ARC
  8
0
 10
111.300003
 20
43.449997
 40
0.300003
 50
180.000000
 51
270.000000
  0
ARC
  8
0
 10
111.300003
 20
38.550003
 40
0.299999
 50
90.000000
 51
180.000000
  0
ARC
  8
0
 10
152.699997
 20
-15.949997
 40
0.300003
 50
0.000000
 51
90.000000
  0
ARC
  8
0
 10
152.699997
 20
-10.050003
 40
0.300000
 50
270.000000
 51
0.000000
  0
CIRCLE
  8
0
 10
117.500000
 20
-15.000000
 40
1.000000
  0
CIRCLE
  8
0
 62
     2
 10
117.000000
 20
54.000000
 40
3.000000
  0
CIRCLE
  8
0
 10
117.000000
 20
54.000000
 40
2.500000
  0
CIRCLE
  8
0
 62
     2
 10
147.000000
 20
-26.000000
 40
3.000000
  0
CIRCLE
  8
0
 10
147.000000
 20
-26.000000
 40
2.500000
  0
TEXT
  8
0
 10
133.907150
 20
122.050003
 40
4.500000
  1
Ver. 1.0
 50
0.000000
 41
1.052631
 51
0.000000
  7
STANDARD
  0
TEXT
  8
0
 10
113.700279
 20
-130.669998
 40
6.300000
  1
KOGANEI CORP.
 50
0.000000
 41
1.052632
 51
0.000000
  7
STANDARD
  0
TEXT
  8
0
 10
-191.392654
 20
122.050003
 40
4.500000
  1
JIG CYLINDER WITH GUIDE
 50
0.000000
 41
1.052632
 51
0.000000
  7
STANDARD
  0
TEXT
  8
0
 10
-186.892654
 20
104.550003
 40
4.500000
  1
MODEL:SGDAP25*ST(10)
 50
0.000000
 41
1.052632
 51
0.000000
  7
STANDARD
  0
TEXT
  8
0
 62
     3
 10
-11.307142
 20
67.120003
 40
3.200000
  1
STRETCH LINE A
 50
0.000000
 41
1.052632
 51
0.000000
  7
STANDARD
  0
TEXT
  8
0
 62
     3
 10
-27.307001
 20
76.120003
 40
3.200000
  1
STRETCH LINE B
 50
0.000000
 41
1.052632
 51
0.000000
  7
STANDARD
  0
TEXT
  8
0
 10
-181.557144
 20
-96.879997
 40
3.200000
  1
STROKE
 50
0.000000
 41
1.052631
 51
0.000000
  7
STANDARD
  0
TEXT
  8
0
 10
-173.557144
 20
-113.379997
 40
3.200000
  1
A
 50
0.000000
 41
1.052631
 51
0.000000
  7
STANDARD
  0
TEXT
  8
0
 10
-184.496872
 20
-101.019997
 40
3.200000
  1
STRETCH
 50
0.000000
 41
1.052631
 51
0.000000
  7
STANDARD
  0
TEXT
  8
0
 10
-184.496872
 20
-105.820000
 40
3.200000
  1
  PLACE
 50
0.000000
 41
1.052631
 51
0.000000
  7
STANDARD
  0
TEXT
  8
0
 10
-156.657150
 20
-101.879997
 40
3.200000
  1
10
 50
0.000000
 41
1.052631
 51
0.000000
  7
STANDARD
  0
TEXT
  8
0
 10
-144.657150
 20
-101.879997
 40
3.200000
  1
20
 50
0.000000
 41
1.052631
 51
0.000000
  7
STANDARD
  0
TEXT
  8
0
 10
-132.657150
 20
-101.879997
 40
3.200000
  1
30
 50
0.000000
 41
1.052631
 51
0.000000
  7
STANDARD
  0
TEXT
  8
0
 10
-120.657158
 20
-101.879997
 40
3.200000
  1
50
 50
0.000000
 41
1.052631
 51
0.000000
  7
STANDARD
  0
TEXT
  8
0
 10
-108.657158
 20
-101.879997
 40
3.200000
  1
75
 50
0.000000
 41
1.052631
 51
0.000000
  7
STANDARD
  0
TEXT
  8
0
 10
-51.857143
 20
-91.379997
 40
3.200000
  1
(mm)
 50
0.000000
 41
1.052631
 51
0.000000
  7
STANDARD
  0
TEXT
  8
0
 10
-131.157135
 20
-91.379997
 40
3.200000
  1
STRETCH LIST
 50
0.000000
 41
1.052631
 51
0.000000
  7
STANDARD
  0
TEXT
  8
0
 10
-173.557007
 20
-121.379997
 40
3.200000
  1
B
 50
0.000000
 41
1.052632
 51
0.000000
  7
STANDARD
  0
TEXT
  8
0
 10
-98.257156
 20
-101.879997
 40
3.200000
  1
100
 50
0.000000
 41
1.052631
 51
0.000000
  7
STANDARD
  0
TEXT
  8
0
 10
-86.257156
 20
-101.879997
 40
3.200000
  1
125
 50
0.000000
 41
1.052631
 51
0.000000
  7
STANDARD
  0
TEXT
  8
0
 10
-74.257156
 20
-101.879997
 40
3.200000
  1
150
 50
0.000000
 41
1.052631
 51
0.000000
  7
STANDARD
  0
TEXT
  8
0
 10
-62.257156
 20
-101.879997
 40
3.200000
  1
175
 50
0.000000
 41
1.052631
 51
0.000000
  7
STANDARD
  0
TEXT
  8
0
 10
-50.257156
 20
-101.879997
 40
3.200000
  1
200
 50
0.000000
 41
1.052631
 51
0.000000
  7
STANDARD
  0
TEXT
  8
0
 10
-155.057007
 20
-113.379997
 40
3.200000
  1
0
 50
0.000000
 41
1.052632
 51
0.000000
  7
STANDARD
  0
TEXT
  8
0
 10
-143.057007
 20
-113.379997
 40
3.200000
  1
0
 50
0.000000
 41
1.052632
 51
0.000000
  7
STANDARD
  0
TEXT
  8
0
 10
-131.057007
 20
-113.379997
 40
3.200000
  1
0
 50
0.000000
 41
1.052632
 51
0.000000
  7
STANDARD
  0
TEXT
  8
0
 10
-119.056999
 20
-113.379997
 40
3.200000
  1
0
 50
0.000000
 41
1.052632
 51
0.000000
  7
STANDARD
  0
TEXT
  8
0
 10
-108.656998
 20
-113.379997
 40
3.200000
  1
25
 50
0.000000
 41
1.052632
 51
0.000000
  7
STANDARD
  0
TEXT
  8
0
 10
-96.656998
 20
-113.379997
 40
3.200000
  1
50
 50
0.000000
 41
1.052632
 51
0.000000
  7
STANDARD
  0
TEXT
  8
0
 10
-84.656998
 20
-113.379997
 40
3.200000
  1
25
 50
0.000000
 41
1.052632
 51
0.000000
  7
STANDARD
  0
TEXT
  8
0
 10
-72.656998
 20
-113.379997
 40
3.200000
  1
50
 50
0.000000
 41
1.052632
 51
0.000000
  7
STANDARD
  0
TEXT
  8
0
 10
-60.657001
 20
-113.379997
 40
3.200000
  1
75
 50
0.000000
 41
1.052632
 51
0.000000
  7
STANDARD
  0
TEXT
  8
0
 10
-50.257000
 20
-113.379997
 40
3.200000
  1
100
 50
0.000000
 41
1.052632
 51
0.000000
  7
STANDARD
  0
TEXT
  8
0
 10
-155.057007
 20
-121.379997
 40
3.200000
  1
0
 50
0.000000
 41
1.052632
 51
0.000000
  7
STANDARD
  0
TEXT
  8
0
 10
-144.656998
 20
-121.379997
 40
3.200000
  1
10
 50
0.000000
 41
1.052632
 51
0.000000
  7
STANDARD
  0
TEXT
  8
0
 10
-132.656998
 20
-121.379997
 40
3.200000
  1
20
 50
0.000000
 41
1.052632
 51
0.000000
  7
STANDARD
  0
TEXT
  8
0
 10
-120.656998
 20
-121.379997
 40
3.200000
  1
40
 50
0.000000
 41
1.052632
 51
0.000000
  7
STANDARD
  0
TEXT
  8
0
 10
-108.656998
 20
-121.379997
 40
3.200000
  1
40
 50
0.000000
 41
1.052632
 51
0.000000
  7
STANDARD
  0
TEXT
  8
0
 10
-96.656998
 20
-121.379997
 40
3.200000
  1
40
 50
0.000000
 41
1.052632
 51
0.000000
  7
STANDARD
  0
TEXT
  8
0
 10
-84.656998
 20
-121.379997
 40
3.200000
  1
90
 50
0.000000
 41
1.052632
 51
0.000000
  7
STANDARD
  0
TEXT
  8
0
 10
-72.656998
 20
-121.379997
 40
3.200000
  1
90
 50
0.000000
 41
1.052632
 51
0.000000
  7
STANDARD
  0
TEXT
  8
0
 10
-60.657001
 20
-121.379997
 40
3.200000
  1
90
 50
0.000000
 41
1.052632
 51
0.000000
  7
STANDARD
  0
TEXT
  8
0
 10
-48.657001
 20
-121.379997
 40
3.200000
  1
90
 50
0.000000
 41
1.052632
 51
0.000000
  7
STANDARD
  0
TEXT
  8
0
 62
     2
 10
42.055798
 20
-46.000000
 40
3.200000
  1
STROKE=75-200
 50
0.000000
 41
1.052632
 51
0.000000
  7
STANDARD
  0
LINE
  8
0
 62
     2
 10
40.000000
 20
-47.000000
 11
83.405800
 21
-47.000000
  0
LINE
  8
0
 62
     2
 10
12.000000
 20
-47.000000
 11
40.000000
 21
-47.000000
  0
LINE
  8
0
 62
     2
 10
12.000000
 20
-47.000000
 11
14.897778
 21
-46.223541
  0
LINE
  8
0
 62
     2
 10
12.000000
 20
-47.000000
 11
14.897778
 21
-47.776459
  0
LINE
  8
0
 62
     2
 10
40.000000
 20
-47.000000
 11
37.102222
 21
-47.776459
  0
LINE
  8
0
 62
     2
 10
40.000000
 20
-47.000000
 11
37.102222
 21
-46.223541
  0
LINE
  8
0
 62
     2
 10
12.000000
 20
-31.500000
 11
12.000000
 21
-48.500000
  0
LINE
  8
0
 62
     2
 10
40.000000
 20
-25.000000
 11
40.000000
 21
-48.500000
  0
ENDSEC
  0
EOF
