  0
SECTION
  2
HEADER
  0
ENDSEC
  0
SECTION
  2
TABLES
  0
TABLE
  2
LTYPE
 70
     4
  0
LTYPE
  2
CONTINUOUS
 70
    64
  3
Solid line
 72
    65
 73
     0
 40
0.000000
  0
LTYPE
  2
DASHED
 70
    64
  3
__ __ __ __ __ __ __ __ __ __ __ __ __ __ __
 72
    65
 73
     2
 40
3.500000
 49
2.000000
 49
-1.500000
  0
LTYPE
  2
CENTER
 70
    64
  3
____ _ ____ _ ____ _ ____ _ ____ _ ____ _ ____
 72
    65
 73
     4
 40
17.500000
 49
13.000000
 49
-1.500000
 49
1.500000
 49
-1.500000
  0
LTYPE
  2
PHANTOM
 70
    64
  3
_____ _ _ _____ _ _ _____ _ _ _____ _ _ ____  
 72
    65
 73
     6
 40
15.500000
 49
8.000000
 49
-1.500000
 49
1.500000
 49
-1.500000
 49
1.500000
 49
-1.500000
  0
LTYPE
  2
DASHED1
 70
    64
  3
__ __ __ __ __ __ __ __ __ __ __ __ __ __ __
 72
    65
 73
     2
 40
1.500000
 49
1.000000
 49
-0.500000
  0
LTYPE
  2
DASHED2
 70
    64
  3
__ __ __ __ __ __ __ __ __ __ __ __ __ __ __
 72
    65
 73
     2
 40
3.500000
 49
2.500000
 49
-1.000000
  0
LTYPE
  2
DASHED3
 70
    64
  3
__ __ __ __ __ __ __ __ __ __ __ __ __ __ __
 72
    65
 73
     2
 40
6.000000
 49
4.000000
 49
-2.000000
  0
LTYPE
  2
DASHED4
 70
    64
  3
__ __ __ __ __ __ __ __ __ __ __ __ __ __ __
 72
    65
 73
     2
 40
12.000000
 49
10.000000
 49
-2.000000
  0
LTYPE
  2
DASHED5
 70
    64
  3
__ __ __ __ __ __ __ __ __ __ __ __ __ __ __
 72
    65
 73
     2
 40
17.000000
 49
15.000000
 49
-2.000000
  0
LTYPE
  2
DASHED6
 70
    64
  3
__ __ __ __ __ __ __ __ __ __ __ __ __ __ __
 72
    65
 73
     2
 40
29.000000
 49
27.000000
 49
-2.000000
  0
LTYPE
  2
PHANTOM1
 70
    64
  3
_____ _ _ _____ _ _ _____ _ _ _____ _ _ ____  
 72
    65
 73
     6
 40
31.000000
 49
25.000000
 49
-1.500000
 49
1.000000
 49
-1.000000
 49
1.000000
 49
-1.500000
  0
LTYPE
  2
PHANTOM2
 70
    64
  3
_____ _ _ _____ _ _ _____ _ _ _____ _ _ ____  
 72
    65
 73
     6
 40
36.000000
 49
27.000000
 49
-1.500000
 49
2.500000
 49
-1.000000
 49
2.500000
 49
-1.500000
  0
LTYPE
  2
PHANTOM3
 70
    64
  3
_____ _ _ _____ _ _ _____ _ _ _____ _ _ ____  
 72
    65
 73
     6
 40
78.000000
 49
64.000000
 49
-2.000000
 49
4.000000
 49
-2.000000
 49
4.000000
 49
-2.000000
  0
LTYPE
  2
CENTER1
 70
    64
  3
____ _ ____ _ ____ _ ____ _ ____ _ ____ _ ____
 72
    65
 73
     4
 40
19.000000
 49
14.000000
 49
-1.000000
 49
3.000000
 49
-1.000000
  0
LTYPE
  2
CENTER2
 70
    64
  3
____ _ ____ _ ____ _ ____ _ ____ _ ____ _ ____
 72
    65
 73
     4
 40
28.500000
 49
25.000000
 49
-1.000000
 49
1.500000
 49
-1.000000
  0
LTYPE
  2
CENTER3
 70
    64
  3
____ _ ____ _ ____ _ ____ _ ____ _ ____ _ ____
 72
    65
 73
     4
 40
31.500000
 49
27.000000
 49
-1.000000
 49
2.500000
 49
-1.000000
  0
LTYPE
  2
CENTER4
 70
    64
  3
____ _ ____ _ ____ _ ____ _ ____ _ ____ _ ____
 72
    65
 73
     4
 40
50.000000
 49
45.000000
 49
-1.000000
 49
3.000000
 49
-1.000000
  0
LTYPE
  2
CENTER5
 70
    64
  3
____ _ ____ _ ____ _ ____ _ ____ _ ____ _ ____
 72
    65
 73
     4
 40
100.000000
 49
92.000000
 49
-2.000000
 49
4.000000
 49
-2.000000
  0
LTYPE
  2
SBK1
 70
    64
  3
______ _ _ _ ______ _ _ _ ______ _ _ _ _____  
 72
    65
 73
     8
 40
60.500000
 49
45.000000
 49
-2.000000
 49
2.500000
 49
-2.000000
 49
2.500000
 49
-2.000000
 49
2.500000
 49
-2.000000
  0
LTYPE
  2
SBK2
 70
    64
  3
______ _ _ _ ______ _ _ _ ______ _ _ _ _____  
 72
    65
 73
     8
 40
84.000000
 49
64.000000
 49
-2.000000
 49
4.000000
 49
-2.000000
 49
4.000000
 49
-2.000000
 49
4.000000
 49
-2.000000
  0
LTYPE
  2
STCH
 70
    64
  3
__ __ __ __ __ __ __ __ __ __ __ __ __ __ __
 72
    65
 73
     2
 40
3.000000
 49
1.000000
 49
-2.000000
  0
LTYPE
  2
MTCH
 70
    64
  3
_____ _ _ _____ _ _ _____ _ _ _____ _ _ ____  
 72
    65
 73
     6
 40
80.000000
 49
66.000000
 49
-2.000000
 49
4.000000
 49
-2.000000
 49
4.000000
 49
-2.000000
  0
ENDTAB
  0
TABLE
  2
LAYER
 70
     1
  0
LAYER
  2
0
 70
     0
 62
     7
  6
CONTINUOUS
  0
ENDTAB
  0
TABLE
  2
STYLE
 70
     1
  0
STYLE
  2
STANDARD
 70
     0
 40
0.000000
 41
1.000000
 50
0.000000
 71
     0
 42
0.200000
  3
txt
  4
BIGFONT
  0
ENDTAB
  0
TABLE
  2
VIEW
 70
     0
  0
ENDTAB
  0
ENDSEC
  0
SECTION
  2
BLOCKS
  0
ENDSEC
  0
SECTION
  2
ENTITIES
  0
LINE
  8
0
  6
DASHED
 62
     2
 10
11.999996
 20
-5.999943
 11
34.500000
 21
-5.999943
  0
LINE
  8
0
  6
DASHED
 62
     2
 10
11.999996
 20
-20.000004
 11
34.500000
 21
-20.000004
  0
LINE
  8
0
  6
DASHED
 62
     2
 10
35.000000
 20
-6.499947
 11
35.000000
 21
-19.499996
  0
LINE
  8
0
  6
DASHED
 62
     2
 10
34.499996
 20
-5.999957
 11
34.999989
 21
-6.499944
  0
LINE
  8
0
  6
DASHED
 62
     2
 10
34.999992
 20
-19.499996
 11
34.499992
 21
-19.999996
  0
LINE
  8
0
  6
DASHED
 62
     2
 10
34.500000
 20
-5.999943
 11
34.500000
 21
-20.000004
  0
LINE
  8
0
 10
20.000000
 20
37.000004
 11
20.000000
 21
-4.999996
  0
LINE
  8
0
 10
20.000000
 20
11.000003
 11
30.000000
 21
11.000003
  0
LINE
  8
0
 10
30.000000
 20
26.000004
 11
30.000000
 21
6.000003
  0
LINE
  8
0
 10
32.000000
 20
26.000004
 11
32.000000
 21
6.000003
  0
LINE
  8
0
 10
30.000000
 20
6.000003
 11
32.000000
 21
6.000003
  0
LINE
  8
0
 10
42.000000
 20
10.515176
 11
51.151489
 21
10.515176
  0
LINE
  8
0
 10
42.000000
 20
5.030350
 11
51.151489
 21
5.030350
  0
LINE
  8
0
 10
51.151531
 20
5.030350
 11
52.000034
 21
6.500000
  0
LINE
  8
0
 10
32.000000
 20
6.500003
 11
42.000000
 21
6.500003
  0
LINE
  8
0
 10
52.000000
 20
25.500057
 11
52.000000
 21
6.500003
  0
LINE
  8
0
 10
52.984711
 20
12.247228
 11
56.015320
 21
12.247228
  0
LINE
  8
0
 10
52.984711
 20
8.494451
 11
56.015320
 21
8.494451
  0
LINE
  8
0
 10
52.000008
 20
10.200015
 11
52.984711
 21
8.494459
  0
LINE
  8
0
 10
56.015327
 20
8.494442
 11
57.000031
 21
10.199999
  0
LINE
  8
0
 10
58.800018
 20
19.000000
 11
58.800018
 21
13.000003
  0
LINE
  8
0
 10
58.800007
 20
13.000001
 11
57.800007
 21
12.000002
  0
LINE
  8
0
 10
57.000000
 20
21.800007
 11
57.000000
 21
10.200002
  0
LINE
  8
0
 62
     2
 10
57.000000
 20
12.600003
 11
58.400024
 21
12.600003
  0
LINE
  8
0
 10
57.000000
 20
12.000003
 11
57.800018
 21
12.000003
  0
LINE
  8
0
 10
57.800018
 20
20.000004
 11
57.800018
 21
12.000001
  0
LINE
  8
0
 10
42.000000
 20
26.969654
 11
42.000000
 21
5.030350
  0
LINE
  8
0
 10
20.000000
 20
36.250004
 11
20.700012
 21
36.250004
  0
LINE
  8
0
 10
20.799988
 20
36.250004
 11
20.799988
 21
25.750004
  0
LINE
  8
0
 10
20.799988
 20
25.750004
 11
20.000000
 21
25.750004
  0
LINE
  8
0
 10
24.000000
 20
34.167759
 11
24.000000
 21
27.832249
  0
LINE
  8
0
 10
20.000000
 20
-4.249996
 11
20.700012
 21
-4.249996
  0
LINE
  8
0
 10
20.799988
 20
6.250003
 11
20.000000
 21
6.250003
  0
LINE
  8
0
 10
20.799988
 20
6.250003
 11
20.799988
 21
-4.249996
  0
LINE
  8
0
 10
24.000000
 20
4.167758
 11
24.000000
 21
-2.167751
  0
LINE
  8
0
 10
20.000000
 20
21.000004
 11
30.000000
 21
21.000004
  0
LINE
  8
0
 10
30.000000
 20
26.000004
 11
32.000000
 21
26.000004
  0
LINE
  8
0
 10
42.000000
 20
21.484829
 11
51.151489
 21
21.484829
  0
LINE
  8
0
 10
42.000000
 20
26.969654
 11
51.151489
 21
26.969654
  0
LINE
  8
0
 10
51.151550
 20
26.969648
 11
52.000057
 21
25.499990
  0
LINE
  8
0
 10
32.000000
 20
25.500004
 11
42.000000
 21
25.500004
  0
LINE
  8
0
 10
52.984711
 20
19.752777
 11
56.015320
 21
19.752777
  0
LINE
  8
0
 10
52.984711
 20
23.505554
 11
56.015320
 21
23.505554
  0
LINE
  8
0
 10
52.000015
 20
21.799995
 11
52.984718
 21
23.505552
  0
LINE
  8
0
 10
56.015320
 20
23.505562
 11
57.000031
 21
21.799990
  0
LINE
  8
0
 10
58.799988
 20
18.999989
 11
57.799984
 21
19.999990
  0
LINE
  8
0
 62
     2
 10
57.000000
 20
19.400002
 11
58.400024
 21
19.400002
  0
LINE
  8
0
 10
57.000000
 20
20.000004
 11
57.800018
 21
20.000004
  0
LINE
  8
0
 10
11.999996
 20
37.000004
 11
20.000000
 21
37.000004
  0
LINE
  8
0
 10
11.999996
 20
-4.999996
 11
20.000000
 21
-4.999996
  0
LINE
  8
0
 10
11.999996
 20
22.500004
 11
20.000000
 21
22.500004
  0
LINE
  8
0
 10
11.999996
 20
9.500003
 11
20.000000
 21
9.500003
  0
LINE
  8
0
 10
-38.000004
 20
21.000004
 11
-34.000004
 21
21.000004
  0
LINE
  8
0
 10
-38.000004
 20
55.000019
 11
-38.000004
 21
-22.999996
  0
LINE
  8
0
 10
-50.000004
 20
55.000004
 11
-50.000004
 21
-22.999996
  0
LINE
  8
0
 10
-33.500004
 20
57.000004
 11
11.499996
 21
57.000004
  0
LINE
  8
0
 10
-49.000004
 20
56.000019
 11
-39.000004
 21
56.000019
  0
LINE
  8
0
 10
-49.000004
 20
-23.999996
 11
-39.000004
 21
-23.999996
  0
LINE
  8
0
 10
-36.500004
 20
19.000019
 11
-36.500004
 21
13.000018
  0
LINE
  8
0
 10
-38.000004
 20
13.000018
 11
-36.500004
 21
13.000018
  0
LINE
  8
0
 10
-38.000019
 20
17.499855
 11
-36.500065
 21
12.999992
  0
LINE
  8
0
 10
-36.500019
 20
19.000082
 11
-38.000038
 21
14.500018
  0
LINE
  8
0
 10
-38.000004
 20
11.000003
 11
-34.000004
 21
11.000003
  0
LINE
  8
0
  6
CENTER
 62
     2
 10
-52.516113
 20
45.000004
 11
-31.431675
 21
45.000004
  0
LINE
  8
0
 10
-49.999954
 20
-22.999958
 11
-48.999950
 21
-23.999956
  0
LINE
  8
0
 10
-39.000034
 20
-24.000002
 11
-38.000034
 21
-23.000002
  0
LINE
  8
0
 10
-48.999958
 20
55.999966
 11
-49.999958
 21
54.999962
  0
LINE
  8
0
 10
-39.000011
 20
55.999981
 11
-38.000023
 21
54.999992
  0
LINE
  8
0
 10
-33.500031
 20
57.000042
 11
-34.000031
 21
56.500038
  0
LINE
  8
0
 10
11.499976
 20
56.999985
 11
11.999979
 21
56.499985
  0
LINE
  8
0
  6
CENTER
 62
     2
 10
-33.464268
 20
31.000004
 11
-21.884724
 21
31.000004
  0
LINE
  8
0
 10
-34.000004
 20
25.000004
 11
11.999996
 21
25.000004
  0
LINE
  8
0
 10
-34.000004
 20
23.408527
 11
11.999996
 21
23.408527
  0
LINE
  8
0
 10
-34.000004
 20
21.599995
 11
11.999996
 21
21.599995
  0
LINE
  8
0
 10
-34.000004
 20
18.400013
 11
11.999996
 21
18.400013
  0
LINE
  8
0
 10
-34.000004
 20
55.000019
 11
11.999996
 21
55.000019
  0
LINE
  8
0
 10
-38.000004
 20
19.000019
 11
-36.500004
 21
19.000019
  0
LINE
  8
0
  6
CENTER
 62
     2
 10
-52.809620
 20
-12.999981
 11
-31.431675
 21
-12.999981
  0
LINE
  8
0
  6
CENTER
 62
     2
 10
-8.000004
 20
7.049106
 11
-8.000004
 21
-4.876095
  0
LINE
  8
0
  6
CENTER
 62
     2
 10
-28.000004
 20
7.049106
 11
-28.000004
 21
-5.048916
  0
LINE
  8
0
  6
CENTER
 62
     2
 10
-33.464268
 20
1.000003
 11
-21.884724
 21
1.000003
  0
LINE
  8
0
 10
-34.000004
 20
56.500004
 11
-34.000004
 21
-24.499996
  0
LINE
  8
0
 10
11.999996
 20
56.500004
 11
11.999996
 21
-24.499996
  0
LINE
  8
0
  6
CENTER
 62
     2
 10
-52.297562
 20
16.000004
 11
61.100784
 21
16.000004
  0
LINE
  8
0
 10
-33.499989
 20
-24.999996
 11
11.499996
 21
-24.999996
  0
LINE
  8
0
  6
CENTER
 62
     2
 10
-13.934574
 20
1.000003
 11
-1.836552
 21
1.000003
  0
LINE
  8
0
 10
-34.000004
 20
13.600009
 11
11.999996
 21
13.600009
  0
LINE
  8
0
 10
-34.000004
 20
10.399997
 11
11.999996
 21
10.399997
  0
LINE
  8
0
 10
-34.000004
 20
8.591495
 11
11.999996
 21
8.591495
  0
LINE
  8
0
 10
-34.000004
 20
7.000003
 11
11.999996
 21
7.000003
  0
LINE
  8
0
 10
-34.000004
 20
-23.999996
 11
11.999996
 21
-23.999996
  0
LINE
  8
0
  6
CENTER
 62
     2
 10
-3.934990
 20
-10.999996
 11
8.990067
 21
-10.999996
  0
LINE
  8
0
 10
12.000009
 20
-24.500004
 11
11.500009
 21
-25.000006
  0
LINE
  8
0
 10
-33.999950
 20
-24.499943
 11
-33.499931
 21
-24.999947
  0
LINE
  8
0
  6
CENTER
 62
     2
 10
1.999996
 20
-4.705177
 11
1.999996
 21
-17.809402
  0
LINE
  8
0
  6
DASHED
 62
     2
 10
-27.283009
 20
-21.984905
 11
-27.283009
 21
-24.999996
  0
LINE
  8
0
  6
DASHED
 62
     2
 10
-27.722691
 20
-21.984909
 11
-27.863960
 21
-24.999989
  0
LINE
  8
0
  6
DASHED
 62
     2
 10
-18.716999
 20
-21.984905
 11
-18.716999
 21
-24.999996
  0
LINE
  8
0
  6
CENTER
 62
     2
 10
-28.891270
 20
-10.999996
 11
-17.067219
 21
-10.999996
  0
LINE
  8
0
  6
DASHED
 62
     2
 10
-18.277145
 20
-21.984909
 11
-18.135878
 21
-24.999950
  0
LINE
  8
0
  6
DASHED
 62
     2
 10
-12.283009
 20
-21.984905
 11
-12.283009
 21
-24.999996
  0
LINE
  8
0
  6
DASHED
 62
     2
 10
-12.722719
 20
-21.984905
 11
-12.863990
 21
-25.000004
  0
LINE
  8
0
  6
DASHED
 62
     2
 10
-3.277112
 20
-21.984911
 11
-3.135843
 21
-25.000004
  0
LINE
  8
0
  6
DASHED
 62
     2
 10
-3.716999
 20
-21.984905
 11
-3.716999
 21
-24.999996
  0
LINE
  8
0
  6
CENTER
 62
     2
 10
-23.000004
 20
-4.771896
 11
-23.000004
 21
-17.416611
  0
LINE
  8
0
  6
CENTER
 62
     2
 10
-23.000004
 20
-20.850716
 11
-23.000004
 21
-25.914227
  0
LINE
  8
0
  6
CENTER
 62
     2
 10
-28.000004
 20
37.242161
 11
-28.000004
 21
24.726154
  0
LINE
  8
0
  6
CENTER
 62
     2
 10
-8.000004
 20
37.118244
 11
-8.000004
 21
24.726154
  0
LINE
  8
0
  6
CENTER
 62
     2
 10
-14.359840
 20
31.000004
 11
-1.719913
 21
31.000004
  0
LINE
  8
0
 10
-34.000004
 20
45.149998
 11
11.999996
 21
45.149998
  0
LINE
  8
0
 10
-34.000004
 20
40.850010
 11
11.999996
 21
40.850010
  0
LINE
  8
0
  6
DASHED
 62
     2
 10
11.999996
 20
37.999950
 11
34.500000
 21
37.999950
  0
LINE
  8
0
  6
DASHED
 62
     2
 10
34.500000
 20
37.999950
 11
34.500000
 21
52.000011
  0
LINE
  8
0
  6
DASHED
 62
     2
 10
35.000000
 20
38.499954
 11
35.000000
 21
51.500004
  0
LINE
  8
0
  6
DASHED
 62
     2
 10
34.499996
 20
37.999958
 11
34.999989
 21
38.499950
  0
LINE
  8
0
  6
DASHED
 62
     2
 10
11.999996
 20
52.000011
 11
34.500000
 21
52.000011
  0
LINE
  8
0
  6
DASHED
 62
     2
 10
34.999973
 20
51.499996
 11
34.499977
 21
51.999996
  0
LINE
  8
0
 10
-38.000004
 20
-5.999966
 11
-34.000004
 21
-5.999966
  0
LINE
  8
0
 10
-38.000004
 20
-20.000027
 11
-34.000004
 21
-20.000027
  0
LINE
  8
0
 10
-38.000004
 20
52.000034
 11
-34.000004
 21
52.000034
  0
LINE
  8
0
 10
-38.000004
 20
37.999973
 11
-34.000004
 21
37.999973
  0
LINE
  8
0
  6
PHANTOM
 62
     3
 10
-16.500000
 20
72.000000
 11
-16.500000
 21
-30.800003
  0
LINE
  8
0
  6
PHANTOM
 62
     3
 10
-14.000000
 20
-6.400002
 11
-1.000000
 21
-6.400002
  0
LINE
  8
0
  6
PHANTOM
 62
     3
 10
-14.000000
 20
-6.400002
 11
-14.000000
 21
-30.800003
  0
LINE
  8
0
  6
PHANTOM
 62
     3
 10
-1.000000
 20
65.000000
 11
-1.000000
 21
-6.400002
  0
LINE
  8
0
  6
CENTER
 62
     2
 10
-8.000004
 20
-20.850716
 11
-8.000004
 21
-25.914227
  0
LINE
  8
0
 10
-151.000000
 20
55.000000
 11
-151.000000
 21
45.649994
  0
LINE
  8
0
 10
-112.000000
 20
-25.000000
 11
-149.000000
 21
-25.000000
  0
LINE
  8
0
 10
-113.000000
 20
57.000000
 11
-149.000000
 21
57.000000
  0
LINE
  8
0
 10
-111.000000
 20
7.000015
 11
-111.000000
 21
-24.000000
  0
LINE
  8
0
 10
-151.000000
 20
40.350006
 11
-151.000000
 21
24.999985
  0
LINE
  8
0
 10
-112.999924
 20
57.000069
 11
-110.999924
 21
55.000065
  0
LINE
  8
0
 10
-149.000031
 20
-25.000034
 11
-151.000031
 21
-23.000036
  0
LINE
  8
0
 10
-149.000031
 20
57.000034
 11
-151.000031
 21
55.000019
  0
LINE
  8
0
 10
-111.000000
 20
55.000031
 11
-111.000000
 21
45.149994
  0
LINE
  8
0
 10
-113.000008
 20
8.129911
 11
-111.000031
 21
6.999949
  0
LINE
  8
0
 10
-113.000038
 20
23.870090
 11
-111.000038
 21
25.000065
  0
LINE
  8
0
 10
-149.000015
 20
23.870005
 11
-150.999985
 21
24.999971
  0
LINE
  8
0
 10
-149.000015
 20
8.130115
 11
-151.000015
 21
7.000137
  0
LINE
  8
0
 10
-149.000000
 20
45.649994
 11
-151.000000
 21
45.649994
  0
LINE
  8
0
 10
-149.000000
 20
40.350006
 11
-151.000000
 21
40.350006
  0
LINE
  8
0
 10
-111.000000
 20
40.850006
 11
-113.000000
 21
40.850006
  0
LINE
  8
0
 10
-111.000000
 20
45.149994
 11
-113.000000
 21
45.149994
  0
LINE
  8
0
 10
-111.000000
 20
40.850006
 11
-111.000000
 21
24.999977
  0
LINE
  8
0
 10
-149.000000
 20
-13.650002
 11
-151.000000
 21
-13.650002
  0
LINE
  8
0
 10
-149.000000
 20
-8.349998
 11
-151.000000
 21
-8.349998
  0
LINE
  8
0
 10
-151.000000
 20
-8.349998
 11
-151.000000
 21
7.000015
  0
LINE
  8
0
 10
-151.000000
 20
-23.000000
 11
-151.000000
 21
-13.650002
  0
LINE
  8
0
 10
-110.999985
 20
-24.000010
 11
-111.999985
 21
-25.000011
  0
LINE
  8
0
 10
-148.000000
 20
56.000000
 11
-114.000000
 21
56.000000
  0
LINE
  8
0
 10
-148.000000
 20
-24.000000
 11
-114.000000
 21
-24.000000
  0
LINE
  8
0
 10
-147.999954
 20
55.999969
 11
-148.999954
 21
54.999966
  0
LINE
  8
0
 10
-113.999931
 20
56.000080
 11
-112.999939
 21
55.000092
  0
LINE
  8
0
 10
-148.999954
 20
-22.999968
 11
-147.999954
 21
-23.999969
  0
LINE
  8
0
 10
-113.000000
 20
-22.999987
 11
-114.000000
 21
-23.999989
  0
LINE
  8
0
  6
CENTER
 62
     2
 10
-143.000000
 20
-21.553108
 11
-143.000000
 21
-12.512543
  0
LINE
  8
0
  6
CENTER
 62
     2
 10
-147.666290
 20
-17.000000
 11
-138.432892
 21
-17.000000
  0
LINE
  8
0
  6
CENTER
 62
     2
 10
-148.428070
 20
49.000000
 11
-137.033188
 21
49.000000
  0
LINE
  8
0
  6
CENTER
 62
     2
 10
-119.000000
 20
-21.603226
 11
-119.000000
 21
-12.512543
  0
LINE
  8
0
 10
-130.999969
 20
47.309322
 11
-132.999969
 21
46.154621
  0
LINE
  8
0
 10
-133.000000
 20
46.154701
 11
-133.000000
 21
43.845299
  0
LINE
  8
0
 10
-130.999969
 20
42.690605
 11
-132.999969
 21
43.845310
  0
LINE
  8
0
 10
-128.999939
 20
43.845203
 11
-130.999939
 21
42.690502
  0
LINE
  8
0
 10
-129.000000
 20
46.154701
 11
-129.000000
 21
43.845299
  0
LINE
  8
0
 10
-130.999985
 20
47.309422
 11
-128.999985
 21
46.154720
  0
LINE
  8
0
 10
-130.999985
 20
18.309420
 11
-129.000000
 21
17.154728
  0
LINE
  8
0
 10
-130.999969
 20
18.309362
 11
-132.999985
 21
17.154659
  0
LINE
  8
0
 10
-133.000000
 20
17.154701
 11
-133.000000
 21
14.845299
  0
LINE
  8
0
 10
-130.999954
 20
13.690616
 11
-132.999954
 21
14.845318
  0
LINE
  8
0
 10
-128.999969
 20
14.845230
 11
-130.999969
 21
13.690529
  0
LINE
  8
0
 10
-129.000000
 20
17.154701
 11
-129.000000
 21
14.845299
  0
LINE
  8
0
 10
-130.999939
 20
-10.690583
 11
-128.999954
 21
-11.845279
  0
LINE
  8
0
 10
-130.999985
 20
-10.690628
 11
-132.999985
 21
-11.845330
  0
LINE
  8
0
 10
-133.000000
 20
-11.845299
 11
-133.000000
 21
-14.154701
  0
LINE
  8
0
 10
-130.999969
 20
-15.309379
 11
-132.999969
 21
-14.154676
  0
LINE
  8
0
 10
-128.999954
 20
-14.154729
 11
-130.999969
 21
-15.309441
  0
LINE
  8
0
 10
-129.000000
 20
-11.845299
 11
-129.000000
 21
-14.154701
  0
LINE
  8
0
 10
-113.000000
 20
55.000004
 11
-113.000000
 21
-23.000000
  0
LINE
  8
0
 10
-149.000000
 20
55.000000
 11
-149.000000
 21
-23.000000
  0
LINE
  8
0
  6
CENTER
 62
     2
 10
-131.000000
 20
60.071976
 11
-131.000000
 21
-27.893639
  0
LINE
  8
0
  6
CENTER
 62
     2
 10
-152.247726
 20
16.000000
 11
-109.471771
 21
16.000000
  0
LINE
  8
0
  6
CENTER
 62
     2
 10
-143.000000
 20
53.874393
 11
-143.000000
 21
44.104095
  0
LINE
  8
0
  6
CENTER
 62
     2
 10
-119.000000
 20
53.805099
 11
-119.000000
 21
44.311974
  0
LINE
  8
0
  6
CENTER
 62
     2
 10
-123.769547
 20
49.000000
 11
-114.137833
 21
49.000000
  0
LINE
  8
0
  6
CENTER
 62
     2
 10
-138.390335
 20
45.000000
 11
-123.423080
 21
45.000000
  0
LINE
  8
0
  6
CENTER
 62
     2
 10
-123.103592
 20
-17.000000
 11
-114.716721
 21
-17.000000
  0
LINE
  8
0
  6
CENTER
 62
     2
 10
-138.251846
 20
-13.000000
 11
-123.707764
 21
-13.000000
  0
LINE
  8
0
 10
104.999992
 20
32.154648
 11
106.999985
 21
33.309341
  0
LINE
  8
0
 10
105.000000
 20
32.154701
 11
105.000000
 21
29.845299
  0
LINE
  8
0
 10
105.000038
 20
29.845415
 11
107.000023
 21
28.690723
  0
LINE
  8
0
 10
110.500000
 20
21.484829
 11
110.500000
 21
10.515173
  0
LINE
  8
0
 10
110.500015
 20
21.484810
 11
119.999992
 21
26.969624
  0
LINE
  8
0
 10
113.500015
 20
19.752754
 11
120.000008
 21
23.505524
  0
LINE
  8
0
 10
113.500000
 20
19.752777
 11
113.500000
 21
12.247223
  0
LINE
  8
0
 10
113.500000
 20
12.247265
 11
119.999992
 21
8.494492
  0
LINE
  8
0
 10
110.499992
 20
10.515195
 11
120.000000
 21
5.030362
  0
LINE
  8
0
 10
120.000038
 20
5.030315
 11
129.500031
 21
10.515138
  0
LINE
  8
0
 10
120.000023
 20
8.494422
 11
126.500008
 21
12.247191
  0
LINE
  8
0
 10
129.500000
 20
21.484829
 11
129.500000
 21
10.515173
  0
LINE
  8
0
 10
126.500000
 20
19.752777
 11
126.500000
 21
12.247223
  0
LINE
  8
0
 10
119.999969
 20
23.505636
 11
126.499985
 21
19.752851
  0
LINE
  8
0
 10
120.000000
 20
26.969727
 11
129.499985
 21
21.484911
  0
LINE
  8
0
 10
131.000000
 20
2.154701
 11
131.000000
 21
-0.154701
  0
LINE
  8
0
 10
130.999985
 20
-0.154629
 11
132.999969
 21
-1.309321
  0
LINE
  8
0
 10
133.000031
 20
-1.309484
 11
135.000015
 21
-0.154793
  0
LINE
  8
0
 10
135.000000
 20
2.154701
 11
135.000000
 21
-0.154701
  0
LINE
  8
0
 10
132.999985
 20
3.309488
 11
134.999969
 21
2.154793
  0
LINE
  8
0
 10
131.000000
 20
2.154642
 11
133.000000
 21
3.309334
  0
LINE
  8
0
 10
135.101227
 20
9.500000
 11
137.500000
 21
9.500000
  0
LINE
  8
0
 10
132.601227
 20
20.000000
 11
132.601227
 21
12.000000
  0
LINE
  8
0
 10
135.101227
 20
22.500000
 11
137.500000
 21
22.500000
  0
LINE
  8
0
 10
106.999985
 20
28.690533
 11
108.999977
 21
29.845228
  0
LINE
  8
0
 10
109.000000
 20
32.154701
 11
109.000000
 21
29.845299
  0
LINE
  8
0
 10
107.000076
 20
33.309521
 11
109.000038
 21
32.154842
  0
LINE
  8
0
 10
102.500000
 20
22.500000
 11
104.898773
 21
22.500000
  0
LINE
  8
0
 10
107.398773
 20
20.000000
 11
107.398773
 21
12.000000
  0
LINE
  8
0
 10
102.500000
 20
9.500000
 11
104.898773
 21
9.500000
  0
LINE
  8
0
 10
102.500000
 20
37.000000
 11
137.500000
 21
37.000000
  0
LINE
  8
0
 10
102.500000
 20
-5.000000
 11
137.500000
 21
-5.000000
  0
LINE
  8
0
 10
102.500000
 20
37.000000
 11
102.500000
 21
33.704163
  0
LINE
  8
0
 10
137.500000
 20
37.000000
 11
137.500000
 21
22.500000
  0
LINE
  8
0
 10
102.500000
 20
9.500000
 11
102.500000
 21
-5.000000
  0
LINE
  8
0
 10
137.500000
 20
9.500000
 11
137.500000
 21
3.704164
  0
LINE
  8
0
 10
101.000000
 20
-25.000000
 11
138.000000
 21
-25.000000
  0
LINE
  8
0
 10
102.000000
 20
57.000000
 11
138.000000
 21
57.000000
  0
LINE
  8
0
  6
CENTER
 62
     2
 10
110.043839
 20
45.000000
 11
130.492874
 21
45.000000
  0
LINE
  8
0
  6
CENTER
 62
     2
 10
102.913284
 20
52.000000
 11
111.356491
 21
52.000000
  0
LINE
  8
0
  6
CENTER
 62
     2
 10
109.206543
 20
-13.000000
 11
131.190002
 21
-13.000000
  0
LINE
  8
0
 10
101.999908
 20
57.000050
 11
99.999908
 21
55.000046
  0
LINE
  8
0
 10
138.000015
 20
-25.000023
 11
140.000015
 21
-23.000017
  0
LINE
  8
0
 10
138.000076
 20
57.000046
 11
140.000076
 21
55.000038
  0
LINE
  8
0
 10
103.298798
 20
22.100006
 11
104.898773
 21
22.100006
  0
LINE
  8
0
 10
102.298782
 20
21.600006
 11
102.798798
 21
21.600006
  0
LINE
  8
0
 10
102.798843
 20
21.599991
 11
103.298828
 21
22.099979
  0
LINE
  8
0
 10
102.298782
 20
18.399994
 11
102.798798
 21
18.399994
  0
LINE
  8
0
 10
102.798744
 20
18.399960
 11
103.298744
 21
17.899960
  0
LINE
  8
0
 10
103.298798
 20
17.899994
 11
104.898773
 21
17.899994
  0
LINE
  8
0
 10
102.298782
 20
10.399994
 11
102.798798
 21
10.399994
  0
LINE
  8
0
 10
102.798775
 20
10.399995
 11
103.298767
 21
9.900000
  0
LINE
  8
0
 10
103.298798
 20
9.899994
 11
104.898773
 21
9.899994
  0
LINE
  8
0
 10
103.298798
 20
14.100006
 11
104.898773
 21
14.100006
  0
LINE
  8
0
 10
102.798775
 20
13.600070
 11
103.298782
 21
14.100072
  0
LINE
  8
0
 10
102.298782
 20
13.600006
 11
102.798798
 21
13.600006
  0
LINE
  8
0
 10
137.201279
 20
21.600016
 11
136.701263
 21
22.100014
  0
LINE
  8
0
 10
136.701202
 20
22.100006
 11
135.101227
 21
22.100006
  0
LINE
  8
0
 10
136.701202
 20
17.899994
 11
135.101227
 21
17.899994
  0
LINE
  8
0
 10
137.201096
 20
18.400000
 11
136.701096
 21
17.900009
  0
LINE
  8
0
 10
137.201202
 20
10.400020
 11
136.701202
 21
9.900007
  0
LINE
  8
0
 10
136.701202
 20
9.899994
 11
135.101227
 21
9.899994
  0
LINE
  8
0
 10
136.701202
 20
14.100006
 11
135.101227
 21
14.100006
  0
LINE
  8
0
 10
137.201477
 20
13.600167
 11
136.701477
 21
14.100167
  0
LINE
  8
0
  6
CENTER
 62
     2
 10
107.000000
 20
-15.953461
 11
107.000000
 21
-24.060440
  0
LINE
  8
0
 10
100.000000
 20
55.000031
 11
100.000000
 21
45.149994
  0
LINE
  8
0
 10
102.298813
 20
8.298773
 11
100.000046
 21
7.000002
  0
LINE
  8
0
 10
102.298828
 20
23.701307
 11
100.000069
 21
25.000074
  0
LINE
  8
0
 10
102.298782
 20
23.701233
 11
102.298782
 21
21.600006
  0
LINE
  8
0
 10
102.298782
 20
18.399994
 11
102.298782
 21
13.600006
  0
LINE
  8
0
 10
102.298782
 20
10.399994
 11
102.298782
 21
8.298782
  0
LINE
  8
0
 10
137.701279
 20
23.701248
 11
140.000031
 21
25.000006
  0
LINE
  8
0
 10
137.701233
 20
23.701233
 11
137.701233
 21
21.600006
  0
LINE
  8
0
 10
137.701218
 20
21.600006
 11
137.201202
 21
21.600006
  0
LINE
  8
0
 10
137.701218
 20
18.399994
 11
137.201202
 21
18.399994
  0
LINE
  8
0
 10
137.701233
 20
18.399994
 11
137.701233
 21
13.600006
  0
LINE
  8
0
 10
137.701218
 20
13.600006
 11
137.201202
 21
13.600006
  0
LINE
  8
0
 10
137.701218
 20
10.399994
 11
137.201202
 21
10.399994
  0
LINE
  8
0
 10
137.701233
 20
10.399994
 11
137.701233
 21
8.298782
  0
LINE
  8
0
 10
137.701279
 20
8.298799
 11
140.000046
 21
7.000040
  0
LINE
  8
0
  6
CENTER
 62
     2
 10
102.626694
 20
-20.000000
 11
111.069885
 21
-20.000000
  0
LINE
  8
0
  6
CENTER
 62
     2
 10
129.010468
 20
52.000000
 11
137.069885
 21
52.000000
  0
LINE
  8
0
  6
CENTER
 62
     2
 10
107.000000
 20
47.953461
 11
107.000000
 21
56.418503
  0
LINE
  8
0
  6
CENTER
 62
     2
 10
133.000000
 20
47.953461
 11
133.000000
 21
56.060440
  0
LINE
  8
0
 10
140.000000
 20
55.000000
 11
140.000000
 21
45.649994
  0
LINE
  8
0
 10
137.000000
 20
47.149994
 11
137.000000
 21
45.649994
  0
LINE
  8
0
 10
132.500000
 20
47.149994
 11
137.000000
 21
47.149994
  0
LINE
  8
0
 10
137.000000
 20
45.649994
 11
140.000000
 21
45.649994
  0
LINE
  8
0
 10
132.500000
 20
47.149994
 11
132.500000
 21
38.850006
  0
LINE
  8
0
 10
132.500000
 20
38.850006
 11
137.000000
 21
38.850006
  0
LINE
  8
0
 10
137.000000
 20
40.350006
 11
137.000000
 21
38.850006
  0
LINE
  8
0
 10
137.000000
 20
40.350006
 11
140.000000
 21
40.350006
  0
LINE
  8
0
 10
140.000000
 20
40.350006
 11
140.000000
 21
24.999985
  0
LINE
  8
0
 10
140.000000
 20
-8.350006
 11
140.000000
 21
7.000015
  0
LINE
  8
0
 10
137.000000
 20
-8.350006
 11
140.000000
 21
-8.350006
  0
LINE
  8
0
 10
137.000000
 20
-8.350006
 11
137.000000
 21
-6.850006
  0
LINE
  8
0
 10
132.500000
 20
-6.850006
 11
137.000000
 21
-6.850006
  0
LINE
  8
0
 10
132.500000
 20
-15.149994
 11
137.000000
 21
-15.149994
  0
LINE
  8
0
 10
137.000000
 20
-15.149994
 11
137.000000
 21
-13.649994
  0
LINE
  8
0
 10
137.000000
 20
-13.649994
 11
140.000000
 21
-13.649994
  0
LINE
  8
0
 10
140.000000
 20
-23.000000
 11
140.000000
 21
-13.649994
  0
LINE
  8
0
 10
100.000000
 20
45.149994
 11
103.000000
 21
45.149994
  0
LINE
  8
0
 10
100.000000
 20
40.850006
 11
103.000000
 21
40.850006
  0
LINE
  8
0
 10
103.000000
 20
40.850006
 11
103.000000
 21
39.350006
  0
LINE
  8
0
 10
107.000000
 20
46.649994
 11
107.000000
 21
39.350006
  0
LINE
  8
0
 10
103.000000
 20
46.649994
 11
107.000000
 21
46.649994
  0
LINE
  8
0
 10
103.000000
 20
39.350006
 11
107.000000
 21
39.350006
  0
LINE
  8
0
 10
100.000000
 20
40.850006
 11
100.000000
 21
24.999969
  0
LINE
  8
0
 10
103.000000
 20
45.149994
 11
103.000000
 21
46.649994
  0
LINE
  8
0
 10
100.000000
 20
-24.000000
 11
100.000000
 21
7.000031
  0
LINE
  8
0
 10
100.000023
 20
-24.000019
 11
101.000031
 21
-25.000013
  0
LINE
  8
0
  6
DASHED
 62
     2
 10
101.777481
 20
-21.984917
 11
101.636215
 21
-24.999962
  0
LINE
  8
0
  6
DASHED
 62
     2
 10
102.216995
 20
-21.984909
 11
102.216995
 21
-25.000000
  0
LINE
  8
0
  6
DASHED
 62
     2
 10
110.783005
 20
-21.984909
 11
110.783005
 21
-25.000000
  0
LINE
  8
0
  6
DASHED
 62
     2
 10
111.223038
 20
-21.984907
 11
111.364304
 21
-24.999949
  0
LINE
  8
0
 10
132.500000
 20
-6.850006
 11
132.500000
 21
-15.149994
  0
LINE
  8
0
  6
CENTER
 62
     2
 10
131.071365
 20
-11.000000
 11
134.160873
 21
-11.000000
  0
LINE
  8
0
  6
CENTER
 62
     2
 10
131.409424
 20
43.000000
 11
134.554001
 21
43.000000
  0
LINE
  8
0
 10
127.984360
 20
44.500000
 11
132.500000
 21
44.500000
  0
LINE
  8
0
 10
127.193756
 20
41.500000
 11
132.500000
 21
41.500000
  0
LINE
  8
0
 10
127.193756
 20
-9.500000
 11
132.500000
 21
-9.500000
  0
LINE
  8
0
 10
127.984360
 20
-12.500000
 11
132.500000
 21
-12.500000
  0
LINE
  8
0
  6
CENTER
 62
     2
 10
108.000000
 20
-9.143341
 11
108.000000
 21
-12.956879
  0
LINE
  8
0
  6
CENTER
 62
     2
 10
106.500000
 20
-20.994595
 11
106.500000
 21
-25.884735
  0
LINE
  8
0
  6
CENTER
 62
     2
 10
106.108856
 20
-11.000000
 11
109.960510
 21
-11.000000
  0
LINE
  8
0
  6
CENTER
 62
     2
 10
133.000000
 20
-15.953461
 11
133.000000
 21
-24.060440
  0
LINE
  8
0
  6
CENTER
 62
     2
 10
128.626694
 20
-20.000000
 11
137.069885
 21
-20.000000
  0
LINE
  8
0
  6
CENTER
 62
     2
 10
103.000000
 20
43.000000
 11
108.350128
 21
43.000000
  0
LINE
  8
0
 10
138.000000
 20
45.649994
 11
138.000000
 21
40.350006
  0
LINE
  8
0
 10
102.000000
 20
45.149994
 11
102.000000
 21
40.850006
  0
LINE
  8
0
 10
102.000000
 20
23.870071
 11
102.000000
 21
8.129974
  0
LINE
  8
0
 10
138.000000
 20
23.870026
 11
138.000000
 21
8.130066
  0
LINE
  8
0
 10
138.000000
 20
-8.350006
 11
138.000000
 21
-13.649994
  0
LINE
  8
0
 10
137.500000
 20
-1.704163
 11
137.500000
 21
-5.000000
  0
LINE
  8
0
 10
102.500000
 20
28.295837
 11
102.500000
 21
22.500000
  0
LINE
  8
0
  6
CENTER
 62
     2
 10
120.000000
 20
59.663757
 11
120.000000
 21
-28.309998
  0
LINE
  8
0
  6
CENTER
 62
     2
 10
98.461182
 20
16.000000
 11
141.137253
 21
16.000000
  0
LINE
  8
0
  6
CENTER
 62
     2
 10
107.000000
 20
37.930000
 11
107.000000
 21
24.069998
  0
LINE
  8
0
  6
CENTER
 62
     2
 10
100.070000
 20
31.000000
 11
113.930000
 21
31.000000
  0
LINE
  8
0
  6
CENTER
 62
     2
 10
133.000000
 20
7.930000
 11
133.000000
 21
-5.930002
  0
LINE
  8
0
  6
CENTER
 62
     2
 10
126.070000
 20
1.000000
 11
139.929993
 21
1.000000
  0
LINE
  8
0
 10
-194.250000
 20
132.600006
 11
194.800003
 21
132.600006
  0
LINE
  8
0
 10
194.800003
 20
132.600006
 11
194.800003
 21
-133.500000
  0
LINE
  8
0
 10
-194.250000
 20
132.600006
 11
-194.250000
 21
-133.500000
  0
LINE
  8
0
 10
-194.250000
 20
-133.500000
 11
194.800003
 21
-133.500000
  0
LINE
  8
0
 10
109.800003
 20
-118.500000
 11
109.800003
 21
-133.500000
  0
LINE
  8
0
 10
109.800003
 20
-118.500000
 11
194.800003
 21
-118.500000
  0
LINE
  8
0
 10
109.800003
 20
132.600006
 11
109.800003
 21
117.600006
  0
LINE
  8
0
 10
109.800003
 20
117.600006
 11
194.800003
 21
117.600006
  0
LINE
  8
0
 10
-194.250000
 20
117.600006
 11
-84.250000
 21
117.600006
  0
LINE
  8
0
 10
-84.250000
 20
132.600006
 11
-84.250000
 21
117.600006
  0
LINE
  8
0
 10
-184.250000
 20
-123.500000
 11
-39.250000
 21
-123.500000
  0
LINE
  8
0
 10
-184.250000
 20
-123.500000
 11
-184.250000
 21
-92.500000
  0
LINE
  8
0
 10
-184.250000
 20
-115.500000
 11
-39.250000
 21
-115.500000
  0
LINE
  8
0
 10
-184.250000
 20
-107.500000
 11
-39.250000
 21
-107.500000
  0
LINE
  8
0
 10
-159.250000
 20
-123.500000
 11
-159.250000
 21
-92.500000
  0
LINE
  8
0
 10
-135.250000
 20
-123.500000
 11
-135.250000
 21
-92.500000
  0
LINE
  8
0
 10
-147.250000
 20
-123.500000
 11
-147.250000
 21
-92.500000
  0
LINE
  8
0
 10
-123.250000
 20
-123.500000
 11
-123.250000
 21
-92.500000
  0
LINE
  8
0
 10
-111.250000
 20
-123.500000
 11
-111.250000
 21
-92.500000
  0
LINE
  8
0
 10
-99.250000
 20
-123.500000
 11
-99.250000
 21
-92.500000
  0
LINE
  8
0
 10
-159.250046
 20
-107.500015
 11
-161.929535
 21
-97.500023
  0
LINE
  8
0
 10
-184.250000
 20
-97.500000
 11
-161.929489
 21
-97.500000
  0
LINE
  8
0
 10
-184.250000
 20
-92.500000
 11
-39.250000
 21
-92.500000
  0
LINE
  8
0
 10
-87.250000
 20
-123.500000
 11
-87.250000
 21
-92.500000
  0
LINE
  8
0
 10
-75.250000
 20
-123.500000
 11
-75.250000
 21
-92.500000
  0
LINE
  8
0
 10
-63.250000
 20
-123.500000
 11
-63.250000
 21
-92.500000
  0
LINE
  8
0
 10
-51.250000
 20
-123.500000
 11
-51.250000
 21
-92.500000
  0
LINE
  8
0
 10
-39.250000
 20
-123.500000
 11
-39.250000
 21
-92.500000
  0
ARC
  8
0
 10
20.799988
 20
32.750004
 40
3.500000
 50
23.895557
 51
89.999969
  0
ARC
  8
0
 10
20.799988
 20
29.250004
 40
3.500000
 50
269.999969
 51
336.104370
  0
ARC
  8
0
 10
20.799988
 20
2.750003
 40
3.500000
 50
23.895565
 51
89.999969
  0
ARC
  8
0
 10
20.799988
 20
-0.749996
 40
3.500000
 50
269.999969
 51
336.104370
  0
ARC
  8
0
 10
-40.500004
 20
16.000019
 40
5.000000
 50
323.130096
 51
36.869896
  0
CIRCLE
  8
0
  6
DASHED
 62
     2
 10
-8.000004
 20
31.000004
 40
3.000000
  0
CIRCLE
  8
0
 10
-8.000004
 20
31.000004
 40
2.600000
  0
CIRCLE
  8
0
  6
DASHED
 62
     2
 10
-28.000004
 20
31.000004
 40
3.000000
  0
CIRCLE
  8
0
 10
-28.000004
 20
31.000004
 40
2.600000
  0
CIRCLE
  8
0
 10
-28.000004
 20
31.000004
 40
4.750000
  0
CIRCLE
  8
0
 10
-8.000004
 20
31.000004
 40
4.750000
  0
CIRCLE
  8
0
  6
DASHED
 62
     2
 10
-8.000004
 20
1.000003
 40
3.000000
  0
CIRCLE
  8
0
 10
-8.000004
 20
1.000003
 40
2.600000
  0
CIRCLE
  8
0
  6
DASHED
 62
     2
 10
-28.000004
 20
1.000003
 40
3.000000
  0
CIRCLE
  8
0
 10
-28.000004
 20
1.000003
 40
2.600000
  0
CIRCLE
  8
0
 10
-28.000004
 20
1.000003
 40
4.750000
  0
CIRCLE
  8
0
 10
-8.000004
 20
1.000003
 40
4.750000
  0
CIRCLE
  8
0
 10
1.999996
 20
-10.999996
 40
4.283005
  0
CIRCLE
  8
0
 62
     2
 10
1.999996
 20
-10.999981
 40
4.863995
  0
CIRCLE
  8
0
 10
-23.000004
 20
-10.999996
 40
4.283005
  0
CIRCLE
  8
0
 62
     2
 10
-23.000004
 20
-10.999981
 40
4.863995
  0
ARC
  8
0
 10
49.356438
 20
16.000002
 40
7.643559
 50
330.595490
 51
29.404507
  0
ARC
  8
0
 10
59.643356
 20
16.000004
 40
7.643354
 50
150.594650
 51
209.405334
  0
ARC
  8
0
 10
33.848610
 20
16.000004
 40
18.151390
 50
342.411926
 51
17.588057
  0
ARC
  8
0
 10
47.143967
 20
24.227242
 40
4.856033
 50
325.615540
 51
0.000000
  0
ARC
  8
0
 10
54.719856
 20
21.629166
 40
2.280146
 50
304.621277
 51
0.000000
  0
ARC
  8
0
 10
54.280106
 20
21.629168
 40
2.280104
 50
175.715134
 51
235.380096
  0
ARC
  8
0
 10
47.143967
 20
7.772764
 40
4.856033
 50
359.999939
 51
34.384396
  0
ARC
  8
0
 10
54.280106
 20
10.370838
 40
2.280105
 50
124.619896
 51
184.284775
  0
ARC
  8
0
 10
54.719856
 20
10.370839
 40
2.280148
 50
359.999939
 51
55.378620
  0
CIRCLE
  8
0
 10
-131.000000
 20
-13.000000
 40
5.250000
  0
CIRCLE
  8
0
 10
-131.000000
 20
16.000000
 40
5.250000
  0
CIRCLE
  8
0
 10
-131.000000
 20
-13.000000
 40
3.400000
  0
CIRCLE
  8
0
 10
-131.000000
 20
16.000000
 40
3.400000
  0
CIRCLE
  8
0
 10
-131.000000
 20
45.000000
 40
5.750000
  0
CIRCLE
  8
0
 10
-131.000000
 20
16.000000
 40
5.750000
  0
CIRCLE
  8
0
 62
     2
 10
-143.000000
 20
-17.000000
 40
3.000000
  0
CIRCLE
  8
0
 10
-143.000000
 20
-17.000000
 40
2.500000
  0
CIRCLE
  8
0
 10
-131.000000
 20
-13.000000
 40
5.750000
  0
CIRCLE
  8
0
 10
-143.000000
 20
49.000000
 40
2.500000
  0
CIRCLE
  8
0
 62
     2
 10
-143.000000
 20
49.000000
 40
3.000000
  0
CIRCLE
  8
0
 10
-119.000000
 20
-17.000000
 40
2.500000
  0
CIRCLE
  8
0
 62
     2
 10
-119.000000
 20
-17.000000
 40
3.000000
  0
CIRCLE
  8
0
 10
-119.000000
 20
49.000000
 40
2.500000
  0
CIRCLE
  8
0
 62
     2
 10
-119.000000
 20
49.000000
 40
3.000000
  0
CIRCLE
  8
0
 10
-131.000000
 20
45.000000
 40
5.250000
  0
CIRCLE
  8
0
 10
-131.000000
 20
45.000000
 40
3.400000
  0
CIRCLE
  8
0
 10
120.000000
 20
45.000000
 40
7.000000
  0
CIRCLE
  8
0
 10
120.000000
 20
-13.000000
 40
7.000000
  0
CIRCLE
  8
0
 10
133.000000
 20
1.000000
 40
3.165000
  0
CIRCLE
  8
0
 10
107.000000
 20
31.000000
 40
3.165000
  0
CIRCLE
  8
0
 10
120.000000
 20
16.000000
 40
9.500000
  0
CIRCLE
  8
0
 10
120.000000
 20
16.000000
 40
6.500000
  0
CIRCLE
  8
0
 62
     2
 10
120.000000
 20
16.000000
 40
3.400000
  0
CIRCLE
  8
0
 10
120.000000
 20
16.000000
 40
4.000000
  0
CIRCLE
  8
0
 10
133.000000
 20
1.000000
 40
5.250000
  0
ARC
  8
0
 10
135.101227
 20
12.000000
 40
2.500000
 50
179.999985
 51
270.000000
  0
ARC
  8
0
 10
135.101227
 20
20.000000
 40
2.500000
 50
90.000000
 51
179.999954
  0
CIRCLE
  8
0
 10
107.000000
 20
31.000000
 40
5.250000
  0
ARC
  8
0
 10
104.898773
 20
20.000000
 40
2.500000
 50
0.000000
 51
90.000000
  0
ARC
  8
0
 10
104.898773
 20
12.000000
 40
2.500000
 50
270.000000
 51
0.000000
  0
CIRCLE
  8
0
 10
120.000000
 20
45.000000
 40
8.000000
  0
CIRCLE
  8
0
 10
120.000000
 20
-13.000000
 40
8.000000
  0
ARC
  8
0
 10
104.898773
 20
20.000000
 40
2.100000
 50
270.000000
 51
90.000000
  0
ARC
  8
0
 10
104.898773
 20
12.000000
 40
2.100000
 50
270.000000
 51
90.000000
  0
ARC
  8
0
 10
135.101227
 20
20.000000
 40
2.100000
 50
90.000000
 51
270.000000
  0
ARC
  8
0
 10
135.101227
 20
12.000000
 40
2.100000
 50
90.000000
 51
270.000000
  0
CIRCLE
  8
0
 62
     2
 10
107.000000
 20
52.000000
 40
3.000000
  0
CIRCLE
  8
0
 10
107.000000
 20
52.000000
 40
2.500000
  0
CIRCLE
  8
0
 62
     2
 10
107.000000
 20
-20.000000
 40
3.000000
  0
CIRCLE
  8
0
 10
107.000000
 20
-20.000000
 40
2.500000
  0
CIRCLE
  8
0
 62
     2
 10
133.000000
 20
52.000000
 40
3.000000
  0
CIRCLE
  8
0
 10
133.000000
 20
52.000000
 40
2.500000
  0
CIRCLE
  8
0
 10
108.000000
 20
-11.000000
 40
1.000000
  0
CIRCLE
  8
0
 62
     2
 10
133.000000
 20
-20.000000
 40
3.000000
  0
CIRCLE
  8
0
 10
133.000000
 20
-20.000000
 40
2.500000
  0
TEXT
  8
0
 10
133.907150
 20
122.050003
 40
4.500000
  1
Ver. 1.0
 50
0.000000
 41
1.052631
 51
0.000000
  7
STANDARD
  0
TEXT
  8
0
 10
113.700279
 20
-130.669998
 40
6.300000
  1
KOGANEI CORP.
 50
0.000000
 41
1.052632
 51
0.000000
  7
STANDARD
  0
TEXT
  8
0
 10
-191.392654
 20
122.050003
 40
4.500000
  1
JIG CYLINDER WITH GUIDE
 50
0.000000
 41
1.052632
 51
0.000000
  7
STANDARD
  0
TEXT
  8
0
 10
-186.892654
 20
104.550003
 40
4.500000
  1
MODEL:SGDAP20*ST(10)
 50
0.000000
 41
1.052632
 51
0.000000
  7
STANDARD
  0
TEXT
  8
0
 62
     3
 10
-10.307142
 20
67.120003
 40
3.200000
  1
STRETCH LINE A
 50
0.000000
 41
1.052631
 51
0.000000
  7
STANDARD
  0
TEXT
  8
0
 62
     3
 10
-26.307001
 20
74.120003
 40
3.200000
  1
STRETCH LINE B
 50
0.000000
 41
1.052632
 51
0.000000
  7
STANDARD
  0
TEXT
  8
0
 10
-181.557144
 20
-96.879997
 40
3.200000
  1
STROKE
 50
0.000000
 41
1.052631
 51
0.000000
  7
STANDARD
  0
TEXT
  8
0
 10
-173.557144
 20
-113.379997
 40
3.200000
  1
A
 50
0.000000
 41
1.052631
 51
0.000000
  7
STANDARD
  0
TEXT
  8
0
 10
-184.496872
 20
-101.019997
 40
3.200000
  1
STRETCH
 50
0.000000
 41
1.052631
 51
0.000000
  7
STANDARD
  0
TEXT
  8
0
 10
-184.496872
 20
-105.820000
 40
3.200000
  1
  PLACE
 50
0.000000
 41
1.052631
 51
0.000000
  7
STANDARD
  0
TEXT
  8
0
 10
-156.657150
 20
-101.879997
 40
3.200000
  1
10
 50
0.000000
 41
1.052631
 51
0.000000
  7
STANDARD
  0
TEXT
  8
0
 10
-144.657150
 20
-101.879997
 40
3.200000
  1
20
 50
0.000000
 41
1.052631
 51
0.000000
  7
STANDARD
  0
TEXT
  8
0
 10
-132.657150
 20
-101.879997
 40
3.200000
  1
30
 50
0.000000
 41
1.052631
 51
0.000000
  7
STANDARD
  0
TEXT
  8
0
 10
-120.657158
 20
-101.879997
 40
3.200000
  1
50
 50
0.000000
 41
1.052631
 51
0.000000
  7
STANDARD
  0
TEXT
  8
0
 10
-108.657158
 20
-101.879997
 40
3.200000
  1
75
 50
0.000000
 41
1.052631
 51
0.000000
  7
STANDARD
  0
TEXT
  8
0
 10
-51.857143
 20
-91.379997
 40
3.200000
  1
(mm)
 50
0.000000
 41
1.052631
 51
0.000000
  7
STANDARD
  0
TEXT
  8
0
 10
-131.157135
 20
-91.379997
 40
3.200000
  1
STRETCH LIST
 50
0.000000
 41
1.052631
 51
0.000000
  7
STANDARD
  0
TEXT
  8
0
 10
-173.557007
 20
-121.379997
 40
3.200000
  1
B
 50
0.000000
 41
1.052632
 51
0.000000
  7
STANDARD
  0
TEXT
  8
0
 10
-98.257156
 20
-101.879997
 40
3.200000
  1
100
 50
0.000000
 41
1.052631
 51
0.000000
  7
STANDARD
  0
TEXT
  8
0
 10
-86.257156
 20
-101.879997
 40
3.200000
  1
125
 50
0.000000
 41
1.052631
 51
0.000000
  7
STANDARD
  0
TEXT
  8
0
 10
-74.257156
 20
-101.879997
 40
3.200000
  1
150
 50
0.000000
 41
1.052631
 51
0.000000
  7
STANDARD
  0
TEXT
  8
0
 10
-62.257156
 20
-101.879997
 40
3.200000
  1
175
 50
0.000000
 41
1.052631
 51
0.000000
  7
STANDARD
  0
TEXT
  8
0
 10
-50.257156
 20
-101.879997
 40
3.200000
  1
200
 50
0.000000
 41
1.052631
 51
0.000000
  7
STANDARD
  0
TEXT
  8
0
 10
-155.057007
 20
-113.379997
 40
3.200000
  1
0
 50
0.000000
 41
1.052632
 51
0.000000
  7
STANDARD
  0
TEXT
  8
0
 10
-143.057007
 20
-113.379997
 40
3.200000
  1
0
 50
0.000000
 41
1.052632
 51
0.000000
  7
STANDARD
  0
TEXT
  8
0
 10
-131.057007
 20
-113.379997
 40
3.200000
  1
0
 50
0.000000
 41
1.052632
 51
0.000000
  7
STANDARD
  0
TEXT
  8
0
 10
-119.056999
 20
-113.379997
 40
3.200000
  1
0
 50
0.000000
 41
1.052632
 51
0.000000
  7
STANDARD
  0
TEXT
  8
0
 10
-108.656998
 20
-113.379997
 40
3.200000
  1
25
 50
0.000000
 41
1.052632
 51
0.000000
  7
STANDARD
  0
TEXT
  8
0
 10
-96.656998
 20
-113.379997
 40
3.200000
  1
50
 50
0.000000
 41
1.052632
 51
0.000000
  7
STANDARD
  0
TEXT
  8
0
 10
-84.656998
 20
-113.379997
 40
3.200000
  1
25
 50
0.000000
 41
1.052632
 51
0.000000
  7
STANDARD
  0
TEXT
  8
0
 10
-72.656998
 20
-113.379997
 40
3.200000
  1
50
 50
0.000000
 41
1.052632
 51
0.000000
  7
STANDARD
  0
TEXT
  8
0
 10
-60.657001
 20
-113.379997
 40
3.200000
  1
75
 50
0.000000
 41
1.052632
 51
0.000000
  7
STANDARD
  0
TEXT
  8
0
 10
-50.257000
 20
-113.379997
 40
3.200000
  1
100
 50
0.000000
 41
1.052632
 51
0.000000
  7
STANDARD
  0
TEXT
  8
0
 10
-155.057007
 20
-121.379997
 40
3.200000
  1
0
 50
0.000000
 41
1.052632
 51
0.000000
  7
STANDARD
  0
TEXT
  8
0
 10
-144.656998
 20
-121.379997
 40
3.200000
  1
10
 50
0.000000
 41
1.052632
 51
0.000000
  7
STANDARD
  0
TEXT
  8
0
 10
-132.656998
 20
-121.379997
 40
3.200000
  1
20
 50
0.000000
 41
1.052632
 51
0.000000
  7
STANDARD
  0
TEXT
  8
0
 10
-120.656998
 20
-121.379997
 40
3.200000
  1
40
 50
0.000000
 41
1.052632
 51
0.000000
  7
STANDARD
  0
TEXT
  8
0
 10
-108.656998
 20
-121.379997
 40
3.200000
  1
40
 50
0.000000
 41
1.052632
 51
0.000000
  7
STANDARD
  0
TEXT
  8
0
 10
-96.656998
 20
-121.379997
 40
3.200000
  1
40
 50
0.000000
 41
1.052632
 51
0.000000
  7
STANDARD
  0
TEXT
  8
0
 10
-84.656998
 20
-121.379997
 40
3.200000
  1
90
 50
0.000000
 41
1.052632
 51
0.000000
  7
STANDARD
  0
TEXT
  8
0
 10
-72.656998
 20
-121.379997
 40
3.200000
  1
90
 50
0.000000
 41
1.052632
 51
0.000000
  7
STANDARD
  0
TEXT
  8
0
 10
-60.657001
 20
-121.379997
 40
3.200000
  1
90
 50
0.000000
 41
1.052632
 51
0.000000
  7
STANDARD
  0
TEXT
  8
0
 10
-48.657001
 20
-121.379997
 40
3.200000
  1
90
 50
0.000000
 41
1.052632
 51
0.000000
  7
STANDARD
  0
TEXT
  8
0
 62
     2
 10
37.891277
 20
-39.000000
 40
3.200000
  1
STROKE=75-200
 50
0.000000
 41
1.052632
 51
0.000000
  7
STANDARD
  0
LINE
  8
0
 62
     2
 10
35.000000
 20
-40.000000
 11
79.241280
 21
-40.000000
  0
LINE
  8
0
 62
     2
 10
12.000000
 20
-40.000000
 11
35.000000
 21
-40.000000
  0
LINE
  8
0
 62
     2
 10
12.000000
 20
-40.000000
 11
14.897778
 21
-39.223541
  0
LINE
  8
0
 62
     2
 10
12.000000
 20
-40.000000
 11
14.897778
 21
-40.776459
  0
LINE
  8
0
 62
     2
 10
35.000000
 20
-40.000000
 11
32.102222
 21
-40.776459
  0
LINE
  8
0
 62
     2
 10
35.000000
 20
-40.000000
 11
32.102222
 21
-39.223541
  0
LINE
  8
0
 62
     2
 10
12.000000
 20
-24.500000
 11
12.000000
 21
-41.500000
  0
LINE
  8
0
 62
     2
 10
35.000000
 20
-19.500008
 11
35.000000
 21
-41.500000
  0
ENDSEC
  0
EOF
