  0
SECTION
  2
HEADER
  0
ENDSEC
  0
SECTION
  2
TABLES
  0
TABLE
  2
LTYPE
 70
     4
  0
LTYPE
  2
CONTINUOUS
 70
    64
  3
Solid line
 72
    65
 73
     0
 40
0.000000
  0
LTYPE
  2
DASHED
 70
    64
  3
__ __ __ __ __ __ __ __ __ __ __ __ __ __ __
 72
    65
 73
     2
 40
3.500000
 49
2.000000
 49
-1.500000
  0
LTYPE
  2
CENTER
 70
    64
  3
____ _ ____ _ ____ _ ____ _ ____ _ ____ _ ____
 72
    65
 73
     4
 40
17.500000
 49
13.000000
 49
-1.500000
 49
1.500000
 49
-1.500000
  0
LTYPE
  2
PHANTOM
 70
    64
  3
_____ _ _ _____ _ _ _____ _ _ _____ _ _ ____  
 72
    65
 73
     6
 40
15.500000
 49
8.000000
 49
-1.500000
 49
1.500000
 49
-1.500000
 49
1.500000
 49
-1.500000
  0
LTYPE
  2
DASHED1
 70
    64
  3
__ __ __ __ __ __ __ __ __ __ __ __ __ __ __
 72
    65
 73
     2
 40
1.500000
 49
1.000000
 49
-0.500000
  0
LTYPE
  2
DASHED2
 70
    64
  3
__ __ __ __ __ __ __ __ __ __ __ __ __ __ __
 72
    65
 73
     2
 40
3.500000
 49
2.500000
 49
-1.000000
  0
LTYPE
  2
DASHED3
 70
    64
  3
__ __ __ __ __ __ __ __ __ __ __ __ __ __ __
 72
    65
 73
     2
 40
6.000000
 49
4.000000
 49
-2.000000
  0
LTYPE
  2
DASHED4
 70
    64
  3
__ __ __ __ __ __ __ __ __ __ __ __ __ __ __
 72
    65
 73
     2
 40
12.000000
 49
10.000000
 49
-2.000000
  0
LTYPE
  2
DASHED5
 70
    64
  3
__ __ __ __ __ __ __ __ __ __ __ __ __ __ __
 72
    65
 73
     2
 40
17.000000
 49
15.000000
 49
-2.000000
  0
LTYPE
  2
DASHED6
 70
    64
  3
__ __ __ __ __ __ __ __ __ __ __ __ __ __ __
 72
    65
 73
     2
 40
29.000000
 49
27.000000
 49
-2.000000
  0
LTYPE
  2
PHANTOM1
 70
    64
  3
_____ _ _ _____ _ _ _____ _ _ _____ _ _ ____  
 72
    65
 73
     6
 40
31.000000
 49
25.000000
 49
-1.500000
 49
1.000000
 49
-1.000000
 49
1.000000
 49
-1.500000
  0
LTYPE
  2
PHANTOM2
 70
    64
  3
_____ _ _ _____ _ _ _____ _ _ _____ _ _ ____  
 72
    65
 73
     6
 40
36.000000
 49
27.000000
 49
-1.500000
 49
2.500000
 49
-1.000000
 49
2.500000
 49
-1.500000
  0
LTYPE
  2
PHANTOM3
 70
    64
  3
_____ _ _ _____ _ _ _____ _ _ _____ _ _ ____  
 72
    65
 73
     6
 40
78.000000
 49
64.000000
 49
-2.000000
 49
4.000000
 49
-2.000000
 49
4.000000
 49
-2.000000
  0
LTYPE
  2
CENTER1
 70
    64
  3
____ _ ____ _ ____ _ ____ _ ____ _ ____ _ ____
 72
    65
 73
     4
 40
19.000000
 49
14.000000
 49
-1.000000
 49
3.000000
 49
-1.000000
  0
LTYPE
  2
CENTER2
 70
    64
  3
____ _ ____ _ ____ _ ____ _ ____ _ ____ _ ____
 72
    65
 73
     4
 40
28.500000
 49
25.000000
 49
-1.000000
 49
1.500000
 49
-1.000000
  0
LTYPE
  2
CENTER3
 70
    64
  3
____ _ ____ _ ____ _ ____ _ ____ _ ____ _ ____
 72
    65
 73
     4
 40
31.500000
 49
27.000000
 49
-1.000000
 49
2.500000
 49
-1.000000
  0
LTYPE
  2
CENTER4
 70
    64
  3
____ _ ____ _ ____ _ ____ _ ____ _ ____ _ ____
 72
    65
 73
     4
 40
50.000000
 49
45.000000
 49
-1.000000
 49
3.000000
 49
-1.000000
  0
LTYPE
  2
CENTER5
 70
    64
  3
____ _ ____ _ ____ _ ____ _ ____ _ ____ _ ____
 72
    65
 73
     4
 40
100.000000
 49
92.000000
 49
-2.000000
 49
4.000000
 49
-2.000000
  0
LTYPE
  2
SBK1
 70
    64
  3
______ _ _ _ ______ _ _ _ ______ _ _ _ _____  
 72
    65
 73
     8
 40
60.500000
 49
45.000000
 49
-2.000000
 49
2.500000
 49
-2.000000
 49
2.500000
 49
-2.000000
 49
2.500000
 49
-2.000000
  0
LTYPE
  2
SBK2
 70
    64
  3
______ _ _ _ ______ _ _ _ ______ _ _ _ _____  
 72
    65
 73
     8
 40
84.000000
 49
64.000000
 49
-2.000000
 49
4.000000
 49
-2.000000
 49
4.000000
 49
-2.000000
 49
4.000000
 49
-2.000000
  0
LTYPE
  2
STCH
 70
    64
  3
__ __ __ __ __ __ __ __ __ __ __ __ __ __ __
 72
    65
 73
     2
 40
3.000000
 49
1.000000
 49
-2.000000
  0
LTYPE
  2
MTCH
 70
    64
  3
_____ _ _ _____ _ _ _____ _ _ _____ _ _ ____  
 72
    65
 73
     6
 40
80.000000
 49
66.000000
 49
-2.000000
 49
4.000000
 49
-2.000000
 49
4.000000
 49
-2.000000
  0
ENDTAB
  0
TABLE
  2
LAYER
 70
     1
  0
LAYER
  2
0
 70
     0
 62
     7
  6
CONTINUOUS
  0
ENDTAB
  0
TABLE
  2
STYLE
 70
     1
  0
STYLE
  2
STANDARD
 70
     0
 40
0.000000
 41
1.000000
 50
0.000000
 71
     0
 42
0.200000
  3
txt
  4
BIGFONT
  0
ENDTAB
  0
TABLE
  2
VIEW
 70
     0
  0
ENDTAB
  0
ENDSEC
  0
SECTION
  2
BLOCKS
  0
ENDSEC
  0
SECTION
  2
ENTITIES
  0
LINE
  8
0
  6
DASHED
 62
     2
 10
31.000000
 20
-12.000000
 11
31.000000
 21
-2.999996
  0
LINE
  8
0
  6
DASHED
 62
     2
 10
8.000000
 20
-2.500000
 11
30.500000
 21
-2.500000
  0
LINE
  8
0
  6
DASHED
 62
     2
 10
8.000000
 20
-12.500000
 11
30.500000
 21
-12.500000
  0
LINE
  8
0
  6
DASHED
 62
     2
 10
30.499987
 20
-2.500015
 11
30.999981
 21
-3.000008
  0
LINE
  8
0
  6
DASHED
 62
     2
 10
30.999989
 20
-11.999990
 11
30.499987
 21
-12.499991
  0
LINE
  8
0
  6
DASHED
 62
     2
 10
30.500000
 20
-2.500004
 11
30.500000
 21
-12.500000
  0
LINE
  8
0
  6
DASHED
 62
     2
 10
31.000000
 20
35.000000
 11
31.000000
 21
44.000004
  0
LINE
  8
0
  6
DASHED
 62
     2
 10
8.000000
 20
44.500000
 11
30.500000
 21
44.500000
  0
LINE
  8
0
  6
DASHED
 62
     2
 10
8.000000
 20
34.500000
 11
30.500000
 21
34.500000
  0
LINE
  8
0
  6
DASHED
 62
     2
 10
30.499968
 20
44.499985
 11
30.999968
 21
43.999989
  0
LINE
  8
0
  6
DASHED
 62
     2
 10
31.000000
 20
35.000000
 11
30.500000
 21
34.500000
  0
LINE
  8
0
  6
DASHED
 62
     2
 10
30.500000
 20
44.499996
 11
30.500000
 21
34.500000
  0
LINE
  8
0
 10
24.000000
 20
20.000000
 11
14.000000
 21
20.000000
  0
LINE
  8
0
 10
8.000000
 20
-1.500000
 11
14.000000
 21
-1.500000
  0
LINE
  8
0
 10
8.000000
 20
33.500000
 11
14.000000
 21
33.500000
  0
LINE
  8
0
 10
14.000000
 20
-1.750000
 11
14.000000
 21
33.750000
  0
LINE
  8
0
 10
24.000000
 20
12.000000
 11
14.000000
 21
12.000000
  0
LINE
  8
0
 10
24.000000
 20
8.500000
 11
24.000000
 21
23.500000
  0
LINE
  8
0
 10
25.500000
 20
8.500000
 11
25.500000
 21
23.500000
  0
LINE
  8
0
 10
45.500000
 20
9.000000
 11
45.500000
 21
23.000029
  0
LINE
  8
0
 10
35.500000
 20
7.917099
 11
35.500000
 21
24.082901
  0
LINE
  8
0
 10
25.500000
 20
9.000000
 11
35.500000
 21
9.000000
  0
LINE
  8
0
 10
35.500000
 20
11.958549
 11
44.874786
 21
11.958549
  0
LINE
  8
0
 10
35.500000
 20
7.917099
 11
44.874786
 21
7.917099
  0
LINE
  8
0
 10
44.874809
 20
7.917106
 11
45.500023
 21
9.000008
  0
LINE
  8
0
 10
50.500000
 20
11.549999
 11
50.500000
 21
20.450005
  0
LINE
  8
0
 10
46.264130
 20
13.113251
 11
49.735870
 21
13.113251
  0
LINE
  8
0
 10
46.264130
 20
10.226501
 11
49.735870
 21
10.226501
  0
LINE
  8
0
 10
45.500046
 20
11.550019
 11
46.264168
 21
10.226521
  0
LINE
  8
0
 10
49.735882
 20
10.226502
 11
50.500004
 21
11.550000
  0
LINE
  8
0
 10
50.500000
 20
13.000000
 11
51.399994
 21
13.000000
  0
LINE
  8
0
 62
     2
 10
50.500000
 20
13.500000
 11
51.899994
 21
13.500000
  0
LINE
  8
0
 10
52.399982
 20
14.000001
 11
51.399990
 21
13.000009
  0
LINE
  8
0
 10
51.399994
 20
19.000000
 11
51.399994
 21
13.000000
  0
LINE
  8
0
 10
24.000000
 20
8.500000
 11
25.500000
 21
8.500000
  0
LINE
  8
0
 10
52.399994
 20
18.000004
 11
52.399994
 21
14.000000
  0
LINE
  8
0
 10
14.000000
 20
-1.750000
 11
14.500000
 21
-1.750000
  0
LINE
  8
0
 10
14.500000
 20
7.750000
 11
14.500000
 21
-1.750000
  0
LINE
  8
0
 10
14.000000
 20
7.750000
 11
14.500000
 21
7.750000
  0
LINE
  8
0
 10
17.399994
 20
5.518112
 11
17.399994
 21
0.481888
  0
LINE
  8
0
 10
14.000000
 20
24.250000
 11
14.500000
 21
24.250000
  0
LINE
  8
0
 10
14.500000
 20
33.750000
 11
14.500000
 21
24.250000
  0
LINE
  8
0
 10
14.000000
 20
33.750000
 11
14.500000
 21
33.750000
  0
LINE
  8
0
 10
17.399994
 20
31.518110
 11
17.399994
 21
26.481886
  0
LINE
  8
0
 10
25.500000
 20
23.000000
 11
35.500000
 21
23.000000
  0
LINE
  8
0
 10
35.500000
 20
20.041451
 11
44.874786
 21
20.041451
  0
LINE
  8
0
 10
35.500000
 20
24.082901
 11
44.874786
 21
24.082901
  0
LINE
  8
0
 10
44.874832
 20
24.082901
 11
45.500046
 21
23.000000
  0
LINE
  8
0
 10
46.264130
 20
18.886749
 11
49.735870
 21
18.886749
  0
LINE
  8
0
 10
46.264130
 20
21.773499
 11
49.735870
 21
21.773499
  0
LINE
  8
0
 10
45.500050
 20
20.450003
 11
46.264172
 21
21.773500
  0
LINE
  8
0
 10
49.735905
 20
21.773512
 11
50.500027
 21
20.450014
  0
LINE
  8
0
 10
50.500000
 20
19.000000
 11
51.399994
 21
19.000000
  0
LINE
  8
0
 62
     2
 10
50.500000
 20
18.500000
 11
51.899994
 21
18.500000
  0
LINE
  8
0
 10
52.399986
 20
17.999968
 11
51.399975
 21
18.999977
  0
LINE
  8
0
 10
24.000000
 20
23.500000
 11
25.500000
 21
23.500000
  0
LINE
  8
0
 10
8.000000
 20
24.000000
 11
14.000000
 21
24.000000
  0
LINE
  8
0
 10
8.000000
 20
8.000000
 11
14.000000
 21
8.000000
  0
LINE
  8
0
 10
-32.000000
 20
20.000000
 11
-29.000000
 21
20.000000
  0
LINE
  8
0
  6
CENTER
 62
     2
 10
-43.446678
 20
39.500000
 11
-27.409863
 21
39.500000
  0
LINE
  8
0
 10
-28.500000
 20
50.000000
 11
7.500000
 21
50.000000
  0
LINE
  8
0
 10
-32.000000
 20
-16.500000
 11
-32.000000
 21
48.500015
  0
LINE
  8
0
 10
-42.000000
 20
48.500000
 11
-42.000000
 21
-16.500000
  0
LINE
  8
0
 10
-41.500000
 20
-17.000000
 11
-32.500000
 21
-17.000000
  0
LINE
  8
0
 10
-41.500000
 20
49.000000
 11
-32.500000
 21
49.000000
  0
LINE
  8
0
 10
-32.000000
 20
12.000000
 11
-29.000000
 21
12.000000
  0
LINE
  8
0
 10
-32.000000
 20
-12.500000
 11
-29.000000
 21
-12.500000
  0
LINE
  8
0
 10
-32.000000
 20
-2.500000
 11
-29.000000
 21
-2.500000
  0
LINE
  8
0
  6
CENTER
 62
     2
 10
-43.446678
 20
-7.500000
 11
-27.061066
 21
-7.500000
  0
LINE
  8
0
 10
-32.000000
 20
14.063507
 11
-30.500000
 21
14.063507
  0
LINE
  8
0
 10
-30.500000
 20
17.936493
 11
-30.500000
 21
14.063507
  0
LINE
  8
0
 62
     2
 10
-31.999996
 20
16.968287
 11
-30.499973
 21
14.063502
  0
LINE
  8
0
 62
     2
 10
-30.499998
 20
17.936501
 11
-32.000011
 21
15.031731
  0
LINE
  8
0
 10
-42.000000
 20
-16.499956
 11
-41.500000
 21
-16.999956
  0
LINE
  8
0
 10
-32.000015
 20
-16.499983
 11
-32.500004
 21
-16.999971
  0
LINE
  8
0
 10
-41.499966
 20
48.999985
 11
-41.999969
 21
48.499981
  0
LINE
  8
0
 10
-32.500019
 20
49.000015
 11
-32.000008
 21
48.500004
  0
LINE
  8
0
 10
-28.499973
 20
49.999981
 11
-28.999973
 21
49.499981
  0
LINE
  8
0
 10
7.499982
 20
49.999973
 11
7.999983
 21
49.499973
  0
LINE
  8
0
 10
-29.000000
 20
17.900009
 11
8.000000
 21
17.900009
  0
LINE
  8
0
 10
-29.000000
 20
20.700012
 11
8.000000
 21
20.700012
  0
LINE
  8
0
 10
-29.000000
 20
22.500015
 11
8.000000
 21
22.500015
  0
LINE
  8
0
 10
-29.000000
 20
49.000000
 11
8.000000
 21
49.000000
  0
LINE
  8
0
 10
-29.000000
 20
40.150009
 11
8.000000
 21
40.150009
  0
LINE
  8
0
 10
-29.000000
 20
35.849991
 11
8.000000
 21
35.849991
  0
LINE
  8
0
 10
-32.000000
 20
17.936508
 11
-30.500000
 21
17.936508
  0
LINE
  8
0
  6
CENTER
 62
     2
 10
-29.000000
 20
29.000000
 11
-18.971458
 21
29.000000
  0
LINE
  8
0
 10
-29.000000
 20
24.000015
 11
8.000000
 21
24.000015
  0
LINE
  8
0
 10
-32.000000
 20
44.500000
 11
-29.000000
 21
44.500000
  0
LINE
  8
0
 10
-32.000000
 20
34.500000
 11
-29.000000
 21
34.500000
  0
LINE
  8
0
  6
CENTER
 62
     2
 10
-29.000000
 20
3.000000
 11
-19.333664
 21
3.000000
  0
LINE
  8
0
  6
CENTER
 62
     2
 10
-24.000000
 20
-2.201691
 11
-24.000000
 21
7.835175
  0
LINE
  8
0
  6
CENTER
 62
     2
 10
-13.815903
 20
3.000000
 11
-3.888481
 21
3.000000
  0
LINE
  8
0
  6
CENTER
 62
     2
 10
-8.999985
 20
-2.201691
 11
-8.999985
 21
7.754852
  0
LINE
  8
0
 10
-29.000000
 20
14.100006
 11
8.000008
 21
14.100006
  0
LINE
  8
0
  6
CENTER
 62
     2
 10
-15.979294
 20
-3.000000
 11
-22.053421
 21
-3.000000
  0
LINE
  8
0
  6
CENTER
 62
     2
 10
4.015697
 20
-3.000000
 11
-2.807060
 21
-3.000000
  0
LINE
  8
0
  6
CENTER
 62
     2
 10
0.500008
 20
-6.509872
 11
0.500008
 21
0.293035
  0
LINE
  8
0
  6
CENTER
 62
     2
 10
-43.622551
 20
16.000000
 11
54.183662
 21
16.000000
  0
LINE
  8
0
 10
-28.500000
 20
-18.000000
 11
7.500008
 21
-18.000000
  0
LINE
  8
0
 10
-29.000000
 20
-17.500000
 11
-29.000000
 21
49.500000
  0
LINE
  8
0
  6
DASHED
 62
     2
 10
-10.499985
 20
-18.000000
 11
-10.499985
 21
-15.568501
  0
LINE
  8
0
  6
DASHED
 62
     2
 10
-5.499992
 20
-18.000000
 11
-5.499992
 21
-15.568501
  0
LINE
  8
0
  6
DASHED
 62
     2
 10
-10.099991
 20
-18.000000
 11
-10.099991
 21
-15.568501
  0
LINE
  8
0
  6
DASHED
 62
     2
 10
-5.900002
 20
-18.000000
 11
-5.900002
 21
-15.568501
  0
LINE
  8
0
  6
CENTER
 62
     2
 10
-19.000000
 20
-6.630600
 11
-19.000000
 21
0.293035
  0
LINE
  8
0
  6
DASHED
 62
     2
 10
-22.500000
 20
-18.000000
 11
-22.500000
 21
-15.568501
  0
LINE
  8
0
  6
DASHED
 62
     2
 10
-17.500000
 20
-18.000000
 11
-17.500000
 21
-15.568501
  0
LINE
  8
0
  6
DASHED
 62
     2
 10
-22.099991
 20
-18.000000
 11
-22.099991
 21
-15.568501
  0
LINE
  8
0
  6
DASHED
 62
     2
 10
-17.900009
 20
-18.000000
 11
-17.900009
 21
-15.568501
  0
LINE
  8
0
 10
-29.000000
 20
-17.000000
 11
8.000008
 21
-17.000000
  0
LINE
  8
0
 10
-29.000000
 20
8.000015
 11
8.000008
 21
8.000015
  0
LINE
  8
0
 10
-29.000000
 20
-8.500000
 11
8.000008
 21
-8.500000
  0
LINE
  8
0
 10
-29.000000
 20
-11.017288
 11
8.000008
 21
-11.017288
  0
LINE
  8
0
 10
-29.000000
 20
-14.592545
 11
8.000008
 21
-14.592545
  0
LINE
  8
0
 10
-29.000000
 20
11.299988
 11
8.000008
 21
11.299988
  0
LINE
  8
0
 10
-29.000000
 20
9.499985
 11
8.000008
 21
9.499985
  0
LINE
  8
0
 10
8.000016
 20
-17.500015
 11
7.500015
 21
-18.000017
  0
LINE
  8
0
 10
-28.999973
 20
-17.499973
 11
-28.499983
 21
-17.999964
  0
LINE
  8
0
  6
CENTER
 62
     2
 10
-19.999992
 20
-19.017120
 11
-19.999992
 21
-14.159092
  0
LINE
  8
0
  6
CENTER
 62
     2
 10
-9.000000
 20
33.957382
 11
-9.000000
 21
24.026596
  0
LINE
  8
0
  6
CENTER
 62
     2
 10
-24.000000
 20
33.878265
 11
-24.000000
 21
24.066162
  0
LINE
  8
0
  6
CENTER
 62
     2
 10
-14.001617
 20
29.000000
 11
-3.873005
 21
29.000000
  0
LINE
  8
0
 10
8.000008
 20
-17.500000
 11
8.000008
 21
49.500000
  0
LINE
  8
0
  6
PHANTOM
 62
     3
 10
-3.500000
 20
58.000000
 11
-3.500000
 21
-6.000000
  0
LINE
  8
0
  6
PHANTOM
 62
     3
 10
-14.500000
 20
65.000000
 11
-14.500000
 21
-23.000000
  0
LINE
  8
0
  6
PHANTOM
 62
     3
 10
-12.000000
 20
-6.000000
 11
-12.000000
 21
-23.000000
  0
LINE
  8
0
  6
PHANTOM
 62
     3
 10
-12.000000
 20
-6.000000
 11
-3.500000
 21
-6.000000
  0
LINE
  8
0
  6
CENTER
 62
     2
 10
-7.999992
 20
-19.017120
 11
-7.999992
 21
-14.159092
  0
LINE
  8
0
 10
-134.500015
 20
17.000000
 11
-134.000000
 21
17.000000
  0
LINE
  8
0
 10
-134.500015
 20
21.200012
 11
-134.000000
 21
21.200012
  0
LINE
  8
0
 10
-135.500015
 20
14.799988
 11
-135.500015
 21
17.200012
  0
LINE
  8
0
 10
-135.200012
 20
20.700012
 11
-135.000015
 21
20.700012
  0
LINE
  8
0
 10
-135.200012
 20
17.500000
 11
-135.000015
 21
17.500000
  0
LINE
  8
0
 10
-134.500015
 20
16.999990
 11
-135.000000
 21
17.499983
  0
LINE
  8
0
 10
-135.000122
 20
20.700132
 11
-134.500107
 21
21.200142
  0
LINE
  8
0
 10
-135.500015
 20
21.000000
 11
-135.500015
 21
22.500015
  0
LINE
  8
0
 10
-134.500015
 20
15.000000
 11
-134.000000
 21
15.000000
  0
LINE
  8
0
 10
-134.500015
 20
10.799988
 11
-134.000000
 21
10.799988
  0
LINE
  8
0
 10
-135.200012
 20
11.299988
 11
-135.000015
 21
11.299988
  0
LINE
  8
0
 10
-135.200012
 20
14.500000
 11
-135.000015
 21
14.500000
  0
LINE
  8
0
 10
-134.500122
 20
15.000117
 11
-135.000122
 21
14.500127
  0
LINE
  8
0
 10
-135.000061
 20
11.299964
 11
-134.500061
 21
10.799963
  0
LINE
  8
0
 10
-135.500061
 20
22.499987
 11
-137.000046
 21
23.999971
  0
LINE
  8
0
 10
-135.500015
 20
11.000000
 11
-135.500015
 21
9.499985
  0
LINE
  8
0
 10
-135.500092
 20
9.500054
 11
-137.000076
 21
8.000072
  0
LINE
  8
0
 10
-137.000000
 20
24.000000
 11
-137.000000
 21
35.550003
  0
LINE
  8
0
 10
-136.000000
 20
50.000000
 11
-106.000000
 21
50.000000
  0
LINE
  8
0
 10
-135.999924
 20
49.999943
 11
-136.999924
 21
48.999939
  0
LINE
  8
0
 10
-137.000000
 20
40.449997
 11
-137.000000
 21
49.000000
  0
LINE
  8
0
 10
-107.999924
 20
41.650002
 11
-106.500000
 21
41.650002
  0
LINE
  8
0
 10
-107.999924
 20
34.349998
 11
-106.500000
 21
34.349998
  0
LINE
  8
0
 10
-106.500000
 20
40.150002
 11
-105.300003
 21
40.150002
  0
LINE
  8
0
 10
-106.500000
 20
35.849998
 11
-105.300003
 21
35.849998
  0
LINE
  8
0
 10
-106.500000
 20
34.349998
 11
-106.500000
 21
35.849998
  0
LINE
  8
0
 10
-106.500000
 20
40.150002
 11
-106.500000
 21
41.650002
  0
LINE
  8
0
 10
-105.000000
 20
40.449997
 11
-105.000000
 21
49.000000
  0
LINE
  8
0
 10
-106.000000
 20
49.999989
 11
-104.999992
 21
48.999992
  0
LINE
  8
0
 10
-107.499985
 20
17.000000
 11
-107.999924
 21
17.000000
  0
LINE
  8
0
 10
-107.499985
 20
21.200012
 11
-107.999924
 21
21.200012
  0
LINE
  8
0
 10
-106.499985
 20
14.799988
 11
-106.499985
 21
17.200012
  0
LINE
  8
0
 10
-106.799988
 20
20.700012
 11
-106.999985
 21
20.700012
  0
LINE
  8
0
 10
-106.799988
 20
17.500000
 11
-106.999985
 21
17.500000
  0
LINE
  8
0
 10
-107.500053
 20
17.000044
 11
-107.000076
 21
17.500023
  0
LINE
  8
0
 10
-106.999931
 20
20.700087
 11
-107.499931
 21
21.200089
  0
LINE
  8
0
 10
-106.499985
 20
21.000000
 11
-106.499985
 21
22.500015
  0
LINE
  8
0
 10
-107.499985
 20
15.000000
 11
-107.999924
 21
15.000000
  0
LINE
  8
0
 10
-107.499985
 20
10.799988
 11
-107.999924
 21
10.799988
  0
LINE
  8
0
 10
-106.799988
 20
11.299988
 11
-106.999985
 21
11.299988
  0
LINE
  8
0
 10
-106.799988
 20
14.500000
 11
-106.999985
 21
14.500000
  0
LINE
  8
0
 10
-107.499947
 20
15.000061
 11
-106.999931
 21
14.500051
  0
LINE
  8
0
 10
-107.000015
 20
11.300010
 11
-107.500023
 21
10.800002
  0
LINE
  8
0
 10
-105.000000
 20
-17.000011
 11
-105.000000
 21
-14.592545
  0
LINE
  8
0
 10
-106.500015
 20
22.500046
 11
-105.000015
 21
24.000042
  0
LINE
  8
0
 10
-106.499985
 20
11.000000
 11
-106.499985
 21
9.499985
  0
LINE
  8
0
 10
-106.500000
 20
9.499975
 11
-105.000015
 21
7.999981
  0
LINE
  8
0
 10
-105.000000
 20
24.000000
 11
-105.000000
 21
35.550003
  0
LINE
  8
0
 10
-106.000008
 20
-17.999943
 11
-105.000015
 21
-16.999954
  0
LINE
  8
0
 10
-137.000000
 20
8.000000
 11
-137.000000
 21
-3.550003
  0
LINE
  8
0
 10
-136.000000
 20
-18.000000
 11
-106.000000
 21
-18.000000
  0
LINE
  8
0
 10
-135.999969
 20
-17.999989
 11
-136.999969
 21
-16.999981
  0
LINE
  8
0
 10
-137.000000
 20
-8.449997
 11
-137.000000
 21
-16.999996
  0
LINE
  8
0
 10
-105.000000
 20
-14.592566
 11
-108.000000
 21
-11.017304
  0
LINE
  8
0
 10
-107.999977
 20
-11.017314
 11
-104.999969
 21
-8.500011
  0
LINE
  8
0
 10
-105.000000
 20
-8.499992
 11
-105.000000
 21
8.000008
  0
LINE
  8
0
 10
-134.000000
 20
40.150002
 11
-136.699997
 21
40.150002
  0
LINE
  8
0
 10
-134.000000
 20
35.849998
 11
-136.699997
 21
35.849998
  0
LINE
  8
0
 10
-134.000000
 20
-8.150002
 11
-136.699997
 21
-8.150002
  0
LINE
  8
0
 10
-134.000000
 20
-3.849998
 11
-136.699997
 21
-3.849998
  0
LINE
  8
0
 10
-133.000000
 20
49.000000
 11
-109.000000
 21
49.000000
  0
LINE
  8
0
 10
-133.000000
 20
-17.000000
 11
-109.000000
 21
-17.000000
  0
LINE
  8
0
 10
-132.999924
 20
48.999947
 11
-133.999924
 21
47.999943
  0
LINE
  8
0
 10
-108.999931
 20
49.000065
 11
-107.999931
 21
48.000069
  0
LINE
  8
0
 10
-133.999985
 20
-15.999985
 11
-132.999985
 21
-16.999987
  0
LINE
  8
0
 10
-108.000000
 20
-15.999977
 11
-109.000000
 21
-16.999979
  0
LINE
  8
0
  6
CENTER
 62
     2
 10
-138.162216
 20
16.000000
 11
-103.874069
 21
16.000000
  0
LINE
  8
0
  6
CENTER
 62
     2
 10
-121.000000
 20
52.375366
 11
-121.000000
 21
-20.272449
  0
LINE
  8
0
  6
CENTER
 62
     2
 10
-125.733643
 20
44.000000
 11
-132.459274
 21
44.000000
  0
LINE
  8
0
  6
CENTER
 62
     2
 10
-113.000000
 20
-15.547089
 11
-113.000000
 21
-8.476543
  0
LINE
  8
0
  6
CENTER
 62
     2
 10
-129.000000
 20
-15.547089
 11
-129.000000
 21
-8.476543
  0
LINE
  8
0
  6
CENTER
 62
     2
 10
-125.733643
 20
-12.000000
 11
-132.459274
 21
-12.000000
  0
LINE
  8
0
 10
-134.000000
 20
48.000004
 11
-134.000000
 21
-16.000008
  0
LINE
  8
0
 10
-107.999924
 20
48.000107
 11
-107.999924
 21
-15.999866
  0
LINE
  8
0
 10
-121.000053
 20
41.232147
 11
-122.500046
 21
40.366127
  0
LINE
  8
0
 10
-122.500000
 20
40.366024
 11
-122.500000
 21
38.633976
  0
LINE
  8
0
 10
-121.000046
 20
37.767906
 11
-122.500031
 21
38.633923
  0
LINE
  8
0
 10
-119.500061
 20
38.634064
 11
-121.000069
 21
37.768028
  0
LINE
  8
0
 10
-119.500000
 20
40.366024
 11
-119.500000
 21
38.633976
  0
LINE
  8
0
 10
-121.000015
 20
41.232021
 11
-119.500008
 21
40.365993
  0
LINE
  8
0
 10
-121.000023
 20
-5.767905
 11
-122.500015
 21
-6.633925
  0
LINE
  8
0
 10
-122.500000
 20
-6.633976
 11
-122.500000
 21
-8.366024
  0
LINE
  8
0
 10
-121.000038
 20
-9.232108
 11
-122.500031
 21
-8.366083
  0
LINE
  8
0
 10
-119.500031
 20
-8.365977
 11
-121.000038
 21
-9.232008
  0
LINE
  8
0
 10
-119.500000
 20
-6.633976
 11
-119.500000
 21
-8.366024
  0
LINE
  8
0
 10
-121.000023
 20
-5.768003
 11
-119.500023
 21
-6.634034
  0
LINE
  8
0
 10
-121.000031
 20
17.732124
 11
-122.500023
 21
16.866104
  0
LINE
  8
0
 10
-122.500000
 20
16.866024
 11
-122.500000
 21
15.133976
  0
LINE
  8
0
 10
-121.000061
 20
14.267907
 11
-122.500038
 21
15.133921
  0
LINE
  8
0
 10
-119.500046
 20
15.134036
 11
-121.000046
 21
14.268008
  0
LINE
  8
0
 10
-119.500000
 20
16.866024
 11
-119.500000
 21
15.133976
  0
LINE
  8
0
 10
-121.000015
 20
17.732010
 11
-119.500015
 21
16.865978
  0
LINE
  8
0
  6
CENTER
 62
     2
 10
-129.000000
 20
47.225422
 11
-129.000000
 21
40.794834
  0
LINE
  8
0
  6
CENTER
 62
     2
 10
-113.000000
 20
47.114552
 11
-113.000000
 21
40.831791
  0
LINE
  8
0
  6
CENTER
 62
     2
 10
-116.285614
 20
44.000000
 11
-109.781128
 21
44.000000
  0
LINE
  8
0
  6
CENTER
 62
     2
 10
-127.261978
 20
39.500000
 11
-114.770370
 21
39.500000
  0
LINE
  8
0
  6
CENTER
 62
     2
 10
-127.296707
 20
-7.500000
 11
-114.570450
 21
-7.500000
  0
LINE
  8
0
  6
CENTER
 62
     2
 10
-116.430756
 20
-12.000000
 11
-109.370010
 21
-12.000000
  0
LINE
  8
0
 10
110.500000
 20
-1.500000
 11
134.479309
 21
-1.500000
  0
LINE
  8
0
 10
134.500000
 20
3.866028
 11
134.500000
 21
2.133972
  0
LINE
  8
0
 10
137.500000
 20
3.866028
 11
137.500000
 21
2.133972
  0
LINE
  8
0
 10
134.500015
 20
3.865988
 11
136.000000
 21
4.732011
  0
LINE
  8
0
 10
136.000015
 20
1.267906
 11
137.500015
 21
2.133935
  0
LINE
  8
0
 10
134.500000
 20
2.134059
 11
136.000015
 21
1.268028
  0
LINE
  8
0
 10
136.000015
 20
4.732125
 11
137.500015
 21
3.866095
  0
LINE
  8
0
 10
114.500015
 20
28.134060
 11
116.000023
 21
27.268030
  0
LINE
  8
0
 10
114.500000
 20
29.866026
 11
114.500000
 21
28.133970
  0
LINE
  8
0
 10
114.499992
 20
29.865992
 11
115.999992
 21
30.732021
  0
LINE
  8
0
 10
116.000015
 20
30.732172
 11
117.500023
 21
29.866142
  0
LINE
  8
0
 10
117.500000
 20
29.866026
 11
117.500000
 21
28.133970
  0
LINE
  8
0
 10
116.000008
 20
27.267923
 11
117.500023
 21
28.133955
  0
LINE
  8
0
 10
110.500000
 20
33.500000
 11
114.479309
 21
33.500000
  0
LINE
  8
0
 10
110.500000
 20
33.500000
 11
110.500000
 21
24.000000
  0
LINE
  8
0
 10
110.500000
 20
8.000000
 11
110.500000
 21
-1.500000
  0
LINE
  8
0
 10
141.500000
 20
33.500000
 11
141.500000
 21
24.000000
  0
LINE
  8
0
 10
110.500000
 20
8.000000
 11
114.500000
 21
8.000000
  0
LINE
  8
0
 10
110.500000
 20
24.000000
 11
114.500000
 21
24.000000
  0
LINE
  8
0
 10
117.000000
 20
21.500000
 11
117.000000
 21
10.500000
  0
LINE
  8
0
 10
141.500000
 20
8.000000
 11
137.500000
 21
8.000000
  0
LINE
  8
0
 10
141.500000
 20
24.000000
 11
137.500000
 21
24.000000
  0
LINE
  8
0
 10
135.000000
 20
21.500000
 11
135.000000
 21
10.500000
  0
LINE
  8
0
 10
133.000000
 20
20.041451
 11
133.000000
 21
11.958549
  0
LINE
  8
0
 10
119.000000
 20
20.041451
 11
119.000000
 21
11.958546
  0
LINE
  8
0
 10
118.999992
 20
20.041437
 11
126.000015
 21
24.082895
  0
LINE
  8
0
 10
126.000000
 20
7.917054
 11
133.000015
 21
11.958519
  0
LINE
  8
0
 10
126.000023
 20
24.082926
 11
133.000015
 21
20.041483
  0
LINE
  8
0
 10
119.000008
 20
11.958587
 11
125.999992
 21
7.917144
  0
LINE
  8
0
 10
120.999992
 20
18.886742
 11
125.999985
 21
21.773493
  0
LINE
  8
0
 10
126.000000
 20
10.226456
 11
130.999985
 21
13.113202
  0
LINE
  8
0
 10
125.999992
 20
21.773581
 11
130.999985
 21
18.886833
  0
LINE
  8
0
 10
121.000023
 20
13.113310
 11
126.000008
 21
10.226563
  0
LINE
  8
0
 10
121.000000
 20
18.886749
 11
121.000000
 21
13.113251
  0
LINE
  8
0
 10
131.000000
 20
18.886749
 11
131.000000
 21
13.113247
  0
LINE
  8
0
  6
CENTER
 62
     2
 10
116.500000
 20
-18.871140
 11
116.500000
 21
-14.608925
  0
LINE
  8
0
  6
DASHED
 62
     2
 10
114.000000
 20
-18.000000
 11
114.000000
 21
-15.568501
  0
LINE
  8
0
  6
DASHED
 62
     2
 10
119.000000
 20
-18.000000
 11
119.000000
 21
-15.568501
  0
LINE
  8
0
  6
DASHED
 62
     2
 10
114.000000
 20
-14.000000
 11
119.000000
 21
-14.000000
  0
LINE
  8
0
  6
DASHED
 62
     2
 10
118.600006
 20
-18.000000
 11
118.600006
 21
-15.568501
  0
LINE
  8
0
  6
DASHED
 62
     2
 10
114.399994
 20
-18.000000
 11
114.399994
 21
-15.568501
  0
LINE
  8
0
  6
CENTER
 62
     2
 10
116.000000
 20
21.874998
 11
116.000000
 21
36.125000
  0
LINE
  8
0
  6
CENTER
 62
     2
 10
107.795761
 20
16.000000
 11
143.343018
 21
16.000000
  0
LINE
  8
0
 10
139.500015
 20
17.000000
 11
137.900009
 21
17.000000
  0
LINE
  8
0
 10
139.500015
 20
21.200012
 11
137.900009
 21
21.200012
  0
LINE
  8
0
 10
140.500015
 20
14.799988
 11
140.500015
 21
17.200012
  0
LINE
  8
0
 10
140.200012
 20
20.700012
 11
140.000015
 21
20.700012
  0
LINE
  8
0
 10
140.200012
 20
17.500000
 11
140.000015
 21
17.500000
  0
LINE
  8
0
 10
139.500015
 20
16.999992
 11
140.000000
 21
17.499979
  0
LINE
  8
0
 10
140.000122
 20
20.700113
 11
139.500137
 21
21.200104
  0
LINE
  8
0
 10
140.500015
 20
21.000000
 11
140.500015
 21
22.500015
  0
LINE
  8
0
 10
139.500015
 20
15.000000
 11
137.900009
 21
15.000000
  0
LINE
  8
0
 10
139.500015
 20
10.799988
 11
137.900009
 21
10.799988
  0
LINE
  8
0
 10
140.200012
 20
11.299988
 11
140.000015
 21
11.299988
  0
LINE
  8
0
 10
140.200012
 20
14.500000
 11
140.000015
 21
14.500000
  0
LINE
  8
0
 10
139.500153
 20
15.000108
 11
140.000153
 21
14.500113
  0
LINE
  8
0
 10
140.000076
 20
11.299962
 11
139.500076
 21
10.799962
  0
LINE
  8
0
 10
140.500076
 20
22.499977
 11
142.000046
 21
23.999952
  0
LINE
  8
0
 10
140.500015
 20
11.000000
 11
140.500015
 21
9.499985
  0
LINE
  8
0
 10
140.500076
 20
9.500009
 11
142.000061
 21
8.000026
  0
LINE
  8
0
 10
141.000000
 20
50.000000
 11
111.000000
 21
50.000000
  0
LINE
  8
0
 10
140.999954
 20
49.999962
 11
141.999954
 21
48.999958
  0
LINE
  8
0
 10
115.000000
 20
41.649994
 11
111.500000
 21
41.649994
  0
LINE
  8
0
 10
115.000000
 20
34.350006
 11
111.500000
 21
34.350006
  0
LINE
  8
0
 10
111.500000
 20
40.149994
 11
110.300003
 21
40.149994
  0
LINE
  8
0
 10
111.500000
 20
35.850006
 11
110.300003
 21
35.850006
  0
LINE
  8
0
 10
115.000000
 20
34.350006
 11
115.000000
 21
41.649994
  0
LINE
  8
0
 10
111.500000
 20
34.350006
 11
111.500000
 21
35.850006
  0
LINE
  8
0
 10
111.500000
 20
40.149994
 11
111.500000
 21
41.649994
  0
LINE
  8
0
 10
110.000000
 20
40.449997
 11
110.000000
 21
49.000000
  0
LINE
  8
0
 10
111.000000
 20
49.999981
 11
110.000000
 21
48.999985
  0
LINE
  8
0
  6
CENTER
 62
     2
 10
123.125000
 20
28.999998
 11
108.875000
 21
28.999998
  0
LINE
  8
0
 10
112.499985
 20
17.000000
 11
114.099991
 21
17.000000
  0
LINE
  8
0
 10
112.499985
 20
21.200012
 11
114.099991
 21
21.200012
  0
LINE
  8
0
 10
111.499985
 20
14.799988
 11
111.499985
 21
17.200012
  0
LINE
  8
0
 10
111.799988
 20
20.700012
 11
111.999985
 21
20.700012
  0
LINE
  8
0
 10
111.799988
 20
17.500000
 11
111.999985
 21
17.500000
  0
LINE
  8
0
 10
112.500053
 20
17.000036
 11
112.000061
 21
17.500029
  0
LINE
  8
0
 10
111.999931
 20
20.700066
 11
112.499939
 21
21.200079
  0
LINE
  8
0
 10
111.499985
 20
21.000000
 11
111.499985
 21
22.500015
  0
LINE
  8
0
 10
112.499985
 20
15.000000
 11
114.099991
 21
15.000000
  0
LINE
  8
0
 10
112.499985
 20
10.799988
 11
114.099991
 21
10.799988
  0
LINE
  8
0
 10
111.799988
 20
11.299988
 11
111.999985
 21
11.299988
  0
LINE
  8
0
 10
111.799988
 20
14.500000
 11
111.999985
 21
14.500000
  0
LINE
  8
0
 10
112.499931
 20
15.000060
 11
111.999924
 21
14.500057
  0
LINE
  8
0
 10
112.000008
 20
11.300000
 11
112.500008
 21
10.799999
  0
LINE
  8
0
 10
111.500015
 20
22.500069
 11
110.000023
 21
24.000059
  0
LINE
  8
0
 10
111.499985
 20
11.000000
 11
111.499985
 21
9.499985
  0
LINE
  8
0
 10
111.499985
 20
9.499967
 11
109.999992
 21
7.999977
  0
LINE
  8
0
 10
110.000000
 20
24.000000
 11
110.000000
 21
35.550003
  0
LINE
  8
0
 10
140.999954
 20
-17.999941
 11
141.999954
 21
-16.999939
  0
LINE
  8
0
  6
CENTER
 62
     2
 10
133.428131
 20
-7.500000
 11
118.986710
 21
-7.500000
  0
LINE
  8
0
  6
CENTER
 62
     2
 10
116.000000
 20
49.204285
 11
116.000000
 21
42.139339
  0
LINE
  8
0
  6
CENTER
 62
     2
 10
112.643585
 20
46.000000
 11
119.182953
 21
46.000000
  0
LINE
  8
0
  6
CENTER
 62
     2
 10
116.000000
 20
-17.204285
 11
116.000000
 21
-10.590622
  0
LINE
  8
0
  6
CENTER
 62
     2
 10
119.356415
 20
-14.000000
 11
112.817047
 21
-14.000000
  0
LINE
  8
0
  6
CENTER
 62
     2
 10
136.000000
 20
49.204285
 11
136.000000
 21
42.312832
  0
LINE
  8
0
  6
CENTER
 62
     2
 10
139.356415
 20
46.000000
 11
132.817047
 21
46.000000
  0
LINE
  8
0
 10
142.000000
 20
24.000000
 11
142.000000
 21
35.550003
  0
LINE
  8
0
 10
142.000000
 20
40.449997
 11
142.000000
 21
49.000000
  0
LINE
  8
0
 10
142.000000
 20
8.000000
 11
142.000000
 21
-3.550003
  0
LINE
  8
0
 10
142.000000
 20
-8.449997
 11
142.000000
 21
-17.000000
  0
LINE
  8
0
 10
135.500000
 20
41.649994
 11
139.000000
 21
41.649994
  0
LINE
  8
0
 10
135.500000
 20
34.350006
 11
139.000000
 21
34.350006
  0
LINE
  8
0
 10
139.000000
 20
40.149994
 11
141.699997
 21
40.149994
  0
LINE
  8
0
 10
139.000000
 20
35.850006
 11
141.699997
 21
35.850006
  0
LINE
  8
0
 10
135.500000
 20
34.350006
 11
135.500000
 21
41.649994
  0
LINE
  8
0
 10
139.000000
 20
34.350006
 11
139.000000
 21
35.850006
  0
LINE
  8
0
 10
139.000000
 20
40.149994
 11
139.000000
 21
41.649994
  0
LINE
  8
0
 10
135.500000
 20
-2.350006
 11
135.500000
 21
-9.649994
  0
LINE
  8
0
 10
135.500000
 20
-9.649994
 11
139.000000
 21
-9.649994
  0
LINE
  8
0
 10
135.500000
 20
-2.350006
 11
139.000000
 21
-2.350006
  0
LINE
  8
0
 10
139.000000
 20
-8.149994
 11
141.699997
 21
-8.149994
  0
LINE
  8
0
 10
139.000000
 20
-3.850006
 11
141.699997
 21
-3.850006
  0
LINE
  8
0
 10
139.000000
 20
-2.350006
 11
139.000000
 21
-3.850006
  0
LINE
  8
0
 10
139.000000
 20
-8.149994
 11
139.000000
 21
-9.649994
  0
LINE
  8
0
  6
CENTER
 62
     2
 10
114.966064
 20
-3.000000
 11
118.102707
 21
-3.000000
  0
LINE
  8
0
 10
141.000000
 20
-18.000000
 11
111.000000
 21
-18.000000
  0
LINE
  8
0
 10
111.000015
 20
-17.999998
 11
110.000000
 21
-16.999994
  0
LINE
  8
0
 10
110.000000
 20
-17.000015
 11
110.000000
 21
-14.592545
  0
LINE
  8
0
 10
113.000023
 20
-11.017266
 11
110.000046
 21
-8.499979
  0
LINE
  8
0
 10
110.000000
 20
-8.500000
 11
110.000000
 21
8.000015
  0
LINE
  8
0
 10
109.999977
 20
-14.592542
 11
112.999985
 21
-11.017276
  0
LINE
  8
0
  6
CENTER
 62
     2
 10
134.338470
 20
38.000000
 11
137.597015
 21
38.000000
  0
LINE
  8
0
  6
CENTER
 62
     2
 10
134.113953
 20
-6.000000
 11
137.435638
 21
-6.000000
  0
LINE
  8
0
 10
131.196152
 20
-4.500000
 11
135.500000
 21
-4.500000
  0
LINE
  8
0
 10
132.000000
 20
-7.500000
 11
135.500000
 21
-7.500000
  0
LINE
  8
0
 10
131.196152
 20
36.500000
 11
135.500000
 21
36.500000
  0
LINE
  8
0
 10
132.000000
 20
39.500000
 11
135.500000
 21
39.500000
  0
LINE
  8
0
  6
CENTER
 62
     2
 10
116.109589
 20
38.000000
 11
110.834930
 21
38.000000
  0
LINE
  8
0
  6
CENTER
 62
     2
 10
116.500000
 20
-4.634415
 11
116.500000
 21
-1.455048
  0
LINE
  8
0
  6
CENTER
 62
     2
 10
136.000000
 20
-17.204285
 11
136.000000
 21
-10.826397
  0
LINE
  8
0
  6
CENTER
 62
     2
 10
139.356415
 20
-14.000000
 11
132.817047
 21
-14.000000
  0
LINE
  8
0
 10
139.000000
 20
-8.149994
 11
139.000000
 21
-3.850006
  0
LINE
  8
0
 10
113.000000
 20
10.799988
 11
113.000000
 21
14.688858
  0
LINE
  8
0
 10
113.000000
 20
34.350006
 11
113.000000
 21
41.649994
  0
LINE
  8
0
 10
113.000000
 20
17.000000
 11
113.000000
 21
21.200012
  0
LINE
  8
0
 10
139.000000
 20
35.850006
 11
139.000000
 21
40.149994
  0
LINE
  8
0
 10
139.000000
 20
17.000000
 11
139.000000
 21
21.200012
  0
LINE
  8
0
 10
139.000000
 20
10.799988
 11
139.000000
 21
15.000000
  0
LINE
  8
0
 10
117.520691
 20
33.500000
 11
141.500000
 21
33.500000
  0
LINE
  8
0
 10
137.520691
 20
-1.500000
 11
141.500000
 21
-1.500000
  0
LINE
  8
0
 10
141.500000
 20
8.000000
 11
141.500000
 21
-1.500000
  0
LINE
  8
0
  6
CENTER
 62
     2
 10
126.000000
 20
-20.312210
 11
126.000000
 21
53.121078
  0
LINE
  8
0
  6
CENTER
 62
     2
 10
133.292236
 20
39.500000
 11
118.660217
 21
39.500000
  0
LINE
  8
0
  6
CENTER
 62
     2
 10
136.000000
 20
-4.125000
 11
136.000000
 21
10.125000
  0
LINE
  8
0
  6
CENTER
 62
     2
 10
143.125000
 20
3.000000
 11
128.875000
 21
3.000000
  0
LINE
  8
0
 10
-194.250000
 20
132.600006
 11
194.800003
 21
132.600006
  0
LINE
  8
0
 10
194.800003
 20
132.600006
 11
194.800003
 21
-133.500000
  0
LINE
  8
0
 10
-194.250000
 20
132.600006
 11
-194.250000
 21
-133.500000
  0
LINE
  8
0
 10
-194.250000
 20
-133.500000
 11
194.800003
 21
-133.500000
  0
LINE
  8
0
 10
109.800003
 20
-118.500000
 11
109.800003
 21
-133.500000
  0
LINE
  8
0
 10
109.800003
 20
-118.500000
 11
194.800003
 21
-118.500000
  0
LINE
  8
0
 10
109.800003
 20
132.600006
 11
109.800003
 21
117.600006
  0
LINE
  8
0
 10
109.800003
 20
117.600006
 11
194.800003
 21
117.600006
  0
LINE
  8
0
 10
-194.250000
 20
117.600006
 11
-84.250000
 21
117.600006
  0
LINE
  8
0
 10
-84.250000
 20
132.600006
 11
-84.250000
 21
117.600006
  0
LINE
  8
0
 10
-184.250000
 20
-123.500000
 11
-87.250000
 21
-123.500000
  0
LINE
  8
0
 10
-184.250000
 20
-123.500000
 11
-184.250000
 21
-92.500000
  0
LINE
  8
0
 10
-184.250000
 20
-115.500000
 11
-87.250000
 21
-115.500000
  0
LINE
  8
0
 10
-184.250000
 20
-107.500000
 11
-87.250000
 21
-107.500000
  0
LINE
  8
0
 10
-159.250000
 20
-123.500000
 11
-159.250000
 21
-92.500000
  0
LINE
  8
0
 10
-135.250000
 20
-123.500000
 11
-135.250000
 21
-92.500000
  0
LINE
  8
0
 10
-147.250000
 20
-123.500000
 11
-147.250000
 21
-92.500000
  0
LINE
  8
0
 10
-123.250000
 20
-123.500000
 11
-123.250000
 21
-92.500000
  0
LINE
  8
0
 10
-111.250000
 20
-123.500000
 11
-111.250000
 21
-92.500000
  0
LINE
  8
0
 10
-99.250000
 20
-123.500000
 11
-99.250000
 21
-92.500000
  0
LINE
  8
0
 10
-159.250046
 20
-107.500015
 11
-161.929535
 21
-97.500023
  0
LINE
  8
0
 10
-184.250000
 20
-97.500000
 11
-161.929489
 21
-97.500000
  0
LINE
  8
0
 10
-184.250000
 20
-92.500000
 11
-87.250000
 21
-92.500000
  0
LINE
  8
0
 10
-87.250000
 20
-123.500000
 11
-87.250000
 21
-92.500000
  0
LINE
  8
0
  6
PHANTOM
 62
     3
 10
-12.000000
 20
-6.000000
 11
-12.000000
 21
-23.000000
  0
LINE
  8
0
  6
PHANTOM
 62
     3
 10
-12.000000
 20
-6.000000
 11
-3.500000
 21
-6.000000
  0
ARC
  8
0
 10
14.500000
 20
1.250000
 40
3.000000
 50
269.999969
 51
345.164948
  0
ARC
  8
0
 10
14.500000
 20
4.750000
 40
3.000000
 50
14.835007
 51
89.999985
  0
ARC
  8
0
 10
14.500000
 20
30.749998
 40
3.000000
 50
14.834990
 51
89.999985
  0
ARC
  8
0
 10
14.500000
 20
27.249998
 40
3.000000
 50
269.999969
 51
345.164948
  0
ARC
  8
0
 10
-34.000000
 20
16.000000
 40
4.000002
 50
331.044983
 51
28.955065
  0
CIRCLE
  8
0
 10
-24.000000
 20
29.000000
 40
4.000000
  0
CIRCLE
  8
0
 10
-24.000000
 20
29.000000
 40
2.100000
  0
CIRCLE
  8
0
  6
DASHED
 62
     2
 10
-24.000000
 20
29.000000
 40
2.500000
  0
CIRCLE
  8
0
 10
-9.000000
 20
29.000000
 40
4.000000
  0
CIRCLE
  8
0
 10
-9.000000
 20
29.000000
 40
2.100000
  0
CIRCLE
  8
0
  6
DASHED
 62
     2
 10
-9.000000
 20
29.000000
 40
2.500000
  0
CIRCLE
  8
0
 10
-24.000000
 20
3.000000
 40
4.000000
  0
CIRCLE
  8
0
 10
-24.000000
 20
3.000000
 40
2.100000
  0
CIRCLE
  8
0
  6
DASHED
 62
     2
 10
-24.000000
 20
3.000000
 40
2.500000
  0
CIRCLE
  8
0
 10
-8.999985
 20
3.000000
 40
4.000000
  0
CIRCLE
  8
0
 10
-8.999985
 20
3.000000
 40
2.100000
  0
CIRCLE
  8
0
  6
DASHED
 62
     2
 10
-8.999985
 20
3.000000
 40
2.500000
  0
CIRCLE
  8
0
 62
     2
 10
-19.000000
 20
-3.000000
 40
2.500000
  0
CIRCLE
  8
0
 62
     2
 10
0.500008
 20
-3.000000
 40
2.500000
  0
CIRCLE
  8
0
 10
-19.000000
 20
-3.000000
 40
2.100000
  0
CIRCLE
  8
0
 10
0.500008
 20
-3.000000
 40
2.100000
  0
ARC
  8
0
 10
41.921844
 20
22.062176
 40
3.578156
 50
325.615814
 51
0.000000
  0
ARC
  8
0
 10
47.245270
 20
20.330124
 40
1.745270
 50
180.000000
 51
235.793930
  0
ARC
  8
0
 10
48.754730
 20
20.330124
 40
1.745270
 50
304.206085
 51
0.000000
  0
ARC
  8
0
 10
32.125175
 20
16.000004
 40
13.374824
 50
342.412109
 51
17.587912
  0
ARC
  8
0
 10
51.334885
 20
16.000000
 40
5.834884
 50
150.347427
 51
209.652542
  0
ARC
  8
0
 10
44.665115
 20
16.000000
 40
5.834885
 50
330.347412
 51
29.652590
  0
ARC
  8
0
 10
47.235863
 20
11.669876
 40
1.740001
 50
123.949997
 51
183.952271
  0
ARC
  8
0
 10
48.754730
 20
11.669876
 40
1.745270
 50
0.000000
 51
55.793926
  0
ARC
  8
0
 10
41.921844
 20
9.937824
 40
3.578156
 50
359.999939
 51
34.384109
  0
CIRCLE
  8
0
 10
-121.000000
 20
16.000000
 40
4.750000
  0
CIRCLE
  8
0
 10
-121.000000
 20
39.500000
 40
4.750000
  0
CIRCLE
  8
0
 10
-121.000000
 20
16.000000
 40
2.850000
  0
CIRCLE
  8
0
 10
-121.000000
 20
39.500000
 40
2.850000
  0
ARC
  8
0
 10
-135.200012
 20
11.000000
 40
0.300000
 50
90.000000
 51
180.000000
  0
ARC
  8
0
 10
-135.200012
 20
21.000000
 40
0.300003
 50
180.000000
 51
270.000000
  0
ARC
  8
0
 10
-135.200012
 20
17.200012
 40
0.299999
 50
90.000000
 51
180.000000
  0
ARC
  8
0
 10
-135.200012
 20
14.799988
 40
0.300003
 50
180.000000
 51
270.000000
  0
ARC
  8
0
 10
-105.300003
 20
40.449997
 40
0.299999
 50
270.000000
 51
0.000000
  0
ARC
  8
0
 10
-105.300003
 20
35.550003
 40
0.300003
 50
0.000000
 51
90.000000
  0
ARC
  8
0
 10
-106.799988
 20
11.000000
 40
0.300003
 50
0.000000
 51
90.000000
  0
ARC
  8
0
 10
-106.799988
 20
21.000000
 40
0.299999
 50
270.000000
 51
0.000000
  0
ARC
  8
0
 10
-106.799988
 20
17.200012
 40
0.300003
 50
0.000000
 51
90.000000
  0
ARC
  8
0
 10
-106.799988
 20
14.799988
 40
0.300000
 50
270.000000
 51
0.000000
  0
ARC
  8
0
 10
-136.699997
 20
40.449997
 40
0.300003
 50
180.000000
 51
270.000000
  0
ARC
  8
0
 10
-136.699997
 20
35.550003
 40
0.299999
 50
90.000000
 51
180.000000
  0
ARC
  8
0
 10
-136.699997
 20
-3.550003
 40
0.300003
 50
180.000046
 51
270.000000
  0
ARC
  8
0
 10
-136.699997
 20
-8.449997
 40
0.300000
 50
90.000000
 51
180.000000
  0
CIRCLE
  8
0
 10
-121.000000
 20
39.500000
 40
5.250000
  0
CIRCLE
  8
0
 10
-121.000000
 20
16.000000
 40
5.250000
  0
CIRCLE
  8
0
 10
-121.000000
 20
-7.500000
 40
5.250000
  0
CIRCLE
  8
0
 62
     2
 10
-113.000000
 20
44.000000
 40
2.500000
  0
CIRCLE
  8
0
 10
-113.000000
 20
44.000000
 40
2.100000
  0
CIRCLE
  8
0
 62
     2
 10
-129.000000
 20
44.000000
 40
2.500000
  0
CIRCLE
  8
0
 10
-129.000000
 20
44.000000
 40
2.100000
  0
CIRCLE
  8
0
 62
     2
 10
-113.000000
 20
-12.000000
 40
2.500000
  0
CIRCLE
  8
0
 10
-113.000000
 20
-12.000000
 40
2.100000
  0
CIRCLE
  8
0
 62
     2
 10
-129.000000
 20
-12.000000
 40
2.500000
  0
CIRCLE
  8
0
 10
-129.000000
 20
-12.000000
 40
2.100000
  0
CIRCLE
  8
0
 10
-121.000000
 20
-7.500000
 40
4.750000
  0
CIRCLE
  8
0
 10
-121.000000
 20
-7.500000
 40
2.850000
  0
CIRCLE
  8
0
 10
126.000000
 20
-7.500000
 40
5.000000
  0
CIRCLE
  8
0
 10
126.000000
 20
39.500000
 40
5.000000
  0
CIRCLE
  8
0
 10
136.000000
 20
3.000000
 40
4.750000
  0
CIRCLE
  8
0
 10
136.000000
 20
3.000000
 40
2.850000
  0
CIRCLE
  8
0
 10
116.000000
 20
28.999998
 40
4.750000
  0
CIRCLE
  8
0
 10
116.000000
 20
28.999998
 40
2.850000
  0
ARC
  8
0
 10
114.500000
 20
10.500000
 40
2.500000
 50
270.000000
 51
0.000000
  0
ARC
  8
0
 10
114.500000
 20
21.500000
 40
2.500000
 50
0.000000
 51
90.000000
  0
ARC
  8
0
 10
137.500000
 20
10.500000
 40
2.500000
 50
179.999985
 51
270.000000
  0
ARC
  8
0
 10
137.500000
 20
21.500000
 40
2.500000
 50
90.000000
 51
179.999954
  0
CIRCLE
  8
0
 10
126.000000
 20
16.000000
 40
7.000000
  0
CIRCLE
  8
0
 10
126.000000
 20
16.000000
 40
5.000000
  0
CIRCLE
  8
0
 10
126.000000
 20
16.000000
 40
3.000000
  0
CIRCLE
  8
0
 62
     2
 10
126.000000
 20
16.000000
 40
2.500000
  0
ARC
  8
0
 10
140.200012
 20
11.000000
 40
0.300003
 50
0.000000
 51
90.000000
  0
ARC
  8
0
 10
137.900009
 20
19.100006
 40
2.100000
 50
90.000000
 51
270.000000
  0
ARC
  8
0
 10
140.200012
 20
21.000000
 40
0.299999
 50
270.000000
 51
0.000000
  0
ARC
  8
0
 10
140.200012
 20
17.200012
 40
0.300003
 50
0.000000
 51
90.000000
  0
ARC
  8
0
 10
140.200012
 20
14.799988
 40
0.300000
 50
270.000000
 51
0.000000
  0
ARC
  8
0
 10
137.900009
 20
12.899994
 40
2.100000
 50
90.000000
 51
270.000000
  0
ARC
  8
0
 10
110.300003
 20
40.449997
 40
0.300003
 50
180.000000
 51
270.000000
  0
ARC
  8
0
 10
110.300003
 20
35.550003
 40
0.299999
 50
90.000000
 51
180.000000
  0
CIRCLE
  8
0
 10
126.000000
 20
39.500000
 40
6.000000
  0
ARC
  8
0
 10
114.099991
 20
12.899994
 40
2.100000
 50
270.000000
 51
90.000000
  0
ARC
  8
0
 10
111.799988
 20
11.000000
 40
0.300000
 50
90.000000
 51
180.000000
  0
ARC
  8
0
 10
114.099991
 20
19.100006
 40
2.100000
 50
270.000000
 51
90.000000
  0
ARC
  8
0
 10
111.799988
 20
21.000000
 40
0.300003
 50
180.000000
 51
270.000000
  0
ARC
  8
0
 10
111.799988
 20
17.200012
 40
0.299999
 50
90.000000
 51
180.000000
  0
ARC
  8
0
 10
111.799988
 20
14.799988
 40
0.300003
 50
180.000000
 51
270.000000
  0
CIRCLE
  8
0
 10
126.000000
 20
-7.500000
 40
6.000000
  0
CIRCLE
  8
0
 62
     2
 10
116.000000
 20
46.000000
 40
2.500000
  0
CIRCLE
  8
0
 10
116.000000
 20
46.000000
 40
2.100000
  0
CIRCLE
  8
0
 62
     2
 10
116.000000
 20
-14.000000
 40
2.500000
  0
CIRCLE
  8
0
 10
116.000000
 20
-14.000000
 40
2.100000
  0
CIRCLE
  8
0
 62
     2
 10
136.000000
 20
46.000000
 40
2.500000
  0
CIRCLE
  8
0
 10
136.000000
 20
46.000000
 40
2.100000
  0
ARC
  8
0
 10
141.699997
 20
-3.550003
 40
0.300000
 50
270.000000
 51
0.000000
  0
ARC
  8
0
 10
141.699997
 20
-8.449997
 40
0.300003
 50
0.000000
 51
90.000000
  0
ARC
  8
0
 10
141.699997
 20
40.449997
 40
0.299999
 50
270.000000
 51
0.000000
  0
ARC
  8
0
 10
141.699997
 20
35.550003
 40
0.300003
 50
0.000000
 51
90.000000
  0
CIRCLE
  8
0
 10
116.500000
 20
-3.000000
 40
1.000000
  0
CIRCLE
  8
0
 10
136.000000
 20
-14.000000
 40
2.100000
  0
CIRCLE
  8
0
 62
     2
 10
136.000000
 20
-14.000000
 40
2.500000
  0
ARC
  8
0
 10
-18.417648
 20
-9.504692
 40
0.417649
 50
344.498688
 51
15.501308
  0
ARC
  8
0
 10
-18.572218
 20
-9.567026
 40
0.583557
 50
17.343187
 51
54.573589
  0
ARC
  8
0
 10
-19.000000
 20
-10.254539
 40
1.392647
 50
56.628605
 51
123.371399
  0
ARC
  8
0
 10
-19.427782
 20
-9.567026
 40
0.583557
 50
125.426414
 51
162.656815
  0
ARC
  8
0
 10
-19.582352
 20
-9.504692
 40
0.417649
 50
164.498688
 51
195.501312
  0
ARC
  8
0
 10
-19.427782
 20
-9.442358
 40
0.583557
 50
197.343185
 51
234.573593
  0
ARC
  8
0
 10
-19.000000
 20
-8.754845
 40
1.392647
 50
236.628601
 51
303.371399
  0
ARC
  8
0
 10
-18.572218
 20
-9.442358
 40
0.583557
 50
305.426422
 51
342.656799
  0
ARC
  8
0
 10
1.082359
 20
-9.504692
 40
0.417649
 50
344.498688
 51
15.501308
  0
ARC
  8
0
 10
0.927789
 20
-9.567026
 40
0.583557
 50
17.343166
 51
54.573532
  0
ARC
  8
0
 10
0.500008
 20
-10.254539
 40
1.392647
 50
56.628609
 51
123.371391
  0
ARC
  8
0
 10
0.072226
 20
-9.567026
 40
0.583557
 50
125.426476
 51
162.656830
  0
ARC
  8
0
 10
-0.082344
 20
-9.504692
 40
0.417648
 50
164.498688
 51
195.501312
  0
ARC
  8
0
 10
0.072226
 20
-9.442358
 40
0.583557
 50
197.343170
 51
234.573532
  0
ARC
  8
0
 10
0.500008
 20
-8.754845
 40
1.392647
 50
236.628601
 51
303.371399
  0
ARC
  8
0
 10
0.927789
 20
-9.442358
 40
0.583557
 50
305.426483
 51
342.656830
  0
TEXT
  8
0
 10
133.907150
 20
122.050003
 40
4.500000
  1
Ver. 1.0
 50
0.000000
 41
1.052631
 51
0.000000
  7
STANDARD
  0
TEXT
  8
0
 10
113.700279
 20
-130.669998
 40
6.300000
  1
KOGANEI CORP.
 50
0.000000
 41
1.052632
 51
0.000000
  7
STANDARD
  0
TEXT
  8
0
 10
-191.392654
 20
122.050003
 40
4.500000
  1
JIG CYLINDER WITH GUIDE
 50
0.000000
 41
1.052632
 51
0.000000
  7
STANDARD
  0
TEXT
  8
0
 10
-186.892654
 20
104.550003
 40
4.500000
  1
MODEL:SGDAP16*ST(10)
 50
0.000000
 41
1.052632
 51
0.000000
  7
STANDARD
  0
TEXT
  8
0
 10
-181.557144
 20
-96.879997
 40
3.200000
  1
STROKE
 50
0.000000
 41
1.052631
 51
0.000000
  7
STANDARD
  0
TEXT
  8
0
 10
-173.557144
 20
-113.379997
 40
3.200000
  1
A
 50
0.000000
 41
1.052631
 51
0.000000
  7
STANDARD
  0
TEXT
  8
0
 10
-184.496872
 20
-101.019997
 40
3.200000
  1
STRETCH
 50
0.000000
 41
1.052631
 51
0.000000
  7
STANDARD
  0
TEXT
  8
0
 10
-184.496872
 20
-105.820000
 40
3.200000
  1
  PLACE
 50
0.000000
 41
1.052631
 51
0.000000
  7
STANDARD
  0
TEXT
  8
0
 10
-156.657150
 20
-101.879997
 40
3.200000
  1
10
 50
0.000000
 41
1.052631
 51
0.000000
  7
STANDARD
  0
TEXT
  8
0
 10
-144.657150
 20
-101.879997
 40
3.200000
  1
20
 50
0.000000
 41
1.052631
 51
0.000000
  7
STANDARD
  0
TEXT
  8
0
 10
-132.657150
 20
-101.879997
 40
3.200000
  1
30
 50
0.000000
 41
1.052631
 51
0.000000
  7
STANDARD
  0
TEXT
  8
0
 10
-120.657158
 20
-101.879997
 40
3.200000
  1
50
 50
0.000000
 41
1.052631
 51
0.000000
  7
STANDARD
  0
TEXT
  8
0
 10
-108.657158
 20
-101.879997
 40
3.200000
  1
75
 50
0.000000
 41
1.052631
 51
0.000000
  7
STANDARD
  0
TEXT
  8
0
 10
-98.257156
 20
-101.879997
 40
3.200000
  1
100
 50
0.000000
 41
1.052631
 51
0.000000
  7
STANDARD
  0
TEXT
  8
0
 10
-99.857140
 20
-91.379997
 40
3.200000
  1
(mm)
 50
0.000000
 41
1.052631
 51
0.000000
  7
STANDARD
  0
TEXT
  8
0
 10
-155.157135
 20
-91.379997
 40
3.200000
  1
STRETCH LIST
 50
0.000000
 41
1.052631
 51
0.000000
  7
STANDARD
  0
TEXT
  8
0
 10
-173.557007
 20
-121.379997
 40
3.200000
  1
B
 50
0.000000
 41
1.052632
 51
0.000000
  7
STANDARD
  0
TEXT
  8
0
 62
     3
 10
-12.307142
 20
59.119999
 40
3.200000
  1
STRETCH LINE A
 50
0.000000
 41
1.052631
 51
0.000000
  7
STANDARD
  0
TEXT
  8
0
 62
     3
 10
-23.307001
 20
66.120003
 40
3.200000
  1
STRETCH LINE B
 50
0.000000
 41
1.052632
 51
0.000000
  7
STANDARD
  0
TEXT
  8
0
 10
-155.057007
 20
-113.379997
 40
3.200000
  1
0
 50
0.000000
 41
1.052632
 51
0.000000
  7
STANDARD
  0
TEXT
  8
0
 10
-143.057007
 20
-113.379997
 40
3.200000
  1
0
 50
0.000000
 41
1.052632
 51
0.000000
  7
STANDARD
  0
TEXT
  8
0
 10
-131.057007
 20
-113.379997
 40
3.200000
  1
0
 50
0.000000
 41
1.052632
 51
0.000000
  7
STANDARD
  0
TEXT
  8
0
 10
-119.056999
 20
-113.379997
 40
3.200000
  1
0
 50
0.000000
 41
1.052632
 51
0.000000
  7
STANDARD
  0
TEXT
  8
0
 10
-108.656998
 20
-113.379997
 40
3.200000
  1
25
 50
0.000000
 41
1.052632
 51
0.000000
  7
STANDARD
  0
TEXT
  8
0
 10
-96.656998
 20
-113.379997
 40
3.200000
  1
50
 50
0.000000
 41
1.052632
 51
0.000000
  7
STANDARD
  0
TEXT
  8
0
 10
-96.656998
 20
-121.379997
 40
3.200000
  1
40
 50
0.000000
 41
1.052632
 51
0.000000
  7
STANDARD
  0
TEXT
  8
0
 10
-108.656998
 20
-121.379997
 40
3.200000
  1
40
 50
0.000000
 41
1.052632
 51
0.000000
  7
STANDARD
  0
TEXT
  8
0
 10
-120.656998
 20
-121.379997
 40
3.200000
  1
40
 50
0.000000
 41
1.052632
 51
0.000000
  7
STANDARD
  0
TEXT
  8
0
 10
-132.656998
 20
-121.379997
 40
3.200000
  1
20
 50
0.000000
 41
1.052632
 51
0.000000
  7
STANDARD
  0
TEXT
  8
0
 10
-144.656998
 20
-121.379997
 40
3.200000
  1
10
 50
0.000000
 41
1.052632
 51
0.000000
  7
STANDARD
  0
TEXT
  8
0
 10
-155.057007
 20
-121.379997
 40
3.200000
  1
0
 50
0.000000
 41
1.052632
 51
0.000000
  7
STANDARD
  0
TEXT
  8
0
 62
     2
 10
37.241512
 20
-32.000000
 40
3.200000
  1
STROKE=75-100
 50
0.000000
 41
1.052632
 51
0.000000
  7
STANDARD
  0
LINE
  8
0
 62
     2
 10
31.000000
 20
-33.000000
 11
78.591515
 21
-33.000000
  0
LINE
  8
0
 62
     2
 10
8.000008
 20
-33.000000
 11
31.000000
 21
-33.000000
  0
LINE
  8
0
 62
     2
 10
8.000008
 20
-33.000000
 11
10.897785
 21
-32.223541
  0
LINE
  8
0
 62
     2
 10
8.000008
 20
-33.000000
 11
10.897785
 21
-33.776459
  0
LINE
  8
0
 62
     2
 10
31.000000
 20
-33.000000
 11
28.102222
 21
-33.776459
  0
LINE
  8
0
 62
     2
 10
31.000000
 20
-33.000000
 11
28.102222
 21
-32.223541
  0
LINE
  8
0
 62
     2
 10
8.000008
 20
-17.500000
 11
8.000008
 21
-34.500000
  0
LINE
  8
0
 62
     2
 10
31.000000
 20
-12.000000
 11
31.000000
 21
-34.500000
  0
ENDSEC
  0
EOF
