  0
SECTION
  2
HEADER
  0
ENDSEC
  0
SECTION
  2
TABLES
  0
TABLE
  2
LTYPE
 70
     4
  0
LTYPE
  2
CONTINUOUS
 70
    64
  3
Solid line
 72
    65
 73
     0
 40
0.000000
  0
LTYPE
  2
DASHED
 70
    64
  3
__ __ __ __ __ __ __ __ __ __ __ __ __ __ __
 72
    65
 73
     2
 40
3.500000
 49
2.000000
 49
-1.500000
  0
LTYPE
  2
CENTER
 70
    64
  3
____ _ ____ _ ____ _ ____ _ ____ _ ____ _ ____
 72
    65
 73
     4
 40
17.500000
 49
13.000000
 49
-1.500000
 49
1.500000
 49
-1.500000
  0
LTYPE
  2
PHANTOM
 70
    64
  3
_____ _ _ _____ _ _ _____ _ _ _____ _ _ ____  
 72
    65
 73
     6
 40
15.500000
 49
8.000000
 49
-1.500000
 49
1.500000
 49
-1.500000
 49
1.500000
 49
-1.500000
  0
LTYPE
  2
DASHED1
 70
    64
  3
__ __ __ __ __ __ __ __ __ __ __ __ __ __ __
 72
    65
 73
     2
 40
1.500000
 49
1.000000
 49
-0.500000
  0
LTYPE
  2
DASHED2
 70
    64
  3
__ __ __ __ __ __ __ __ __ __ __ __ __ __ __
 72
    65
 73
     2
 40
3.500000
 49
2.500000
 49
-1.000000
  0
LTYPE
  2
DASHED3
 70
    64
  3
__ __ __ __ __ __ __ __ __ __ __ __ __ __ __
 72
    65
 73
     2
 40
6.000000
 49
4.000000
 49
-2.000000
  0
LTYPE
  2
DASHED4
 70
    64
  3
__ __ __ __ __ __ __ __ __ __ __ __ __ __ __
 72
    65
 73
     2
 40
12.000000
 49
10.000000
 49
-2.000000
  0
LTYPE
  2
DASHED5
 70
    64
  3
__ __ __ __ __ __ __ __ __ __ __ __ __ __ __
 72
    65
 73
     2
 40
17.000000
 49
15.000000
 49
-2.000000
  0
LTYPE
  2
DASHED6
 70
    64
  3
__ __ __ __ __ __ __ __ __ __ __ __ __ __ __
 72
    65
 73
     2
 40
29.000000
 49
27.000000
 49
-2.000000
  0
LTYPE
  2
PHANTOM1
 70
    64
  3
_____ _ _ _____ _ _ _____ _ _ _____ _ _ ____  
 72
    65
 73
     6
 40
31.000000
 49
25.000000
 49
-1.500000
 49
1.000000
 49
-1.000000
 49
1.000000
 49
-1.500000
  0
LTYPE
  2
PHANTOM2
 70
    64
  3
_____ _ _ _____ _ _ _____ _ _ _____ _ _ ____  
 72
    65
 73
     6
 40
36.000000
 49
27.000000
 49
-1.500000
 49
2.500000
 49
-1.000000
 49
2.500000
 49
-1.500000
  0
LTYPE
  2
PHANTOM3
 70
    64
  3
_____ _ _ _____ _ _ _____ _ _ _____ _ _ ____  
 72
    65
 73
     6
 40
78.000000
 49
64.000000
 49
-2.000000
 49
4.000000
 49
-2.000000
 49
4.000000
 49
-2.000000
  0
LTYPE
  2
CENTER1
 70
    64
  3
____ _ ____ _ ____ _ ____ _ ____ _ ____ _ ____
 72
    65
 73
     4
 40
19.000000
 49
14.000000
 49
-1.000000
 49
3.000000
 49
-1.000000
  0
LTYPE
  2
CENTER2
 70
    64
  3
____ _ ____ _ ____ _ ____ _ ____ _ ____ _ ____
 72
    65
 73
     4
 40
28.500000
 49
25.000000
 49
-1.000000
 49
1.500000
 49
-1.000000
  0
LTYPE
  2
CENTER3
 70
    64
  3
____ _ ____ _ ____ _ ____ _ ____ _ ____ _ ____
 72
    65
 73
     4
 40
31.500000
 49
27.000000
 49
-1.000000
 49
2.500000
 49
-1.000000
  0
LTYPE
  2
CENTER4
 70
    64
  3
____ _ ____ _ ____ _ ____ _ ____ _ ____ _ ____
 72
    65
 73
     4
 40
50.000000
 49
45.000000
 49
-1.000000
 49
3.000000
 49
-1.000000
  0
LTYPE
  2
CENTER5
 70
    64
  3
____ _ ____ _ ____ _ ____ _ ____ _ ____ _ ____
 72
    65
 73
     4
 40
100.000000
 49
92.000000
 49
-2.000000
 49
4.000000
 49
-2.000000
  0
LTYPE
  2
SBK1
 70
    64
  3
______ _ _ _ ______ _ _ _ ______ _ _ _ _____  
 72
    65
 73
     8
 40
60.500000
 49
45.000000
 49
-2.000000
 49
2.500000
 49
-2.000000
 49
2.500000
 49
-2.000000
 49
2.500000
 49
-2.000000
  0
LTYPE
  2
SBK2
 70
    64
  3
______ _ _ _ ______ _ _ _ ______ _ _ _ _____  
 72
    65
 73
     8
 40
84.000000
 49
64.000000
 49
-2.000000
 49
4.000000
 49
-2.000000
 49
4.000000
 49
-2.000000
 49
4.000000
 49
-2.000000
  0
LTYPE
  2
STCH
 70
    64
  3
__ __ __ __ __ __ __ __ __ __ __ __ __ __ __
 72
    65
 73
     2
 40
3.000000
 49
1.000000
 49
-2.000000
  0
LTYPE
  2
MTCH
 70
    64
  3
_____ _ _ _____ _ _ _____ _ _ _____ _ _ ____  
 72
    65
 73
     6
 40
80.000000
 49
66.000000
 49
-2.000000
 49
4.000000
 49
-2.000000
 49
4.000000
 49
-2.000000
  0
ENDTAB
  0
TABLE
  2
LAYER
 70
     1
  0
LAYER
  2
0
 70
     0
 62
     7
  6
CONTINUOUS
  0
ENDTAB
  0
TABLE
  2
STYLE
 70
     1
  0
STYLE
  2
STANDARD
 70
     0
 40
0.000000
 41
1.000000
 50
0.000000
 71
     0
 42
0.200000
  3
txt
  4
BIGFONT
  0
ENDTAB
  0
TABLE
  2
VIEW
 70
     0
  0
ENDTAB
  0
ENDSEC
  0
SECTION
  2
BLOCKS
  0
ENDSEC
  0
SECTION
  2
ENTITIES
  0
LINE
  8
0
 10
-27.199997
 20
-86.000000
 11
-24.199997
 21
-86.000000
  0
LINE
  8
0
 10
-27.199997
 20
-80.000000
 11
-24.199997
 21
-80.000000
  0
LINE
  8
0
 10
-27.199997
 20
-44.000000
 11
-24.199997
 21
-44.000000
  0
LINE
  8
0
 10
-27.199997
 20
-38.000000
 11
-24.199997
 21
-38.000000
  0
LINE
  8
0
 10
-6.199997
 20
-67.750000
 11
30.800003
 21
-67.750000
  0
LINE
  8
0
 10
-5.150009
 20
-66.849998
 11
30.800003
 21
-66.849998
  0
LINE
  8
0
 10
-3.389999
 20
-63.650002
 11
30.800003
 21
-63.650002
  0
LINE
  8
0
 10
-3.389999
 20
-60.349998
 11
30.800003
 21
-60.349998
  0
LINE
  8
0
 10
-6.199997
 20
-56.250000
 11
30.800003
 21
-56.250000
  0
LINE
  8
0
 10
-5.150009
 20
-57.150002
 11
30.800003
 21
-57.150002
  0
LINE
  8
0
  6
CENTER
 62
     2
 10
-10.199997
 20
-54.060001
 11
-10.199997
 21
-69.809998
  0
LINE
  8
0
  6
CENTER
 62
     2
 10
-15.199997
 20
-88.129990
 11
-15.199997
 21
-91.941254
  0
LINE
  8
0
 10
-24.199997
 20
-41.850006
 11
30.800003
 21
-41.850006
  0
LINE
  8
0
 10
-24.199997
 20
-45.150009
 11
30.800003
 21
-45.150009
  0
LINE
  8
0
  6
CENTER
 62
     2
 10
-4.199997
 20
-46.090000
 11
-4.199997
 21
-55.750000
  0
LINE
  8
0
  6
CENTER
 62
     2
 10
-9.410004
 20
-51.000000
 11
0.699997
 21
-51.000000
  0
LINE
  8
0
  6
CENTER
 62
     2
 10
-19.199997
 20
-46.000000
 11
-19.199997
 21
-55.840000
  0
LINE
  8
0
 10
30.800003
 20
-33.500000
 11
30.800003
 21
-90.500000
  0
LINE
  8
0
  6
CENTER
 62
     2
 10
16.800003
 20
-88.129990
 11
16.800003
 21
-91.941254
  0
LINE
  8
0
 10
30.799986
 20
-90.500000
 11
30.299986
 21
-91.000000
  0
LINE
  8
0
 10
-24.199999
 20
-90.499985
 11
-23.699999
 21
-90.999992
  0
LINE
  8
0
  6
CENTER
 62
     2
 10
-4.199997
 20
-68.229996
 11
-4.199997
 21
-78.209991
  0
LINE
  8
0
  6
CENTER
 62
     2
 10
1.099991
 20
-73.000000
 11
-9.520004
 21
-73.000000
  0
LINE
  8
0
  6
CENTER
 62
     2
 10
-19.199997
 20
-68.220001
 11
-19.199997
 21
-78.069992
  0
LINE
  8
0
  6
CENTER
 62
     2
 10
-24.069998
 20
-73.000000
 11
-14.460007
 21
-73.000000
  0
LINE
  8
0
 10
-23.699997
 20
-91.000000
 11
30.300003
 21
-91.000000
  0
LINE
  8
0
 10
-24.199997
 20
-67.750000
 11
-14.190002
 21
-67.750000
  0
LINE
  8
0
 10
-24.199997
 20
-90.000000
 11
30.800003
 21
-90.000000
  0
LINE
  8
0
 10
-24.199997
 20
-88.929993
 11
30.800003
 21
-88.929993
  0
LINE
  8
0
 10
-24.199997
 20
-86.189987
 11
30.800003
 21
-86.189987
  0
LINE
  8
0
 10
-24.199997
 20
-84.259995
 11
30.800003
 21
-84.259995
  0
LINE
  8
0
  6
CENTER
 62
     2
 10
21.429993
 20
-79.000000
 11
28.252045
 21
-79.000000
  0
LINE
  8
0
  6
CENTER
 62
     2
 10
-17.500000
 20
-79.000000
 11
-11.000000
 21
-79.000000
  0
LINE
  8
0
  6
CENTER
 62
     2
 10
24.800003
 20
-75.550003
 11
24.800003
 21
-83.202972
  0
LINE
  8
0
  6
DASHED
 62
     2
 10
14.300003
 20
-89.169998
 11
14.300003
 21
-91.000000
  0
LINE
  8
0
  6
DASHED
 62
     2
 10
19.300003
 20
-89.169998
 11
19.300003
 21
-91.000000
  0
LINE
  8
0
  6
DASHED
 62
     2
 10
18.800003
 20
-89.169998
 11
18.800003
 21
-91.000000
  0
LINE
  8
0
  6
DASHED
 62
     2
 10
14.800003
 20
-89.169998
 11
14.800003
 21
-91.000000
  0
LINE
  8
0
  6
DASHED
 62
     2
 10
-17.699997
 20
-89.169998
 11
-17.699997
 21
-91.000000
  0
LINE
  8
0
  6
DASHED
 62
     2
 10
-12.699997
 20
-89.169998
 11
-12.699997
 21
-91.000000
  0
LINE
  8
0
  6
DASHED
 62
     2
 10
-13.199997
 20
-89.169998
 11
-13.199997
 21
-91.000000
  0
LINE
  8
0
  6
DASHED
 62
     2
 10
-17.199997
 20
-89.169998
 11
-17.199997
 21
-91.000000
  0
LINE
  8
0
  6
CENTER
 62
     2
 10
-14.199997
 20
-75.419998
 11
-14.199997
 21
-82.591690
  0
LINE
  8
0
 10
-24.199997
 20
-66.849998
 11
-15.240005
 21
-66.849998
  0
LINE
  8
0
 10
-24.199997
 20
-63.650002
 11
-17.000000
 21
-63.650002
  0
LINE
  8
0
 10
-35.199997
 20
-34.500004
 11
-34.699997
 21
-34.000004
  0
LINE
  8
0
 10
-34.699997
 20
-34.000000
 11
-27.699997
 21
-34.000000
  0
LINE
  8
0
 10
-27.200005
 20
-34.500008
 11
-27.700005
 21
-34.000008
  0
LINE
  8
0
  6
CENTER
 62
     2
 10
-24.909996
 20
-51.000000
 11
-13.840012
 21
-51.000000
  0
LINE
  8
0
 10
-24.199997
 20
-34.000000
 11
30.800003
 21
-34.000000
  0
LINE
  8
0
 10
-27.199997
 20
-60.349998
 11
-25.699997
 21
-60.349998
  0
LINE
  8
0
 10
-24.199997
 20
-56.250000
 11
-14.190002
 21
-56.250000
  0
LINE
  8
0
 10
-24.199997
 20
-57.150002
 11
-15.240005
 21
-57.150002
  0
LINE
  8
0
 10
-24.199997
 20
-60.349998
 11
-17.000000
 21
-60.349998
  0
LINE
  8
0
  6
CENTER
 62
     2
 10
-37.459995
 20
-83.000000
 11
-21.929996
 21
-83.000000
  0
LINE
  8
0
 10
-27.200003
 20
-89.499985
 11
-27.700003
 21
-89.999985
  0
LINE
  8
0
 10
-35.199997
 20
-89.500000
 11
-34.699997
 21
-90.000000
  0
LINE
  8
0
 62
     2
 10
-27.199997
 20
-61.180000
 11
-25.699995
 21
-63.660000
  0
LINE
  8
0
 62
     2
 10
-27.199999
 20
-62.830002
 11
-25.700001
 21
-60.349998
  0
LINE
  8
0
 10
-27.199997
 20
-63.660000
 11
-25.699997
 21
-63.660000
  0
LINE
  8
0
 10
-25.699997
 20
-60.349998
 11
-25.699997
 21
-63.660000
  0
LINE
  8
0
 10
30.299986
 20
-33.000000
 11
30.799988
 21
-33.500000
  0
LINE
  8
0
 10
-23.700003
 20
-33.000004
 11
-24.200001
 21
-33.500000
  0
LINE
  8
0
 10
-35.199997
 20
-89.500000
 11
-35.199997
 21
-34.500000
  0
LINE
  8
0
 10
-27.199997
 20
-89.500000
 11
-27.199997
 21
-34.500000
  0
LINE
  8
0
 10
-34.699997
 20
-90.000000
 11
-27.699997
 21
-90.000000
  0
LINE
  8
0
 10
-27.199997
 20
-65.000000
 11
-24.199997
 21
-65.000000
  0
LINE
  8
0
 10
-27.199997
 20
-59.000000
 11
-24.199997
 21
-59.000000
  0
LINE
  8
0
  6
CENTER
 62
     2
 10
-37.459995
 20
-41.000000
 11
-22.099998
 21
-41.000000
  0
LINE
  8
0
 10
-23.699997
 20
-33.000000
 11
30.300003
 21
-33.000000
  0
LINE
  8
0
 10
-24.199997
 20
-33.500000
 11
-24.199997
 21
-90.500000
  0
LINE
  8
0
  6
CENTER
 62
     2
 10
-37.809998
 20
-62.000000
 11
33.769989
 21
-62.000000
  0
LINE
  8
0
  6
PHANTOM
 62
     3
 10
-19.199997
 20
-58.317116
 11
-19.199997
 21
-65.912392
  0
LINE
  8
0
  6
PHANTOM
 62
     3
 10
-19.199997
 20
-58.317120
 11
-11.700000
 21
-53.198566
  0
LINE
  8
0
  6
PHANTOM
 62
     3
 10
-19.199997
 20
-65.912392
 11
-11.700006
 21
-71.361168
  0
LINE
  8
0
  6
PHANTOM
 62
     3
 10
8.300003
 20
-28.731033
 11
8.300003
 21
-95.378952
  0
LINE
  8
0
  6
PHANTOM
 62
     3
 10
-11.699997
 20
-71.361176
 11
-11.699997
 21
-95.378952
  0
LINE
  8
0
  6
PHANTOM
 62
     3
 10
-11.699997
 20
-20.502258
 11
-11.699997
 21
-53.198559
  0
LINE
  8
0
  6
CENTER
 62
     2
 10
104.770004
 20
31.000000
 11
107.870003
 21
31.000000
  0
LINE
  8
0
  6
CENTER
 62
     2
 10
106.300003
 20
32.500000
 11
106.300003
 21
29.410004
  0
LINE
  8
0
 10
100.800003
 20
41.499985
 11
100.800003
 21
64.349991
  0
LINE
  8
0
 10
101.300003
 20
64.849991
 11
102.300003
 21
64.849991
  0
LINE
  8
0
 10
102.300003
 20
63.599998
 11
102.300003
 21
64.849991
  0
LINE
  8
0
 10
102.300003
 20
63.599998
 11
105.300003
 21
63.599998
  0
LINE
  8
0
 10
105.300003
 20
63.599998
 11
105.300003
 21
69.399994
  0
LINE
  8
0
 10
102.300003
 20
69.399994
 11
105.300003
 21
69.399994
  0
LINE
  8
0
 10
102.300003
 20
68.149994
 11
102.300003
 21
69.399994
  0
LINE
  8
0
 10
101.300003
 20
68.149994
 11
102.300003
 21
68.149994
  0
LINE
  8
0
 10
100.800003
 20
68.649994
 11
100.800003
 21
76.000000
  0
LINE
  8
0
 10
125.800003
 20
42.799999
 11
125.800003
 21
47.000000
  0
LINE
  8
0
 10
125.800003
 20
62.849998
 11
125.800003
 21
70.149994
  0
LINE
  8
0
 10
125.800003
 20
49.000000
 11
125.800003
 21
53.200001
  0
LINE
  8
0
 10
103.800003
 20
63.599998
 11
103.800003
 21
69.399994
  0
LINE
  8
0
 10
125.800003
 20
25.850006
 11
125.800003
 21
33.150002
  0
LINE
  8
0
  6
CENTER
 62
     2
 10
120.450005
 20
22.500000
 11
127.080002
 21
22.500000
  0
LINE
  8
0
  6
CENTER
 62
     2
 10
123.800003
 20
25.980011
 11
123.800003
 21
19.120010
  0
LINE
  8
0
  6
CENTER
 62
     2
 10
101.250000
 20
66.500000
 11
106.260002
 21
66.500000
  0
LINE
  8
0
 10
122.800003
 20
68.000000
 11
119.700005
 21
68.000000
  0
LINE
  8
0
 10
122.800003
 20
65.000000
 11
117.800003
 21
65.000000
  0
LINE
  8
0
  6
CENTER
 62
     2
 10
127.036514
 20
66.500000
 11
121.830002
 21
66.500000
  0
LINE
  8
0
 10
122.800003
 20
31.000000
 11
117.800003
 21
31.000000
  0
LINE
  8
0
 10
122.800003
 20
28.000000
 11
119.800003
 21
28.000000
  0
LINE
  8
0
  6
CENTER
 62
     2
 10
127.036514
 20
29.500000
 11
121.940002
 21
29.500000
  0
LINE
  8
0
 10
100.800003
 20
26.000000
 11
100.800003
 21
41.499985
  0
LINE
  8
0
 10
103.299995
 20
23.909998
 11
100.800003
 21
25.999998
  0
LINE
  8
0
  6
DASHED
 62
     2
 10
104.200005
 20
19.000000
 11
104.200005
 21
20.830002
  0
LINE
  8
0
  6
DASHED
 62
     2
 10
108.400002
 20
19.000000
 11
108.400002
 21
20.830002
  0
LINE
  8
0
  6
DASHED
 62
     2
 10
108.800003
 20
19.000000
 11
108.800003
 21
20.830002
  0
LINE
  8
0
  6
DASHED
 62
     2
 10
103.800003
 20
19.000000
 11
103.800003
 21
20.830002
  0
LINE
  8
0
  6
CENTER
 62
     2
 10
106.300003
 20
18.130005
 11
106.300003
 21
21.190002
  0
LINE
  8
0
 10
100.800003
 20
20.000000
 11
100.800003
 21
20.930008
  0
LINE
  8
0
 10
101.800011
 20
19.000006
 11
100.840012
 21
19.960009
  0
LINE
  8
0
 10
101.800003
 20
19.000000
 11
127.800003
 21
19.000000
  0
LINE
  8
0
 10
100.800003
 20
20.930008
 11
103.300011
 21
23.910007
  0
LINE
  8
0
  6
CENTER
 62
     2
 10
103.160004
 20
22.500000
 11
108.490005
 21
22.500000
  0
LINE
  8
0
  6
CENTER
 62
     2
 10
105.800003
 20
25.360001
 11
105.800003
 21
19.530014
  0
LINE
  8
0
  6
CENTER
 62
     2
 10
109.139999
 20
73.500000
 11
102.510002
 21
73.500000
  0
LINE
  8
0
  6
CENTER
 62
     2
 10
105.800003
 20
70.019989
 11
105.800003
 21
76.879990
  0
LINE
  8
0
  6
CENTER
 62
     2
 10
120.450005
 20
73.500000
 11
127.080002
 21
73.500000
  0
LINE
  8
0
  6
CENTER
 62
     2
 10
123.800003
 20
70.019989
 11
123.800003
 21
76.879990
  0
LINE
  8
0
 10
101.300003
 20
42.000000
 11
102.800003
 21
42.000000
  0
LINE
  8
0
 10
101.300003
 20
54.000000
 11
102.800003
 21
54.000000
  0
LINE
  8
0
 10
102.800003
 20
43.000000
 11
102.800003
 21
42.000000
  0
LINE
  8
0
 10
103.300003
 20
43.299999
 11
103.800003
 21
42.799999
  0
LINE
  8
0
 10
103.800003
 20
47.000000
 11
103.300003
 21
46.500000
  0
LINE
  8
0
 10
103.100006
 20
46.500000
 11
103.300003
 21
46.500000
  0
LINE
  8
0
 10
103.100006
 20
43.299999
 11
103.300003
 21
43.299999
  0
LINE
  8
0
 10
103.800003
 20
42.799999
 11
105.400002
 21
42.799999
  0
LINE
  8
0
 10
103.800003
 20
47.000000
 11
105.400002
 21
47.000000
  0
LINE
  8
0
 10
102.800003
 20
53.000000
 11
102.800003
 21
54.000000
  0
LINE
  8
0
 10
103.300003
 20
52.700001
 11
103.800003
 21
53.200001
  0
LINE
  8
0
 10
103.800003
 20
49.000000
 11
103.300003
 21
49.500000
  0
LINE
  8
0
 10
103.100006
 20
49.500000
 11
103.300003
 21
49.500000
  0
LINE
  8
0
 10
103.100006
 20
52.700001
 11
103.300003
 21
52.700001
  0
LINE
  8
0
 10
102.800003
 20
46.799999
 11
102.800003
 21
49.200001
  0
LINE
  8
0
 10
103.800003
 20
53.200001
 11
105.400002
 21
53.200001
  0
LINE
  8
0
 10
103.800003
 20
49.000000
 11
105.400002
 21
49.000000
  0
LINE
  8
0
  6
CENTER
 62
     2
 10
98.682388
 20
48.000000
 11
129.721725
 21
48.000000
  0
LINE
  8
0
 10
126.300003
 20
33.150002
 11
126.300003
 21
31.650009
  0
LINE
  8
0
 10
122.800003
 20
33.150002
 11
122.800003
 21
25.850006
  0
LINE
  8
0
 10
126.300003
 20
33.150002
 11
122.800003
 21
33.150002
  0
LINE
  8
0
 10
126.300003
 20
25.850006
 11
122.800003
 21
25.850006
  0
LINE
  8
0
 10
128.300003
 20
27.350006
 11
126.300003
 21
27.350006
  0
LINE
  8
0
 10
128.300003
 20
31.650009
 11
126.300003
 21
31.650009
  0
LINE
  8
0
 10
126.300003
 20
27.350006
 11
126.300003
 21
25.850006
  0
LINE
  8
0
 10
126.300003
 20
68.649994
 11
126.300003
 21
70.149994
  0
LINE
  8
0
 10
126.300003
 20
62.849998
 11
126.300003
 21
64.349991
  0
LINE
  8
0
 10
122.800003
 20
62.849998
 11
122.800003
 21
70.149994
  0
LINE
  8
0
 10
128.800003
 20
54.500000
 11
128.800003
 21
63.849998
  0
LINE
  8
0
 10
128.300003
 20
42.000000
 11
126.800003
 21
42.000000
  0
LINE
  8
0
 10
128.300003
 20
54.000000
 11
126.800003
 21
54.000000
  0
LINE
  8
0
 10
126.800003
 20
43.000000
 11
126.800003
 21
42.000000
  0
LINE
  8
0
 10
126.299995
 20
43.299995
 11
125.800003
 21
42.800003
  0
LINE
  8
0
 10
125.800003
 20
47.000000
 11
126.300003
 21
46.500000
  0
LINE
  8
0
 10
126.500000
 20
46.500000
 11
126.300003
 21
46.500000
  0
LINE
  8
0
 10
126.500000
 20
43.299999
 11
126.300003
 21
43.299999
  0
LINE
  8
0
 10
125.800003
 20
42.799999
 11
124.200005
 21
42.799999
  0
LINE
  8
0
 10
125.800003
 20
47.000000
 11
124.200005
 21
47.000000
  0
LINE
  8
0
 10
126.800003
 20
53.000000
 11
126.800003
 21
54.000000
  0
LINE
  8
0
 10
126.299995
 20
52.699997
 11
125.799995
 21
53.199997
  0
LINE
  8
0
 10
125.799995
 20
48.999996
 11
126.299995
 21
49.500000
  0
LINE
  8
0
 10
126.500000
 20
49.500000
 11
126.300003
 21
49.500000
  0
LINE
  8
0
 10
126.500000
 20
52.700001
 11
126.300003
 21
52.700001
  0
LINE
  8
0
 10
126.800003
 20
46.799999
 11
126.800003
 21
49.200001
  0
LINE
  8
0
 10
125.800003
 20
53.200001
 11
124.200005
 21
53.200001
  0
LINE
  8
0
 10
125.800003
 20
49.000000
 11
124.200005
 21
49.000000
  0
LINE
  8
0
 10
128.800003
 20
69.149994
 11
128.800003
 21
76.000000
  0
LINE
  8
0
 10
128.800003
 20
32.150002
 11
128.800003
 21
41.500000
  0
LINE
  8
0
 10
126.300003
 20
62.849998
 11
122.800003
 21
62.849998
  0
LINE
  8
0
 10
126.300003
 20
70.149994
 11
122.800003
 21
70.149994
  0
LINE
  8
0
 10
128.300003
 20
68.649994
 11
126.300003
 21
68.649994
  0
LINE
  8
0
 10
128.300003
 20
64.349991
 11
126.300003
 21
64.349991
  0
LINE
  8
0
 10
101.800011
 20
76.999992
 11
100.800011
 21
75.999992
  0
LINE
  8
0
 10
128.799988
 20
75.999992
 11
127.799995
 21
76.999992
  0
LINE
  8
0
 10
127.799995
 20
19.000010
 11
128.799988
 21
20.000008
  0
LINE
  8
0
 10
128.800003
 20
20.000000
 11
128.800003
 21
26.850006
  0
LINE
  8
0
 10
101.800003
 20
77.000000
 11
127.800003
 21
77.000000
  0
LINE
  8
0
  6
CENTER
 62
     2
 10
108.639999
 20
27.000000
 11
120.820000
 21
27.000000
  0
LINE
  8
0
  6
CENTER
 62
     2
 10
108.450005
 20
69.000000
 11
120.950005
 21
69.000000
  0
LINE
  8
0
  6
CENTER
 62
     2
 10
114.800003
 20
16.000000
 11
114.800003
 21
79.757599
  0
LINE
  8
0
 10
-106.699997
 20
63.599998
 11
-108.199997
 21
63.599998
  0
LINE
  8
0
 10
-106.699997
 20
69.399994
 11
-108.199997
 21
69.399994
  0
LINE
  8
0
 10
-105.699997
 20
68.149994
 11
-106.699997
 21
68.149994
  0
LINE
  8
0
 10
-105.699997
 20
64.849991
 11
-106.699997
 21
64.849991
  0
LINE
  8
0
  6
CENTER
 62
     2
 10
-126.199997
 20
74.889999
 11
-126.199997
 21
69.089996
  0
LINE
  8
0
  6
CENTER
 62
     2
 10
-112.199997
 20
74.969986
 11
-112.199997
 21
69.089996
  0
LINE
  8
0
  6
CENTER
 62
     2
 10
-115.149994
 20
72.000000
 11
-109.199997
 21
72.000000
  0
LINE
  8
0
  6
CENTER
 62
     2
 10
-124.209999
 20
69.000000
 11
-114.199997
 21
69.000000
  0
LINE
  8
0
  6
CENTER
 62
     2
 10
-115.299995
 20
24.000000
 11
-109.039993
 21
24.000000
  0
LINE
  8
0
  6
CENTER
 62
     2
 10
-124.439995
 20
27.000000
 11
-113.610001
 21
27.000000
  0
LINE
  8
0
 10
-119.199997
 20
49.440002
 11
-120.449997
 21
48.720001
  0
LINE
  8
0
 10
-119.199997
 20
49.439999
 11
-117.949997
 21
48.719994
  0
LINE
  8
0
 10
-117.949997
 20
48.720001
 11
-117.949997
 21
47.270000
  0
LINE
  8
0
 10
-117.949997
 20
47.269997
 11
-119.199989
 21
46.549999
  0
LINE
  8
0
 10
-119.199997
 20
46.549995
 11
-120.449997
 21
47.270000
  0
LINE
  8
0
 10
-120.449997
 20
48.720001
 11
-120.449997
 21
47.270000
  0
LINE
  8
0
 10
-119.199997
 20
70.439995
 11
-120.449997
 21
69.719994
  0
LINE
  8
0
 10
-119.199997
 20
70.439995
 11
-117.949997
 21
69.719994
  0
LINE
  8
0
 10
-117.949997
 20
69.719986
 11
-117.949997
 21
68.269989
  0
LINE
  8
0
 10
-117.949997
 20
68.270004
 11
-119.199997
 21
67.550003
  0
LINE
  8
0
 10
-119.200005
 20
67.549995
 11
-120.450005
 21
68.269997
  0
LINE
  8
0
 10
-120.449997
 20
69.719986
 11
-120.449997
 21
68.269989
  0
LINE
  8
0
 10
-119.199989
 20
28.440010
 11
-117.949989
 21
27.730009
  0
LINE
  8
0
 10
-117.949997
 20
27.730011
 11
-117.949997
 21
26.280014
  0
LINE
  8
0
 10
-117.949997
 20
26.280005
 11
-119.199989
 21
25.560007
  0
LINE
  8
0
 10
-119.199997
 20
25.560009
 11
-120.449989
 21
26.280006
  0
LINE
  8
0
 10
-120.449997
 20
27.730011
 11
-120.449997
 21
26.280014
  0
LINE
  8
0
 10
-119.200005
 20
28.440002
 11
-120.449997
 21
27.730005
  0
LINE
  8
0
  6
CENTER
 62
     2
 10
-129.550003
 20
24.000000
 11
-123.199997
 21
24.000000
  0
LINE
  8
0
  6
CENTER
 62
     2
 10
-112.199997
 20
27.200012
 11
-112.199997
 21
21.120010
  0
LINE
  8
0
  6
CENTER
 62
     2
 10
-126.199997
 20
26.990005
 11
-126.199997
 21
21.120010
  0
LINE
  8
0
  6
CENTER
 62
     2
 10
-129.410004
 20
72.000000
 11
-122.779999
 21
72.000000
  0
LINE
  8
0
 10
-129.199997
 20
76.000000
 11
-109.199997
 21
76.000000
  0
LINE
  8
0
 10
-129.199997
 20
20.000000
 11
-109.199997
 21
20.000000
  0
LINE
  8
0
 10
-108.199997
 20
75.000000
 11
-108.199997
 21
21.000000
  0
LINE
  8
0
 10
-130.199997
 20
75.000000
 11
-130.199997
 21
21.000000
  0
LINE
  8
0
 10
-130.199997
 20
21.000000
 11
-129.199997
 21
20.000000
  0
LINE
  8
0
 10
-108.199989
 20
21.000000
 11
-109.199989
 21
20.000000
  0
LINE
  8
0
 10
-109.199997
 20
76.000000
 11
-108.199997
 21
75.000000
  0
LINE
  8
0
 10
-129.199997
 20
76.000000
 11
-130.199997
 21
75.000000
  0
LINE
  8
0
  6
CENTER
 62
     2
 10
-119.199997
 20
79.757599
 11
-119.199997
 21
16.000000
  0
LINE
  8
0
  6
CENTER
 62
     2
 10
-133.151871
 20
48.000000
 11
-103.185333
 21
48.000000
  0
LINE
  8
0
 10
-106.200005
 20
19.000008
 11
-105.240005
 21
19.960007
  0
LINE
  8
0
 10
-105.199997
 20
20.000000
 11
-105.199997
 21
21.230011
  0
LINE
  8
0
 10
-105.199989
 20
21.230003
 11
-107.549995
 21
24.030014
  0
LINE
  8
0
 10
-107.549995
 20
24.030005
 11
-105.199997
 21
26.000002
  0
LINE
  8
0
 10
-105.199997
 20
26.000000
 11
-105.199997
 21
41.500000
  0
LINE
  8
0
 10
-105.199997
 20
41.499985
 11
-105.199997
 21
64.349991
  0
LINE
  8
0
 10
-105.699997
 20
42.000000
 11
-107.199997
 21
42.000000
  0
LINE
  8
0
 10
-105.699997
 20
54.000000
 11
-107.199997
 21
54.000000
  0
LINE
  8
0
 10
-107.199997
 20
43.000000
 11
-107.199997
 21
42.000000
  0
LINE
  8
0
 10
-107.699997
 20
43.300003
 11
-108.199997
 21
42.800003
  0
LINE
  8
0
 10
-108.199997
 20
47.000000
 11
-107.699997
 21
46.500000
  0
LINE
  8
0
 10
-107.500000
 20
46.500000
 11
-107.699997
 21
46.500000
  0
LINE
  8
0
 10
-107.500000
 20
43.299999
 11
-107.699997
 21
43.299999
  0
LINE
  8
0
 10
-107.199997
 20
53.000000
 11
-107.199997
 21
54.000000
  0
LINE
  8
0
 10
-107.699997
 20
52.700005
 11
-108.199989
 21
53.199997
  0
LINE
  8
0
 10
-108.199989
 20
48.999996
 11
-107.699997
 21
49.499996
  0
LINE
  8
0
 10
-107.500000
 20
49.500000
 11
-107.699997
 21
49.500000
  0
LINE
  8
0
 10
-107.500000
 20
52.700001
 11
-107.699997
 21
52.700001
  0
LINE
  8
0
 10
-107.199997
 20
46.799999
 11
-107.199997
 21
49.200001
  0
LINE
  8
0
 10
-106.699997
 20
68.149994
 11
-106.699997
 21
69.399994
  0
LINE
  8
0
 10
-106.699997
 20
63.599998
 11
-106.699997
 21
64.849991
  0
LINE
  8
0
 10
-130.699997
 20
33.150002
 11
-130.699997
 21
31.650009
  0
LINE
  8
0
 10
-130.699997
 20
33.150002
 11
-130.199997
 21
33.150002
  0
LINE
  8
0
 10
-130.699997
 20
25.850006
 11
-130.199997
 21
25.850006
  0
LINE
  8
0
 10
-132.699997
 20
27.350006
 11
-130.699997
 21
27.350006
  0
LINE
  8
0
 10
-132.699997
 20
31.650009
 11
-130.699997
 21
31.650009
  0
LINE
  8
0
 10
-130.699997
 20
27.350006
 11
-130.699997
 21
25.850006
  0
LINE
  8
0
 10
-130.699997
 20
68.649994
 11
-130.699997
 21
70.149994
  0
LINE
  8
0
 10
-130.699997
 20
62.849998
 11
-130.699997
 21
64.349991
  0
LINE
  8
0
 10
-133.199997
 20
54.500000
 11
-133.199997
 21
63.849998
  0
LINE
  8
0
 10
-132.699997
 20
42.000000
 11
-131.199997
 21
42.000000
  0
LINE
  8
0
 10
-132.699997
 20
54.000000
 11
-131.199997
 21
54.000000
  0
LINE
  8
0
 10
-131.199997
 20
43.000000
 11
-131.199997
 21
42.000000
  0
LINE
  8
0
 10
-130.699997
 20
43.299995
 11
-130.199997
 21
42.799995
  0
LINE
  8
0
 10
-130.199997
 20
46.999996
 11
-130.699997
 21
46.500000
  0
LINE
  8
0
 10
-130.899994
 20
46.500000
 11
-130.699997
 21
46.500000
  0
LINE
  8
0
 10
-130.899994
 20
43.299999
 11
-130.699997
 21
43.299999
  0
LINE
  8
0
 10
-131.199997
 20
53.000000
 11
-131.199997
 21
54.000000
  0
LINE
  8
0
 10
-130.699997
 20
52.699997
 11
-130.199997
 21
53.199997
  0
LINE
  8
0
 10
-130.199997
 20
48.999996
 11
-130.699997
 21
49.500000
  0
LINE
  8
0
 10
-130.899994
 20
49.500000
 11
-130.699997
 21
49.500000
  0
LINE
  8
0
 10
-130.899994
 20
52.700001
 11
-130.699997
 21
52.700001
  0
LINE
  8
0
 10
-131.199997
 20
46.799999
 11
-131.199997
 21
49.200001
  0
LINE
  8
0
 10
-133.199997
 20
69.149994
 11
-133.199997
 21
76.000000
  0
LINE
  8
0
 10
-133.199997
 20
32.150002
 11
-133.199997
 21
41.500000
  0
LINE
  8
0
 10
-130.699997
 20
62.849998
 11
-130.199997
 21
62.849998
  0
LINE
  8
0
 10
-130.699997
 20
70.149994
 11
-130.199997
 21
70.149994
  0
LINE
  8
0
 10
-132.699997
 20
68.649994
 11
-130.699997
 21
68.649994
  0
LINE
  8
0
 10
-132.699997
 20
64.349991
 11
-130.699997
 21
64.349991
  0
LINE
  8
0
 10
-105.199997
 20
68.649994
 11
-105.199997
 21
76.000000
  0
LINE
  8
0
 10
-106.200005
 20
76.999992
 11
-105.200005
 21
75.999992
  0
LINE
  8
0
 10
-133.199982
 20
76.000000
 11
-132.199982
 21
76.999992
  0
LINE
  8
0
 10
-132.199982
 20
19.000004
 11
-133.199982
 21
20.000006
  0
LINE
  8
0
 10
-133.199997
 20
20.000000
 11
-133.199997
 21
26.850006
  0
LINE
  8
0
 10
-106.199997
 20
19.000000
 11
-132.199997
 21
19.000000
  0
LINE
  8
0
 10
-106.199997
 20
77.000000
 11
-132.199997
 21
77.000000
  0
LINE
  8
0
 10
-27.199997
 20
24.000000
 11
-24.199997
 21
24.000000
  0
LINE
  8
0
 10
-27.199997
 20
30.000000
 11
-24.199997
 21
30.000000
  0
LINE
  8
0
 10
-27.199997
 20
66.000000
 11
-24.199997
 21
66.000000
  0
LINE
  8
0
 10
-27.199997
 20
72.000000
 11
-24.199997
 21
72.000000
  0
LINE
  8
0
 10
22.789993
 20
42.250000
 11
30.800003
 21
42.250000
  0
LINE
  8
0
 10
23.839996
 20
43.150002
 11
30.800003
 21
43.150002
  0
LINE
  8
0
 10
25.599991
 20
46.349998
 11
30.800003
 21
46.349998
  0
LINE
  8
0
 10
25.599991
 20
49.650002
 11
30.800003
 21
49.650002
  0
LINE
  8
0
 10
22.789993
 20
53.750000
 11
30.800003
 21
53.750000
  0
LINE
  8
0
 10
23.839996
 20
52.849998
 11
30.800003
 21
52.849998
  0
LINE
  8
0
  6
CENTER
 62
     2
 10
18.800003
 20
56.896152
 11
18.800003
 21
39.040649
  0
LINE
  8
0
  6
CENTER
 62
     2
 10
-15.199997
 20
21.870010
 11
-15.199997
 21
18.300003
  0
LINE
  8
0
 10
-24.199997
 20
68.149994
 11
30.800003
 21
68.149994
  0
LINE
  8
0
 10
-24.199997
 20
64.849991
 11
30.800003
 21
64.849991
  0
LINE
  8
0
  6
CENTER
 62
     2
 10
-4.199997
 20
63.910000
 11
-4.199997
 21
54.250000
  0
LINE
  8
0
  6
CENTER
 62
     2
 10
-9.410004
 20
59.000000
 11
0.699997
 21
59.000000
  0
LINE
  8
0
  6
CENTER
 62
     2
 10
-19.199997
 20
64.000000
 11
-19.199997
 21
54.160000
  0
LINE
  8
0
 10
30.800003
 20
76.500000
 11
30.800003
 21
19.500000
  0
LINE
  8
0
  6
CENTER
 62
     2
 10
16.800003
 20
21.870010
 11
16.800003
 21
18.300003
  0
LINE
  8
0
 10
30.799986
 20
19.500000
 11
30.299986
 21
19.000000
  0
LINE
  8
0
 10
-24.200003
 20
19.500006
 11
-23.700003
 21
19.000006
  0
LINE
  8
0
  6
CENTER
 62
     2
 10
-4.199997
 20
41.770000
 11
-4.199997
 21
31.790009
  0
LINE
  8
0
  6
CENTER
 62
     2
 10
1.099991
 20
37.000000
 11
-9.520004
 21
37.000000
  0
LINE
  8
0
  6
CENTER
 62
     2
 10
-19.199997
 20
41.779999
 11
-19.199997
 21
31.930008
  0
LINE
  8
0
  6
CENTER
 62
     2
 10
-24.069998
 20
37.000000
 11
-14.460007
 21
37.000000
  0
LINE
  8
0
 10
-23.699997
 20
19.000000
 11
30.300003
 21
19.000000
  0
LINE
  8
0
 10
-24.199997
 20
42.250000
 11
14.800003
 21
42.250000
  0
LINE
  8
0
 10
-24.199997
 20
20.000000
 11
30.800003
 21
20.000000
  0
LINE
  8
0
 10
-24.199997
 20
21.070007
 11
30.800003
 21
21.070007
  0
LINE
  8
0
 10
-24.199997
 20
23.810013
 11
30.800003
 21
23.810013
  0
LINE
  8
0
 10
-24.199997
 20
25.740005
 11
30.800003
 21
25.740005
  0
LINE
  8
0
  6
CENTER
 62
     2
 10
21.429993
 20
31.000000
 11
28.238617
 21
31.000000
  0
LINE
  8
0
  6
CENTER
 62
     2
 10
-17.500000
 20
31.000000
 11
-11.000000
 21
31.000000
  0
LINE
  8
0
  6
CENTER
 62
     2
 10
24.800003
 20
34.450001
 11
24.800003
 21
27.042923
  0
LINE
  8
0
  6
DASHED
 62
     2
 10
14.300003
 20
20.830002
 11
14.300003
 21
19.000000
  0
LINE
  8
0
  6
DASHED
 62
     2
 10
19.300003
 20
20.830002
 11
19.300003
 21
19.000000
  0
LINE
  8
0
  6
DASHED
 62
     2
 10
18.800003
 20
20.830002
 11
18.800003
 21
19.000000
  0
LINE
  8
0
  6
DASHED
 62
     2
 10
14.800003
 20
20.830002
 11
14.800003
 21
19.000000
  0
LINE
  8
0
  6
DASHED
 62
     2
 10
-17.699997
 20
20.830002
 11
-17.699997
 21
19.000000
  0
LINE
  8
0
  6
DASHED
 62
     2
 10
-12.699997
 20
20.830002
 11
-12.699997
 21
19.000000
  0
LINE
  8
0
  6
DASHED
 62
     2
 10
-13.199997
 20
20.830002
 11
-13.199997
 21
19.000000
  0
LINE
  8
0
  6
DASHED
 62
     2
 10
-17.199997
 20
20.830002
 11
-17.199997
 21
19.000000
  0
LINE
  8
0
  6
CENTER
 62
     2
 10
-14.199997
 20
34.580002
 11
-14.199997
 21
27.408310
  0
LINE
  8
0
 10
-24.199997
 20
43.150002
 11
13.759995
 21
43.150002
  0
LINE
  8
0
 10
-24.199997
 20
46.349998
 11
12.000000
 21
46.349998
  0
LINE
  8
0
 10
-35.199997
 20
75.500000
 11
-34.699997
 21
76.000000
  0
LINE
  8
0
 10
-34.699997
 20
76.000000
 11
-27.699997
 21
76.000000
  0
LINE
  8
0
 10
-27.200006
 20
75.499992
 11
-27.700006
 21
75.999992
  0
LINE
  8
0
  6
CENTER
 62
     2
 10
-24.909996
 20
59.000000
 11
-13.840012
 21
59.000000
  0
LINE
  8
0
 10
-24.199997
 20
76.000000
 11
30.800003
 21
76.000000
  0
LINE
  8
0
 10
-27.199997
 20
49.650002
 11
-25.699997
 21
49.650002
  0
LINE
  8
0
 10
-24.199997
 20
53.750000
 11
14.800003
 21
53.750000
  0
LINE
  8
0
 10
-24.199997
 20
52.849998
 11
13.759995
 21
52.849998
  0
LINE
  8
0
 10
-24.199997
 20
49.650002
 11
12.000000
 21
49.650002
  0
LINE
  8
0
  6
CENTER
 62
     2
 10
-37.459995
 20
27.000000
 11
-21.929996
 21
27.000000
  0
LINE
  8
0
 10
-27.200005
 20
20.500010
 11
-27.700006
 21
20.000008
  0
LINE
  8
0
 10
-35.199997
 20
20.500000
 11
-34.699997
 21
20.000002
  0
LINE
  8
0
 62
     2
 10
-27.199999
 20
48.819996
 11
-25.699999
 21
46.340000
  0
LINE
  8
0
 62
     2
 10
-27.199997
 20
47.169998
 11
-25.699999
 21
49.650002
  0
LINE
  8
0
 10
-27.199997
 20
46.340000
 11
-25.699997
 21
46.340000
  0
LINE
  8
0
 10
-25.699997
 20
49.650002
 11
-25.699997
 21
46.340000
  0
LINE
  8
0
 10
30.299988
 20
77.000000
 11
30.799988
 21
76.500000
  0
LINE
  8
0
 10
-23.700003
 20
76.999992
 11
-24.200003
 21
76.499992
  0
LINE
  8
0
 10
-35.199997
 20
20.500000
 11
-35.199997
 21
75.500000
  0
LINE
  8
0
 10
-27.199997
 20
20.500000
 11
-27.199997
 21
75.500000
  0
LINE
  8
0
 10
-34.699997
 20
20.000000
 11
-27.699997
 21
20.000000
  0
LINE
  8
0
 10
-27.199997
 20
45.000000
 11
-24.199997
 21
45.000000
  0
LINE
  8
0
 10
-27.199997
 20
51.000000
 11
-24.199997
 21
51.000000
  0
LINE
  8
0
  6
CENTER
 62
     2
 10
-37.459995
 20
69.000000
 11
-22.099998
 21
69.000000
  0
LINE
  8
0
 10
-23.699997
 20
77.000000
 11
30.300003
 21
77.000000
  0
LINE
  8
0
 10
-24.199997
 20
76.500000
 11
-24.199997
 21
19.500000
  0
LINE
  8
0
  6
CENTER
 62
     2
 10
-37.809998
 20
48.000000
 11
33.769989
 21
48.000000
  0
LINE
  8
0
  6
PHANTOM
 62
     3
 10
-11.699997
 20
87.878754
 11
-11.699997
 21
34.140072
  0
LINE
  8
0
  6
PHANTOM
 62
     3
 10
-11.699997
 20
34.140072
 11
-8.609940
 21
34.140072
  0
LINE
  8
0
  6
PHANTOM
 62
     3
 10
-8.609940
 20
15.112411
 11
-8.609940
 21
34.140072
  0
LINE
  8
0
  6
PHANTOM
 62
     3
 10
8.300003
 20
80.703476
 11
8.300003
 21
15.112411
  0
LINE
  8
0
 10
-54.249985
 20
-93.500000
 11
-54.249985
 21
-123.500000
  0
LINE
  8
0
 10
-69.249985
 20
-93.500000
 11
-69.249985
 21
-123.500000
  0
LINE
  8
0
 10
-84.249985
 20
-93.500000
 11
-84.249985
 21
-123.500000
  0
LINE
  8
0
 10
-99.249985
 20
-93.500000
 11
-99.249985
 21
-123.500000
  0
LINE
  8
0
 10
-114.249985
 20
-93.500000
 11
-114.249985
 21
-123.500000
  0
LINE
  8
0
 10
-129.249985
 20
-93.500000
 11
-129.249985
 21
-123.500000
  0
LINE
  8
0
 10
-144.249985
 20
-93.500000
 11
-144.249985
 21
-123.500000
  0
LINE
  8
0
 10
-184.250000
 20
-123.500000
 11
-184.250000
 21
-93.500000
  0
LINE
  8
0
 10
-159.250000
 20
-111.500008
 11
-162.465393
 21
-99.499985
  0
LINE
  8
0
 10
-184.250000
 20
-93.500000
 11
-54.249985
 21
-93.500000
  0
LINE
  8
0
 10
-184.250000
 20
-99.500000
 11
-162.465378
 21
-99.500000
  0
LINE
  8
0
 10
-184.250000
 20
-111.500000
 11
-54.249985
 21
-111.500000
  0
LINE
  8
0
 10
-184.250000
 20
-123.500000
 11
-54.249985
 21
-123.500000
  0
LINE
  8
0
 10
-184.250000
 20
-117.500000
 11
-54.249985
 21
-117.500000
  0
LINE
  8
0
 10
-159.249985
 20
-93.500000
 11
-159.249985
 21
-123.500000
  0
LINE
  8
0
 10
-84.250000
 20
132.600006
 11
-84.250000
 21
117.600006
  0
LINE
  8
0
 10
-194.250000
 20
132.600006
 11
194.800003
 21
132.600006
  0
LINE
  8
0
 10
194.800003
 20
132.600006
 11
194.800003
 21
-133.500000
  0
LINE
  8
0
 10
-194.250000
 20
132.600006
 11
-194.250000
 21
-133.500000
  0
LINE
  8
0
 10
-194.250000
 20
-133.500000
 11
194.800003
 21
-133.500000
  0
LINE
  8
0
 10
109.800003
 20
-118.500000
 11
109.800003
 21
-133.500000
  0
LINE
  8
0
 10
109.800003
 20
-118.500000
 11
194.800003
 21
-118.500000
  0
LINE
  8
0
 10
109.800003
 20
132.600006
 11
109.800003
 21
117.600006
  0
LINE
  8
0
 10
109.800003
 20
117.600006
 11
194.800003
 21
117.600006
  0
LINE
  8
0
 10
-194.250000
 20
117.600006
 11
-84.250000
 21
117.600006
  0
CIRCLE
  8
0
 10
-4.199997
 20
-51.000000
 40
4.000000
  0
CIRCLE
  8
0
 10
-15.199997
 20
-62.000000
 40
1.000000
  0
CIRCLE
  8
0
 10
-5.199997
 20
-62.000000
 40
1.000000
  0
CIRCLE
  8
0
 62
     2
 10
-10.199997
 20
-62.000000
 40
6.500000
  0
CIRCLE
  8
0
 10
-10.199997
 20
-62.000000
 40
7.000000
  0
CIRCLE
  8
0
 10
-10.199997
 20
-62.000000
 40
1.500000
  0
CIRCLE
  8
0
  6
DASHED
 62
     2
 10
-4.199997
 20
-73.000000
 40
2.500000
  0
CIRCLE
  8
0
  6
DASHED
 62
     2
 10
-19.199997
 20
-73.000000
 40
2.500000
  0
CIRCLE
  8
0
 10
-19.199997
 20
-73.000000
 40
2.099999
  0
CIRCLE
  8
0
 10
-4.199997
 20
-73.000000
 40
2.099999
  0
CIRCLE
  8
0
 10
-4.199997
 20
-73.000000
 40
4.000000
  0
CIRCLE
  8
0
 10
-19.199997
 20
-73.000000
 40
4.000000
  0
CIRCLE
  8
0
 10
24.800003
 20
-79.000000
 40
2.000000
  0
CIRCLE
  8
0
 62
     2
 10
24.800003
 20
-79.000000
 40
2.500000
  0
CIRCLE
  8
0
 10
-14.199997
 20
-79.000000
 40
2.000000
  0
CIRCLE
  8
0
 62
     2
 10
-14.199997
 20
-79.000000
 40
2.500000
  0
CIRCLE
  8
0
 10
-19.199997
 20
-51.000000
 40
4.000000
  0
ARC
  8
0
 10
-28.200001
 20
-62.005001
 40
2.998173
 50
326.495514
 51
33.504501
  0
CIRCLE
  8
0
 10
-4.199997
 20
-51.000000
 40
2.099999
  0
CIRCLE
  8
0
  6
DASHED
 62
     2
 10
-4.199997
 20
-51.000000
 40
2.500000
  0
CIRCLE
  8
0
 10
-19.199997
 20
-51.000000
 40
2.099999
  0
CIRCLE
  8
0
  6
DASHED
 62
     2
 10
-19.199997
 20
-51.000000
 40
2.500000
  0
CIRCLE
  8
0
 10
114.800003
 20
27.000000
 40
3.000000
  0
CIRCLE
  8
0
 10
114.800003
 20
69.000000
 40
3.000000
  0
ARC
  8
0
 10
101.300026
 20
64.349976
 40
0.500023
 50
90.002625
 51
179.997375
  0
ARC
  8
0
 10
101.300018
 20
68.650009
 40
0.500015
 50
180.001755
 51
269.998260
  0
CIRCLE
  8
0
 10
123.800018
 20
22.500000
 40
1.599999
  0
CIRCLE
  8
0
 62
     2
 10
123.800018
 20
22.500000
 40
2.000000
  0
CIRCLE
  8
0
 10
105.800018
 20
22.500000
 40
1.599999
  0
CIRCLE
  8
0
 10
123.800018
 20
73.500000
 40
1.599999
  0
CIRCLE
  8
0
 10
105.800018
 20
73.500000
 40
1.599999
  0
CIRCLE
  8
0
 62
     2
 10
105.800018
 20
22.500000
 40
2.000000
  0
CIRCLE
  8
0
 62
     2
 10
123.800018
 20
73.500000
 40
2.000000
  0
CIRCLE
  8
0
 62
     2
 10
105.800018
 20
73.500000
 40
2.000000
  0
CIRCLE
  8
0
 10
106.300018
 20
31.000015
 40
1.000000
  0
ARC
  8
0
 10
114.800003
 20
48.000000
 40
9.105084
 50
173.694550
 51
186.305420
  0
ARC
  8
0
 10
114.800003
 20
48.000000
 40
9.099279
 50
210.002640
 51
329.997375
  0
ARC
  8
0
 10
114.799988
 20
48.014999
 40
9.096819
 50
353.593750
 51
6.406254
  0
ARC
  8
0
 10
114.800003
 20
48.000000
 40
9.099277
 50
30.002621
 51
149.997360
  0
CIRCLE
  8
0
 10
114.800003
 20
48.000000
 40
7.450000
  0
CIRCLE
  8
0
 10
114.800003
 20
48.000000
 40
6.500000
  0
CIRCLE
  8
0
 10
114.800003
 20
48.000000
 40
6.000000
  0
ARC
  8
0
 10
105.400002
 20
44.900002
 40
2.099998
 50
270.000000
 51
90.000000
  0
ARC
  8
0
 10
103.100014
 20
46.800011
 40
0.300011
 50
180.002182
 51
269.998535
  0
ARC
  8
0
 10
103.100014
 20
49.199989
 40
0.300011
 50
90.001457
 51
179.997818
  0
ARC
  8
0
 10
103.100021
 20
53.000015
 40
0.300018
 50
180.002914
 51
269.997101
  0
ARC
  8
0
 10
105.400002
 20
51.099998
 40
2.099998
 50
270.000000
 51
90.000000
  0
ARC
  8
0
 10
101.300018
 20
41.499985
 40
0.500015
 50
90.001747
 51
179.998245
  0
ARC
  8
0
 10
101.300018
 20
54.500015
 40
0.500015
 50
180.001755
 51
269.998260
  0
ARC
  8
0
 10
103.100021
 20
42.999985
 40
0.300014
 50
90.002914
 51
179.997086
  0
ARC
  8
0
 10
124.200005
 20
44.900002
 40
2.099998
 50
90.000000
 51
270.000000
  0
ARC
  8
0
 10
126.500023
 20
46.799980
 40
0.299980
 50
269.995636
 51
0.003643
  0
ARC
  8
0
 10
126.500023
 20
49.200020
 40
0.299980
 50
359.996368
 51
90.004372
  0
ARC
  8
0
 10
126.500015
 20
52.999985
 40
0.299988
 50
269.997101
 51
0.002914
  0
ARC
  8
0
 10
124.200005
 20
51.099998
 40
2.099998
 50
90.000000
 51
270.000000
  0
ARC
  8
0
 10
126.500015
 20
43.000015
 40
0.299988
 50
359.997803
 51
90.002914
  0
ARC
  8
0
 10
128.300018
 20
41.500015
 40
0.499985
 50
359.998260
 51
90.001747
  0
ARC
  8
0
 10
128.300018
 20
54.499985
 40
0.499985
 50
269.998260
 51
0.001749
  0
ARC
  8
0
 10
128.300018
 20
26.850021
 40
0.499985
 50
359.998047
 51
90.001747
  0
ARC
  8
0
 10
128.300018
 20
32.149982
 40
0.499981
 50
269.998260
 51
0.002186
  0
ARC
  8
0
 10
128.300018
 20
63.850018
 40
0.499985
 50
359.997803
 51
90.001747
  0
ARC
  8
0
 10
128.300018
 20
69.149979
 40
0.499985
 50
269.998260
 51
0.001749
  0
CIRCLE
  8
0
 10
114.800034
 20
69.000000
 40
5.000000
  0
CIRCLE
  8
0
 10
114.800034
 20
27.000000
 40
5.000000
  0
ARC
  8
0
 10
-105.700012
 20
68.650009
 40
0.500015
 50
270.001740
 51
359.998260
  0
ARC
  8
0
 10
-105.700020
 20
64.349976
 40
0.500023
 50
0.002623
 51
89.997375
  0
CIRCLE
  8
0
 10
-126.199997
 20
72.000000
 40
1.650000
  0
CIRCLE
  8
0
 62
     2
 10
-126.199997
 20
72.000000
 40
2.000000
  0
CIRCLE
  8
0
 10
-119.199997
 20
48.000000
 40
2.349999
  0
CIRCLE
  8
0
 10
-119.199997
 20
48.000000
 40
3.799999
  0
CIRCLE
  8
0
 10
-119.199997
 20
69.000000
 40
2.349999
  0
CIRCLE
  8
0
 10
-119.199997
 20
69.000000
 40
3.799999
  0
CIRCLE
  8
0
 10
-119.199997
 20
27.000000
 40
2.349999
  0
CIRCLE
  8
0
 10
-119.199997
 20
27.000000
 40
3.799999
  0
CIRCLE
  8
0
 10
-126.199997
 20
24.000000
 40
1.650000
  0
CIRCLE
  8
0
 62
     2
 10
-126.199997
 20
24.000000
 40
2.000000
  0
CIRCLE
  8
0
 10
-112.199997
 20
24.000000
 40
1.650000
  0
CIRCLE
  8
0
 62
     2
 10
-112.199997
 20
24.000000
 40
2.000000
  0
CIRCLE
  8
0
 10
-112.199997
 20
72.000000
 40
1.650000
  0
CIRCLE
  8
0
 62
     2
 10
-112.199997
 20
72.000000
 40
2.000000
  0
CIRCLE
  8
0
 10
-119.199997
 20
27.000000
 40
4.000000
  0
CIRCLE
  8
0
 10
-119.199997
 20
48.000000
 40
4.000000
  0
CIRCLE
  8
0
 10
-119.199997
 20
69.000000
 40
4.000000
  0
ARC
  8
0
 10
-107.500008
 20
46.800011
 40
0.300011
 50
270.001465
 51
359.997803
  0
ARC
  8
0
 10
-107.500008
 20
49.199989
 40
0.300011
 50
0.002186
 51
89.998543
  0
ARC
  8
0
 10
-107.500015
 20
53.000015
 40
0.300018
 50
270.002899
 51
359.997101
  0
ARC
  8
0
 10
-105.700012
 20
41.499985
 40
0.500015
 50
0.001748
 51
89.998253
  0
ARC
  8
0
 10
-105.700012
 20
54.500015
 40
0.500015
 50
270.001740
 51
359.998260
  0
ARC
  8
0
 10
-107.500015
 20
42.999985
 40
0.300018
 50
0.002914
 51
89.997086
  0
ARC
  8
0
 10
-130.900009
 20
46.799980
 40
0.299973
 50
179.996353
 51
270.002899
  0
ARC
  8
0
 10
-130.900009
 20
49.200020
 40
0.299980
 50
89.997086
 51
180.003647
  0
ARC
  8
0
 10
-130.900009
 20
52.999985
 40
0.299988
 50
179.997086
 51
270.002899
  0
ARC
  8
0
 10
-130.900009
 20
43.000015
 40
0.299988
 50
89.997086
 51
180.002914
  0
ARC
  8
0
 10
-132.700012
 20
41.500015
 40
0.499985
 50
89.998253
 51
180.001755
  0
ARC
  8
0
 10
-132.700012
 20
54.499985
 40
0.499985
 50
179.998245
 51
270.001740
  0
ARC
  8
0
 10
-132.700012
 20
26.850021
 40
0.499981
 50
89.998253
 51
180.002182
  0
ARC
  8
0
 10
-132.700012
 20
32.149982
 40
0.499985
 50
179.997818
 51
270.001740
  0
ARC
  8
0
 10
-132.700012
 20
63.850018
 40
0.499981
 50
89.998253
 51
180.002182
  0
ARC
  8
0
 10
-132.700012
 20
69.149979
 40
0.499985
 50
179.998245
 51
270.001740
  0
CIRCLE
  8
0
 10
23.799988
 20
48.000000
 40
1.000000
  0
CIRCLE
  8
0
 10
13.799988
 20
48.000000
 40
1.000000
  0
CIRCLE
  8
0
 10
18.799988
 20
48.000000
 40
1.500000
  0
CIRCLE
  8
0
 10
18.799988
 20
48.000000
 40
7.000000
  0
CIRCLE
  8
0
 62
     2
 10
18.799988
 20
48.000000
 40
6.500000
  0
CIRCLE
  8
0
  6
DASHED
 62
     2
 10
-4.199997
 20
37.000000
 40
2.500000
  0
CIRCLE
  8
0
  6
DASHED
 62
     2
 10
-19.199997
 20
37.000000
 40
2.500000
  0
CIRCLE
  8
0
 10
-19.199997
 20
37.000000
 40
2.099999
  0
CIRCLE
  8
0
 10
-4.199997
 20
37.000000
 40
2.099999
  0
CIRCLE
  8
0
 10
-4.199997
 20
37.000000
 40
4.000000
  0
CIRCLE
  8
0
 10
-19.199997
 20
37.000000
 40
4.000000
  0
CIRCLE
  8
0
 10
24.800003
 20
31.000000
 40
2.000000
  0
CIRCLE
  8
0
 62
     2
 10
24.800003
 20
31.000000
 40
2.500000
  0
CIRCLE
  8
0
 10
-14.199997
 20
31.000000
 40
2.000000
  0
CIRCLE
  8
0
 62
     2
 10
-14.199997
 20
31.000000
 40
2.500000
  0
CIRCLE
  8
0
 10
-4.199997
 20
59.000000
 40
4.000000
  0
CIRCLE
  8
0
 10
-19.199997
 20
59.000000
 40
4.000000
  0
ARC
  8
0
 10
-28.200001
 20
47.994999
 40
2.998173
 50
326.495514
 51
33.504501
  0
CIRCLE
  8
0
 10
-4.199997
 20
59.000000
 40
2.099999
  0
CIRCLE
  8
0
  6
DASHED
 62
     2
 10
-4.199997
 20
59.000000
 40
2.500000
  0
CIRCLE
  8
0
 10
-19.199997
 20
59.000000
 40
2.099999
  0
CIRCLE
  8
0
  6
DASHED
 62
     2
 10
-19.199997
 20
59.000000
 40
2.500000
  0
ARC
  8
0
 10
-13.617631
 20
-85.229691
 40
0.417634
 50
344.498535
 51
15.501454
  0
ARC
  8
0
 10
-13.772205
 20
-85.292030
 40
0.583548
 50
17.343735
 51
54.574352
  0
ARC
  8
0
 10
-14.199997
 20
-85.979568
 40
1.392667
 50
56.629166
 51
123.370834
  0
ARC
  8
0
 10
-14.627789
 20
-85.292030
 40
0.583551
 50
125.425652
 51
162.656265
  0
ARC
  8
0
 10
-14.782363
 20
-85.229691
 40
0.417634
 50
164.498550
 51
195.501450
  0
ARC
  8
0
 10
-14.627789
 20
-85.167351
 40
0.583548
 50
197.343735
 51
234.574356
  0
ARC
  8
0
 10
-14.199997
 20
-84.479813
 40
1.392667
 50
236.629166
 51
303.370850
  0
ARC
  8
0
 10
-13.772205
 20
-85.167351
 40
0.583551
 50
305.425659
 51
342.656250
  0
ARC
  8
0
 10
25.382370
 20
-85.229691
 40
0.417633
 50
344.498505
 51
15.501490
  0
ARC
  8
0
 10
25.227795
 20
-85.292030
 40
0.583548
 50
17.343735
 51
54.574352
  0
ARC
  8
0
 10
24.800003
 20
-85.979568
 40
1.392667
 50
56.629166
 51
123.370834
  0
ARC
  8
0
 10
24.372211
 20
-85.292030
 40
0.583551
 50
125.425652
 51
162.656265
  0
ARC
  8
0
 10
24.217636
 20
-85.229691
 40
0.417633
 50
164.498505
 51
195.501495
  0
ARC
  8
0
 10
24.372211
 20
-85.167351
 40
0.583548
 50
197.343735
 51
234.574356
  0
ARC
  8
0
 10
24.800003
 20
-84.479813
 40
1.392667
 50
236.629166
 51
303.370850
  0
ARC
  8
0
 10
25.227795
 20
-85.167351
 40
0.583551
 50
305.425659
 51
342.656250
  0
ARC
  8
0
 10
-13.617631
 20
24.770309
 40
0.417634
 50
344.498535
 51
15.501454
  0
ARC
  8
0
 10
-13.772205
 20
24.707973
 40
0.583547
 50
17.343378
 51
54.574024
  0
ARC
  8
0
 10
-14.199997
 20
24.020430
 40
1.392667
 50
56.629166
 51
123.370834
  0
ARC
  8
0
 10
-14.627789
 20
24.707973
 40
0.583546
 50
125.425972
 51
162.656616
  0
ARC
  8
0
 10
-14.782363
 20
24.770309
 40
0.417634
 50
164.498550
 51
195.501450
  0
ARC
  8
0
 10
-14.627789
 20
24.832645
 40
0.583547
 50
197.343384
 51
234.574020
  0
ARC
  8
0
 10
-14.199997
 20
25.520189
 40
1.392667
 50
236.629166
 51
303.370850
  0
ARC
  8
0
 10
-13.772205
 20
24.832645
 40
0.583546
 50
305.425964
 51
342.656616
  0
ARC
  8
0
 10
25.382370
 20
24.770309
 40
0.417633
 50
344.498505
 51
15.501490
  0
ARC
  8
0
 10
25.227795
 20
24.707973
 40
0.583547
 50
17.343378
 51
54.574024
  0
ARC
  8
0
 10
24.800003
 20
24.020430
 40
1.392667
 50
56.629166
 51
123.370834
  0
ARC
  8
0
 10
24.372211
 20
24.707973
 40
0.583546
 50
125.425972
 51
162.656616
  0
ARC
  8
0
 10
24.217636
 20
24.770309
 40
0.417633
 50
164.498505
 51
195.501495
  0
ARC
  8
0
 10
24.372211
 20
24.832645
 40
0.583547
 50
197.343384
 51
234.574020
  0
ARC
  8
0
 10
24.800003
 20
25.520189
 40
1.392667
 50
236.629166
 51
303.370850
  0
ARC
  8
0
 10
25.227795
 20
24.832645
 40
0.583546
 50
305.425964
 51
342.656616
  0
TEXT
  8
0
 62
     3
 10
-1.382689
 20
-23.606289
 40
3.200000
  1
STRETCH LINE B
 50
0.000000
 41
1.052632
 51
0.000000
  7
STANDARD
  0
TEXT
  8
0
 62
     3
 10
-31.400295
 20
-15.913115
 40
3.200000
  1
STRETCH LINE A
 50
0.000000
 41
1.052632
 51
0.000000
  7
STANDARD
  0
TEXT
  8
0
 62
     3
 10
-31.400295
 20
92.086891
 40
3.200000
  1
STRETCH LINE A
 50
0.000000
 41
1.052632
 51
0.000000
  7
STANDARD
  0
TEXT
  8
0
 62
     3
 10
-1.382689
 20
84.393715
 40
3.200000
  1
STRETCH LINE B
 50
0.000000
 41
1.052632
 51
0.000000
  7
STANDARD
  0
TEXT
  8
0
 10
-65.050003
 20
-122.379997
 40
3.200000
  1
50
 50
0.000000
 41
1.052632
 51
0.000000
  7
STANDARD
  0
TEXT
  8
0
 10
-65.050003
 20
-116.379997
 40
3.200000
  1
40
 50
0.000000
 41
1.052632
 51
0.000000
  7
STANDARD
  0
TEXT
  8
0
 10
-80.050003
 20
-122.379997
 40
3.200000
  1
25
 50
0.000000
 41
1.052632
 51
0.000000
  7
STANDARD
  0
TEXT
  8
0
 10
-80.050003
 20
-116.379997
 40
3.200000
  1
40
 50
0.000000
 41
1.052632
 51
0.000000
  7
STANDARD
  0
TEXT
  8
0
 10
-93.449997
 20
-122.379997
 40
3.200000
  1
0
 50
0.000000
 41
1.052632
 51
0.000000
  7
STANDARD
  0
TEXT
  8
0
 10
-95.050003
 20
-116.379997
 40
3.200000
  1
40
 50
0.000000
 41
1.052632
 51
0.000000
  7
STANDARD
  0
TEXT
  8
0
 10
-108.449997
 20
-122.379997
 40
3.200000
  1
0
 50
0.000000
 41
1.052632
 51
0.000000
  7
STANDARD
  0
TEXT
  8
0
 10
-110.050003
 20
-116.379997
 40
3.200000
  1
30
 50
0.000000
 41
1.052632
 51
0.000000
  7
STANDARD
  0
TEXT
  8
0
 10
-123.449997
 20
-122.379997
 40
3.200000
  1
0
 50
0.000000
 41
1.052632
 51
0.000000
  7
STANDARD
  0
TEXT
  8
0
 10
-125.050003
 20
-116.379997
 40
3.200000
  1
20
 50
0.000000
 41
1.052632
 51
0.000000
  7
STANDARD
  0
TEXT
  8
0
 10
-138.449997
 20
-122.379997
 40
3.200000
  1
0
 50
0.000000
 41
1.052632
 51
0.000000
  7
STANDARD
  0
TEXT
  8
0
 10
-140.050003
 20
-116.379997
 40
3.200000
  1
10
 50
0.000000
 41
1.052632
 51
0.000000
  7
STANDARD
  0
TEXT
  8
0
 10
-153.449997
 20
-122.379997
 40
3.200000
  1
0
 50
0.000000
 41
1.052632
 51
0.000000
  7
STANDARD
  0
TEXT
  8
0
 10
-153.449997
 20
-116.379997
 40
3.200000
  1
0
 50
0.000000
 41
1.052632
 51
0.000000
  7
STANDARD
  0
TEXT
  8
0
 10
-68.357002
 20
-92.379997
 40
3.200000
  1
（ｍｍ）
 50
0.000000
 41
0.833333
 51
0.000000
  7
STANDARD
  0
TEXT
  8
0
 10
-138.656998
 20
-92.379997
 40
3.200000
  1
STRETCH LIST
 50
0.000000
 41
1.052632
 51
0.000000
  7
STANDARD
  0
TEXT
  8
0
 10
-66.650002
 20
-104.379997
 40
3.200000
  1
100
 50
0.000000
 41
1.052632
 51
0.000000
  7
STANDARD
  0
TEXT
  8
0
 10
-80.050003
 20
-104.379997
 40
3.200000
  1
75
 50
0.000000
 41
1.052632
 51
0.000000
  7
STANDARD
  0
TEXT
  8
0
 10
-95.050003
 20
-104.379997
 40
3.200000
  1
50
 50
0.000000
 41
1.052632
 51
0.000000
  7
STANDARD
  0
TEXT
  8
0
 10
-110.050003
 20
-104.379997
 40
3.200000
  1
40
 50
0.000000
 41
1.052632
 51
0.000000
  7
STANDARD
  0
TEXT
  8
0
 10
-125.050003
 20
-104.379997
 40
3.200000
  1
30
 50
0.000000
 41
1.052632
 51
0.000000
  7
STANDARD
  0
TEXT
  8
0
 10
-140.050003
 20
-104.379997
 40
3.200000
  1
20
 50
0.000000
 41
1.052632
 51
0.000000
  7
STANDARD
  0
TEXT
  8
0
 10
-155.050003
 20
-104.379997
 40
3.200000
  1
10
 50
0.000000
 41
1.052632
 51
0.000000
  7
STANDARD
  0
TEXT
  8
0
 10
-184.156998
 20
-104.019997
 40
3.200000
  1
STRETCH
 50
0.000000
 41
1.052632
 51
0.000000
  7
STANDARD
  0
TEXT
  8
0
 10
-184.156998
 20
-108.820000
 40
3.200000
  1
  PLACE
 50
0.000000
 41
1.052632
 51
0.000000
  7
STANDARD
  0
TEXT
  8
0
 10
-173.557007
 20
-122.379997
 40
3.200000
  1
B
 50
0.000000
 41
1.052632
 51
0.000000
  7
STANDARD
  0
TEXT
  8
0
 10
-173.557007
 20
-116.379997
 40
3.200000
  1
A
 50
0.000000
 41
1.052632
 51
0.000000
  7
STANDARD
  0
TEXT
  8
0
 10
-181.557007
 20
-98.379997
 40
3.200000
  1
STROKE
 50
0.000000
 41
1.052632
 51
0.000000
  7
STANDARD
  0
TEXT
  8
0
 10
-191.242187
 20
122.050003
 40
4.500000
  1
JIG CYLINDER WITH GUIDE
 50
0.000000
 41
1.052632
 51
0.000000
  7
STANDARD
  0
TEXT
  8
0
 10
-159.892654
 20
98.550003
 40
4.500000
  1
SGDAKQ12*ST(10)-RL
 50
0.000000
 41
1.052632
 51
0.000000
  7
STANDARD
  0
TEXT
  8
0
 10
-186.892654
 20
104.550003
 40
4.500000
  1
MODEL:SGDAKQ12*ST(10)-HL
 50
0.000000
 41
1.052632
 51
0.000000
  7
STANDARD
  0
TEXT
  8
0
 10
133.907150
 20
122.050003
 40
4.500000
  1
Ｖｅｒ．　１．０
 50
0.000000
 41
0.833333
 51
0.000000
  7
STANDARD
  0
TEXT
  8
0
 10
113.700287
 20
-130.669998
 40
6.300000
  1
KOGANEI CORP.
 50
0.000000
 41
1.052632
 51
0.000000
  7
STANDARD
  0
ENDSEC
  0
EOF
