  0
SECTION
  2
HEADER
  0
ENDSEC
  0
SECTION
  2
TABLES
  0
TABLE
  2
LTYPE
 70
     4
  0
LTYPE
  2
CONTINUOUS
 70
    64
  3
Solid line
 72
    65
 73
     0
 40
0.000000
  0
LTYPE
  2
DASHED
 70
    64
  3
__ __ __ __ __ __ __ __ __ __ __ __ __ __ __
 72
    65
 73
     2
 40
3.500000
 49
2.000000
 49
-1.500000
  0
LTYPE
  2
CENTER
 70
    64
  3
____ _ ____ _ ____ _ ____ _ ____ _ ____ _ ____
 72
    65
 73
     4
 40
17.500000
 49
13.000000
 49
-1.500000
 49
1.500000
 49
-1.500000
  0
LTYPE
  2
PHANTOM
 70
    64
  3
_____ _ _ _____ _ _ _____ _ _ _____ _ _ ____  
 72
    65
 73
     6
 40
15.500000
 49
8.000000
 49
-1.500000
 49
1.500000
 49
-1.500000
 49
1.500000
 49
-1.500000
  0
LTYPE
  2
DASHED1
 70
    64
  3
__ __ __ __ __ __ __ __ __ __ __ __ __ __ __
 72
    65
 73
     2
 40
1.500000
 49
1.000000
 49
-0.500000
  0
LTYPE
  2
DASHED2
 70
    64
  3
__ __ __ __ __ __ __ __ __ __ __ __ __ __ __
 72
    65
 73
     2
 40
3.500000
 49
2.500000
 49
-1.000000
  0
LTYPE
  2
DASHED3
 70
    64
  3
__ __ __ __ __ __ __ __ __ __ __ __ __ __ __
 72
    65
 73
     2
 40
6.000000
 49
4.000000
 49
-2.000000
  0
LTYPE
  2
DASHED4
 70
    64
  3
__ __ __ __ __ __ __ __ __ __ __ __ __ __ __
 72
    65
 73
     2
 40
12.000000
 49
10.000000
 49
-2.000000
  0
LTYPE
  2
DASHED5
 70
    64
  3
__ __ __ __ __ __ __ __ __ __ __ __ __ __ __
 72
    65
 73
     2
 40
17.000000
 49
15.000000
 49
-2.000000
  0
LTYPE
  2
DASHED6
 70
    64
  3
__ __ __ __ __ __ __ __ __ __ __ __ __ __ __
 72
    65
 73
     2
 40
29.000000
 49
27.000000
 49
-2.000000
  0
LTYPE
  2
PHANTOM1
 70
    64
  3
_____ _ _ _____ _ _ _____ _ _ _____ _ _ ____  
 72
    65
 73
     6
 40
31.000000
 49
25.000000
 49
-1.500000
 49
1.000000
 49
-1.000000
 49
1.000000
 49
-1.500000
  0
LTYPE
  2
PHANTOM2
 70
    64
  3
_____ _ _ _____ _ _ _____ _ _ _____ _ _ ____  
 72
    65
 73
     6
 40
36.000000
 49
27.000000
 49
-1.500000
 49
2.500000
 49
-1.000000
 49
2.500000
 49
-1.500000
  0
LTYPE
  2
PHANTOM3
 70
    64
  3
_____ _ _ _____ _ _ _____ _ _ _____ _ _ ____  
 72
    65
 73
     6
 40
78.000000
 49
64.000000
 49
-2.000000
 49
4.000000
 49
-2.000000
 49
4.000000
 49
-2.000000
  0
LTYPE
  2
CENTER1
 70
    64
  3
____ _ ____ _ ____ _ ____ _ ____ _ ____ _ ____
 72
    65
 73
     4
 40
19.000000
 49
14.000000
 49
-1.000000
 49
3.000000
 49
-1.000000
  0
LTYPE
  2
CENTER2
 70
    64
  3
____ _ ____ _ ____ _ ____ _ ____ _ ____ _ ____
 72
    65
 73
     4
 40
28.500000
 49
25.000000
 49
-1.000000
 49
1.500000
 49
-1.000000
  0
LTYPE
  2
CENTER3
 70
    64
  3
____ _ ____ _ ____ _ ____ _ ____ _ ____ _ ____
 72
    65
 73
     4
 40
31.500000
 49
27.000000
 49
-1.000000
 49
2.500000
 49
-1.000000
  0
LTYPE
  2
CENTER4
 70
    64
  3
____ _ ____ _ ____ _ ____ _ ____ _ ____ _ ____
 72
    65
 73
     4
 40
50.000000
 49
45.000000
 49
-1.000000
 49
3.000000
 49
-1.000000
  0
LTYPE
  2
CENTER5
 70
    64
  3
____ _ ____ _ ____ _ ____ _ ____ _ ____ _ ____
 72
    65
 73
     4
 40
100.000000
 49
92.000000
 49
-2.000000
 49
4.000000
 49
-2.000000
  0
LTYPE
  2
SBK1
 70
    64
  3
______ _ _ _ ______ _ _ _ ______ _ _ _ _____  
 72
    65
 73
     8
 40
60.500000
 49
45.000000
 49
-2.000000
 49
2.500000
 49
-2.000000
 49
2.500000
 49
-2.000000
 49
2.500000
 49
-2.000000
  0
LTYPE
  2
SBK2
 70
    64
  3
______ _ _ _ ______ _ _ _ ______ _ _ _ _____  
 72
    65
 73
     8
 40
84.000000
 49
64.000000
 49
-2.000000
 49
4.000000
 49
-2.000000
 49
4.000000
 49
-2.000000
 49
4.000000
 49
-2.000000
  0
LTYPE
  2
STCH
 70
    64
  3
__ __ __ __ __ __ __ __ __ __ __ __ __ __ __
 72
    65
 73
     2
 40
3.000000
 49
1.000000
 49
-2.000000
  0
LTYPE
  2
MTCH
 70
    64
  3
_____ _ _ _____ _ _ _____ _ _ _____ _ _ ____  
 72
    65
 73
     6
 40
80.000000
 49
66.000000
 49
-2.000000
 49
4.000000
 49
-2.000000
 49
4.000000
 49
-2.000000
  0
ENDTAB
  0
TABLE
  2
LAYER
 70
     1
  0
LAYER
  2
0
 70
     0
 62
     7
  6
CONTINUOUS
  0
ENDTAB
  0
TABLE
  2
STYLE
 70
     1
  0
STYLE
  2
STANDARD
 70
     0
 40
0.000000
 41
1.000000
 50
0.000000
 71
     0
 42
0.200000
  3
txt
  4
BIGFONT
  0
ENDTAB
  0
TABLE
  2
VIEW
 70
     0
  0
ENDTAB
  0
ENDSEC
  0
SECTION
  2
BLOCKS
  0
ENDSEC
  0
SECTION
  2
ENTITIES
  0
LINE
  8
0
  6
PHANTOM
 62
     3
 10
-5.005951
 20
-152.793335
 11
-5.005951
 21
-117.275391
  0
LINE
  8
0
  6
PHANTOM
 62
     3
 10
-5.005949
 20
-152.793335
 11
3.951914
 21
-159.913681
  0
LINE
  8
0
  6
PHANTOM
 62
     3
 10
3.951905
 20
-109.891205
 11
-5.005954
 21
-117.275391
  0
LINE
  8
0
  6
CENTER
 62
     2
 10
57.327255
 20
-179.939484
 11
57.327255
 21
-196.797958
  0
LINE
  8
0
 10
18.355820
 20
-149.225204
 11
72.327255
 21
-149.225204
  0
LINE
  8
0
 10
23.441528
 20
-146.025192
 11
72.327255
 21
-146.025192
  0
LINE
  8
0
 10
18.355820
 20
-122.025200
 11
72.327255
 21
-122.025200
  0
LINE
  8
0
 10
23.441528
 20
-125.225197
 11
72.327255
 21
-125.225197
  0
LINE
  8
0
  6
CENTER
 62
     2
 10
13.327255
 20
-119.482346
 11
13.327255
 21
-151.610916
  0
LINE
  8
0
  6
CENTER
 62
     2
 10
80.827240
 20
-203.125198
 11
81.327240
 21
-202.625198
  0
LINE
  8
0
  6
CENTER
 62
     2
 10
80.827255
 20
-178.125198
 11
81.327255
 21
-178.625198
  0
LINE
  8
0
  6
CENTER
 62
     2
 10
80.827255
 20
-93.125198
 11
81.327255
 21
-92.625198
  0
LINE
  8
0
  6
CENTER
 62
     2
 10
80.827240
 20
-68.125198
 11
81.327240
 21
-68.625198
  0
LINE
  8
0
  6
CENTER
 62
     2
 10
81.327255
 20
-68.625198
 11
81.327255
 21
-92.625198
  0
LINE
  8
0
  6
CENTER
 62
     2
 10
81.327255
 20
-178.625198
 11
81.327255
 21
-202.625198
  0
LINE
  8
0
  6
CENTER
 62
     2
 10
0.827255
 20
-179.839478
 11
0.827255
 21
-197.482330
  0
LINE
  8
0
  6
CENTER
 62
     2
 10
8.527252
 20
-188.125198
 11
-6.887039
 21
-188.125198
  0
LINE
  8
0
  6
CENTER
 62
     2
 10
-4.672745
 20
-204.296616
 11
-4.672745
 21
-212.153763
  0
LINE
  8
0
 10
-14.672737
 20
-210.125183
 11
-14.172736
 21
-210.625183
  0
LINE
  8
0
 10
72.327248
 20
-210.125198
 11
71.827248
 21
-210.625198
  0
LINE
  8
0
  6
CENTER
 62
     2
 10
47.741528
 20
-205.739471
 11
47.870098
 21
-210.625183
  0
LINE
  8
0
  6
CENTER
 62
     2
 10
47.027252
 20
-205.739471
 11
47.027252
 21
-209.625198
  0
LINE
  8
0
  6
CENTER
 62
     2
 10
34.912960
 20
-205.739487
 11
34.784389
 21
-210.468048
  0
LINE
  8
0
  6
CENTER
 62
     2
 10
35.627243
 20
-205.739471
 11
35.627243
 21
-209.625198
  0
LINE
  8
0
  6
CENTER
 62
     2
 10
47.027252
 20
-209.625198
 11
35.627243
 21
-209.625198
  0
LINE
  8
0
  6
CENTER
 62
     2
 10
34.627258
 20
-210.625198
 11
35.627258
 21
-209.625198
  0
LINE
  8
0
  6
CENTER
 62
     2
 10
47.027248
 20
-209.625183
 11
48.027256
 21
-210.625214
  0
LINE
  8
0
  6
CENTER
 62
     2
 10
41.327255
 20
-204.582336
 11
41.327255
 21
-212.010910
  0
LINE
  8
0
  6
CENTER
 62
     2
 10
1.755825
 20
-205.739471
 11
1.884396
 21
-210.625198
  0
LINE
  8
0
  6
CENTER
 62
     2
 10
1.027252
 20
-205.739471
 11
1.027252
 21
-209.625198
  0
LINE
  8
0
  6
CENTER
 62
     2
 10
-11.087035
 20
-205.739487
 11
-11.215607
 21
-210.468048
  0
LINE
  8
0
  6
CENTER
 62
     2
 10
-10.372757
 20
-205.739471
 11
-10.372757
 21
-209.625198
  0
LINE
  8
0
  6
CENTER
 62
     2
 10
1.027252
 20
-209.625198
 11
-10.372757
 21
-209.625198
  0
LINE
  8
0
  6
CENTER
 62
     2
 10
-11.372739
 20
-210.625198
 11
-10.372738
 21
-209.625198
  0
LINE
  8
0
  6
CENTER
 62
     2
 10
1.027261
 20
-209.625183
 11
2.027262
 21
-210.625183
  0
LINE
  8
0
 10
-14.672745
 20
-146.025192
 11
3.227249
 21
-146.025192
  0
LINE
  8
0
 10
-14.672745
 20
-149.225204
 11
8.298676
 21
-149.225204
  0
LINE
  8
0
 10
-14.672745
 20
-156.625198
 11
72.327255
 21
-156.625198
  0
LINE
  8
0
 10
-14.672745
 20
-157.625198
 11
72.327255
 21
-157.625198
  0
LINE
  8
0
  6
CENTER
 62
     2
 10
64.995636
 20
-188.125198
 11
49.441528
 21
-188.125198
  0
LINE
  8
0
  6
CENTER
 62
     2
 10
13.327255
 20
-160.025192
 11
13.327255
 21
-177.668045
  0
LINE
  8
0
  6
CENTER
 62
     2
 10
-6.672745
 20
-160.025192
 11
-6.672745
 21
-177.339478
  0
LINE
  8
0
  6
CENTER
 62
     2
 10
-15.615616
 20
-168.625198
 11
2.027252
 21
-168.625198
  0
LINE
  8
0
 10
72.327255
 20
-61.125198
 11
72.327255
 21
-210.125198
  0
LINE
  8
0
  6
CENTER
 62
     2
 10
4.241531
 20
-168.625198
 11
21.955826
 21
-168.625198
  0
LINE
  8
0
 10
-14.672745
 20
-207.625198
 11
72.327255
 21
-207.625198
  0
LINE
  8
0
 10
-14.172745
 20
-210.625198
 11
71.827255
 21
-210.625198
  0
LINE
  8
0
 10
-14.672745
 20
-61.125198
 11
-14.672745
 21
-210.125198
  0
LINE
  8
0
  6
CENTER
 62
     2
 10
-15.615616
 20
-102.625198
 11
2.027252
 21
-102.625198
  0
LINE
  8
0
  6
CENTER
 62
     2
 10
-6.672745
 20
-94.025208
 11
-6.672745
 21
-111.353775
  0
LINE
  8
0
 10
-19.672745
 20
-93.125198
 11
-14.672745
 21
-93.125198
  0
LINE
  8
0
 10
-19.672745
 20
-68.125198
 11
-14.672745
 21
-68.125198
  0
LINE
  8
0
  6
CENTER
 62
     2
 10
-41.129887
 20
-135.625198
 11
74.941528
 21
-135.625198
  0
LINE
  8
0
  6
CENTER
 62
     2
 10
72.327255
 20
-93.125198
 11
80.827255
 21
-93.125198
  0
LINE
  8
0
  6
CENTER
 62
     2
 10
72.327255
 20
-68.125198
 11
80.827255
 21
-68.125198
  0
LINE
  8
0
  6
CENTER
 62
     2
 10
72.327255
 20
-203.125198
 11
80.827255
 21
-203.125198
  0
LINE
  8
0
  6
CENTER
 62
     2
 10
72.327255
 20
-178.125198
 11
80.827255
 21
-178.125198
  0
LINE
  8
0
 10
-19.672745
 20
-131.268051
 11
-17.672745
 21
-131.268051
  0
LINE
  8
0
 10
-14.172743
 20
-60.625214
 11
-14.672744
 21
-61.125214
  0
LINE
  8
0
 10
71.827248
 20
-60.625195
 11
72.327248
 21
-61.125195
  0
LINE
  8
0
 10
-14.672745
 20
-88.282349
 11
72.327255
 21
-88.282349
  0
LINE
  8
0
 10
-14.672745
 20
-82.982346
 11
72.327255
 21
-82.982346
  0
LINE
  8
0
 10
-14.672745
 20
-114.625198
 11
72.327255
 21
-114.625198
  0
LINE
  8
0
 10
-14.672745
 20
-113.625198
 11
72.327255
 21
-113.625198
  0
LINE
  8
0
  6
CENTER
 62
     2
 10
13.327255
 20
-94.025208
 11
13.327255
 21
-111.353775
  0
LINE
  8
0
  6
CENTER
 62
     2
 10
4.384384
 20
-102.625198
 11
22.027252
 21
-102.625198
  0
LINE
  8
0
 10
-14.672745
 20
-63.625198
 11
72.327255
 21
-63.625198
  0
LINE
  8
0
 10
-14.672745
 20
-122.025200
 11
8.298676
 21
-122.025200
  0
LINE
  8
0
 10
-14.672745
 20
-125.225197
 11
3.227249
 21
-125.225197
  0
LINE
  8
0
 10
-14.172745
 20
-60.625198
 11
71.827255
 21
-60.625198
  0
LINE
  8
0
 10
-19.672749
 20
-208.625198
 11
-20.672752
 21
-209.625198
  0
LINE
  8
0
 10
-37.672749
 20
-208.625198
 11
-36.672749
 21
-209.625198
  0
LINE
  8
0
 10
-20.672749
 20
-61.625210
 11
-19.672747
 21
-62.625210
  0
LINE
  8
0
 10
-36.672745
 20
-61.625206
 11
-37.672745
 21
-62.625206
  0
LINE
  8
0
  6
CENTER
 62
     2
 10
-40.615601
 20
-190.625198
 11
-12.287033
 21
-190.625198
  0
LINE
  8
0
 62
     2
 10
-17.672754
 20
-131.268051
 11
-19.672754
 21
-137.082336
  0
LINE
  8
0
 62
     2
 10
-19.672756
 20
-134.182343
 11
-17.672756
 21
-139.996628
  0
LINE
  8
0
 10
-17.672745
 20
-139.996628
 11
-17.672745
 21
-131.268051
  0
LINE
  8
0
 10
-19.672745
 20
-139.996628
 11
-17.672745
 21
-139.996628
  0
LINE
  8
0
 10
-19.672745
 20
-125.625198
 11
-14.672745
 21
-125.625198
  0
LINE
  8
0
 10
-37.672745
 20
-62.625198
 11
-37.672745
 21
-208.625198
  0
LINE
  8
0
 10
-36.672745
 20
-209.625198
 11
-20.672745
 21
-209.625198
  0
LINE
  8
0
 10
-36.672745
 20
-61.625198
 11
-20.672745
 21
-61.625198
  0
LINE
  8
0
 10
-19.672745
 20
-178.125198
 11
-14.672745
 21
-178.125198
  0
LINE
  8
0
 10
-19.672745
 20
-203.125198
 11
-14.672745
 21
-203.125198
  0
LINE
  8
0
 10
-19.672745
 20
-62.625198
 11
-19.672745
 21
-208.625198
  0
LINE
  8
0
  6
CENTER
 62
     2
 10
-41.187031
 20
-80.625198
 11
-12.401321
 21
-80.625198
  0
LINE
  8
0
 10
-19.672745
 20
-145.625198
 11
-14.672745
 21
-145.625198
  0
LINE
  8
0
  6
PHANTOM
 62
     3
 10
33.064957
 20
-218.003860
 11
33.064957
 21
-50.780792
  0
LINE
  8
0
  6
PHANTOM
 62
     3
 10
3.951920
 20
-109.891205
 11
3.951920
 21
-42.355850
  0
LINE
  8
0
  6
PHANTOM
 62
     3
 10
3.951920
 20
-218.003860
 11
3.951920
 21
-159.913681
  0
LINE
  8
0
 10
192.041534
 20
95.374786
 11
192.041534
 21
89.374786
  0
LINE
  8
0
 10
192.041534
 20
120.174789
 11
192.041534
 21
98.574783
  0
LINE
  8
0
 10
190.041534
 20
123.660500
 11
190.041534
 21
95.089073
  0
LINE
  8
0
  6
CENTER
 10
190.041534
 20
95.089073
 11
192.041534
 21
95.089073
  0
LINE
  8
0
  6
CENTER
 10
190.041534
 20
123.660500
 11
192.041534
 21
123.660500
  0
LINE
  8
0
  6
CENTER
 62
     2
 10
201.041534
 20
50.817657
 11
201.041534
 21
33.331940
  0
LINE
  8
0
 10
224.541534
 20
40.460510
 11
224.541534
 21
34.374786
  0
LINE
  8
0
 10
221.541534
 20
40.460510
 11
221.541534
 21
34.374786
  0
LINE
  8
0
  6
CENTER
 62
     2
 10
193.041534
 20
159.374786
 11
200.212967
 21
159.374786
  0
LINE
  8
0
  6
CENTER
 62
     2
 10
241.870102
 20
159.374786
 11
251.541534
 21
159.374786
  0
LINE
  8
0
  6
CENTER
 62
     2
 10
241.470093
 20
59.374786
 11
251.541534
 21
59.374786
  0
LINE
  8
0
  6
CENTER
 62
     2
 10
203.541534
 20
58.989075
 11
203.541534
 21
54.889084
  0
LINE
  8
0
  6
CENTER
 62
     2
 10
205.655823
 20
56.874786
 11
201.384399
 21
56.874786
  0
LINE
  8
0
  6
CENTER
 62
     2
 10
187.827255
 20
109.374786
 11
258.870117
 21
109.374786
  0
LINE
  8
0
  6
CENTER
 62
     2
 10
206.741547
 20
39.260513
 11
206.741547
 21
35.374786
  0
LINE
  8
0
  6
CENTER
 62
     2
 10
207.455826
 20
39.260506
 11
207.584396
 21
34.374790
  0
LINE
  8
0
  6
CENTER
 62
     2
 10
206.741531
 20
35.374805
 11
207.741531
 21
34.374802
  0
LINE
  8
0
  6
CENTER
 62
     2
 10
206.741547
 20
35.374786
 11
195.341537
 21
35.374786
  0
LINE
  8
0
  6
CENTER
 62
     2
 10
195.341537
 20
39.260513
 11
195.341537
 21
35.374786
  0
LINE
  8
0
  6
CENTER
 62
     2
 10
194.341553
 20
34.374790
 11
195.341553
 21
35.374790
  0
LINE
  8
0
  6
CENTER
 62
     2
 10
194.612976
 20
39.260509
 11
194.484406
 21
34.531940
  0
LINE
  8
0
  6
CENTER
 62
     2
 10
237.712967
 20
44.374786
 11
252.227249
 21
44.374786
  0
LINE
  8
0
  6
CENTER
 62
     2
 10
201.041534
 20
181.531921
 11
201.041534
 21
167.260498
  0
LINE
  8
0
  6
CENTER
 62
     2
 10
237.570099
 20
174.374786
 11
252.498672
 21
174.374786
  0
LINE
  8
0
  6
CENTER
 62
     2
 10
245.041534
 20
181.917633
 11
245.041534
 21
167.003357
  0
LINE
  8
0
  6
CENTER
 62
     2
 10
193.898682
 20
174.374786
 11
208.327255
 21
174.374786
  0
LINE
  8
0
 10
256.041534
 20
131.374786
 11
256.041534
 21
155.217636
  0
LINE
  8
0
 10
251.541534
 20
152.717636
 11
251.541534
 21
155.217636
  0
LINE
  8
0
 10
251.541534
 20
155.217636
 11
256.041534
 21
155.217636
  0
LINE
  8
0
 10
244.541534
 20
152.717636
 11
251.541534
 21
152.717636
  0
LINE
  8
0
 10
244.541534
 20
152.717636
 11
244.541534
 21
166.017639
  0
LINE
  8
0
 10
244.541534
 20
166.017639
 11
251.541534
 21
166.017639
  0
LINE
  8
0
 10
251.541534
 20
163.517639
 11
251.541534
 21
166.017639
  0
LINE
  8
0
 10
251.541534
 20
163.517639
 11
256.041534
 21
163.517639
  0
LINE
  8
0
 10
256.041534
 20
163.517639
 11
256.041534
 21
181.374786
  0
LINE
  8
0
 10
190.041534
 20
156.717636
 11
190.041534
 21
131.374786
  0
LINE
  8
0
 10
190.041534
 20
156.717636
 11
193.041534
 21
156.717636
  0
LINE
  8
0
 10
193.041534
 20
156.531921
 11
193.041534
 21
155.374786
  0
LINE
  8
0
 10
193.041534
 20
155.374786
 11
197.541534
 21
155.374786
  0
LINE
  8
0
 10
197.541534
 20
163.374786
 11
197.541534
 21
155.374786
  0
LINE
  8
0
 10
193.041534
 20
163.374786
 11
197.541534
 21
163.374786
  0
LINE
  8
0
 10
193.041534
 20
163.374786
 11
193.041534
 21
162.017639
  0
LINE
  8
0
 10
190.041534
 20
162.017639
 11
193.041534
 21
162.017639
  0
LINE
  8
0
 10
190.041534
 20
181.374786
 11
190.041534
 21
162.017639
  0
LINE
  8
0
 10
254.041534
 20
163.517639
 11
254.041534
 21
155.217636
  0
LINE
  8
0
 10
192.041534
 20
162.017639
 11
192.041534
 21
156.717636
  0
LINE
  8
0
 10
221.541534
 20
184.374786
 11
221.541534
 21
178.289062
  0
LINE
  8
0
 10
224.541534
 20
184.374786
 11
224.541534
 21
178.289062
  0
LINE
  8
0
 10
190.041534
 20
37.374798
 11
193.041534
 21
34.374802
  0
LINE
  8
0
 10
193.041534
 20
184.374786
 11
253.041534
 21
184.374786
  0
LINE
  8
0
  6
CENTER
 62
     2
 10
245.041534
 20
51.374786
 11
245.041534
 21
37.374786
  0
LINE
  8
0
  6
CENTER
 62
     2
 10
193.927261
 20
44.374786
 11
208.084396
 21
44.374786
  0
LINE
  8
0
 10
244.541534
 20
52.731934
 11
251.541534
 21
52.731934
  0
LINE
  8
0
 10
244.541534
 20
66.031937
 11
244.541534
 21
52.731934
  0
LINE
  8
0
 10
251.541534
 20
55.231934
 11
251.541534
 21
52.731934
  0
LINE
  8
0
 10
251.541534
 20
55.231934
 11
256.041534
 21
55.231934
  0
LINE
  8
0
 10
251.541534
 20
63.531937
 11
256.041534
 21
63.531937
  0
LINE
  8
0
 10
251.541534
 20
66.031937
 11
251.541534
 21
63.531937
  0
LINE
  8
0
 10
244.541534
 20
66.031937
 11
251.541534
 21
66.031937
  0
LINE
  8
0
 10
254.041519
 20
89.374794
 11
256.041534
 21
87.359756
  0
LINE
  8
0
 10
254.041534
 20
63.531937
 11
254.041534
 21
55.231934
  0
LINE
  8
0
 10
254.041534
 20
129.374786
 11
254.041534
 21
89.374786
  0
LINE
  8
0
 10
254.041519
 20
129.374771
 11
256.041534
 21
131.374786
  0
LINE
  8
0
 10
192.041534
 20
89.374786
 11
190.127243
 21
87.460503
  0
LINE
  8
0
 10
254.041534
 20
95.374786
 11
253.541534
 21
95.374786
  0
LINE
  8
0
 10
253.541534
 20
95.374786
 11
253.041534
 21
94.874786
  0
LINE
  8
0
 10
253.041534
 20
94.874786
 11
251.441528
 21
94.874786
  0
LINE
  8
0
 10
253.041534
 20
99.074783
 11
251.441528
 21
99.074783
  0
LINE
  8
0
 10
253.541534
 20
98.574791
 11
253.041534
 21
99.074791
  0
LINE
  8
0
 10
254.041534
 20
98.574783
 11
253.541534
 21
98.574783
  0
LINE
  8
0
 10
254.041534
 20
123.374786
 11
253.541534
 21
123.374786
  0
LINE
  8
0
 10
253.541534
 20
123.374779
 11
253.041534
 21
123.874779
  0
LINE
  8
0
 10
253.041534
 20
123.874786
 11
251.441528
 21
123.874786
  0
LINE
  8
0
 10
253.041534
 20
119.674789
 11
251.441528
 21
119.674789
  0
LINE
  8
0
 10
253.541534
 20
120.174789
 11
253.041534
 21
119.674782
  0
LINE
  8
0
 10
254.041534
 20
120.174789
 11
253.541534
 21
120.174789
  0
LINE
  8
0
 10
192.041534
 20
95.374786
 11
192.541534
 21
95.374786
  0
LINE
  8
0
 10
192.541534
 20
95.374786
 11
193.041534
 21
94.874786
  0
LINE
  8
0
 10
193.041534
 20
94.874786
 11
194.641541
 21
94.874786
  0
LINE
  8
0
 10
193.041534
 20
99.074783
 11
194.641541
 21
99.074783
  0
LINE
  8
0
 10
192.541534
 20
98.574791
 11
193.041534
 21
99.074791
  0
LINE
  8
0
 10
192.041534
 20
98.574783
 11
192.541534
 21
98.574783
  0
LINE
  8
0
 10
192.041534
 20
129.374786
 11
192.041534
 21
123.374786
  0
LINE
  8
0
 10
192.041534
 20
129.374786
 11
190.041534
 21
131.374786
  0
LINE
  8
0
 10
192.041534
 20
123.374786
 11
192.541534
 21
123.374786
  0
LINE
  8
0
 10
192.541519
 20
123.374779
 11
193.041519
 21
123.874779
  0
LINE
  8
0
 10
193.041534
 20
123.874786
 11
194.641541
 21
123.874786
  0
LINE
  8
0
 10
193.041534
 20
119.674789
 11
194.641541
 21
119.674789
  0
LINE
  8
0
 10
192.541534
 20
120.174782
 11
193.041534
 21
119.674782
  0
LINE
  8
0
 10
192.041534
 20
120.174789
 11
192.541534
 21
120.174789
  0
LINE
  8
0
 10
256.041534
 20
55.231934
 11
256.041534
 21
37.374786
  0
LINE
  8
0
 10
256.041534
 20
87.359756
 11
256.041534
 21
63.531937
  0
LINE
  8
0
 10
190.041534
 20
87.374786
 11
190.041534
 21
37.374786
  0
LINE
  8
0
 10
256.041534
 20
37.374794
 11
253.041534
 21
34.374805
  0
LINE
  8
0
 10
253.041534
 20
184.374771
 11
256.041534
 21
181.374771
  0
LINE
  8
0
 10
193.041534
 20
184.374771
 11
190.041519
 21
181.374756
  0
LINE
  8
0
  6
CENTER
 62
     2
 10
205.670120
 20
54.374786
 11
239.612961
 21
54.374786
  0
LINE
  8
0
  6
CENTER
 62
     2
 10
205.127258
 20
164.374786
 11
239.612961
 21
164.374786
  0
LINE
  8
0
 10
193.041534
 20
34.374786
 11
253.041534
 21
34.374786
  0
LINE
  8
0
  6
CENTER
 62
     2
 10
223.041534
 20
189.489059
 11
223.041534
 21
30.746216
  0
LINE
  8
0
 10
-156.101318
 20
123.660500
 11
-158.101318
 21
123.660500
  0
LINE
  8
0
 10
-156.101318
 20
95.089073
 11
-158.101318
 21
95.089073
  0
LINE
  8
0
 10
-156.101318
 20
123.660500
 11
-156.101318
 21
95.089073
  0
LINE
  8
0
  6
CENTER
 62
     2
 10
-201.158463
 20
54.374786
 11
-177.101318
 21
54.374786
  0
LINE
  8
0
  6
CENTER
 62
     2
 10
-201.158463
 20
164.374786
 11
-177.101318
 21
164.374786
  0
LINE
  8
0
  6
CENTER
 62
     2
 10
-176.344177
 20
169.374786
 11
-160.858475
 21
169.374786
  0
LINE
  8
0
  6
CENTER
 62
     2
 10
-168.101318
 20
177.603348
 11
-168.101318
 21
161.003357
  0
LINE
  8
0
  6
CENTER
 62
     2
 10
-176.344177
 20
49.374786
 11
-160.858475
 21
49.374786
  0
LINE
  8
0
  6
CENTER
 62
     2
 10
-168.101318
 20
41.146225
 11
-168.101318
 21
57.746216
  0
LINE
  8
0
  6
CENTER
 62
     2
 10
-201.844177
 20
169.374786
 11
-217.344162
 21
169.374786
  0
LINE
  8
0
  6
CENTER
 62
     2
 10
-210.101318
 20
177.603348
 11
-210.101318
 21
161.003357
  0
LINE
  8
0
 10
-158.101318
 20
182.374786
 11
-158.101318
 21
36.374786
  0
LINE
  8
0
 10
-220.101318
 20
182.374786
 11
-220.101318
 21
36.374786
  0
LINE
  8
0
 10
-189.101303
 20
112.831924
 11
-186.101318
 21
111.103355
  0
LINE
  8
0
 10
-186.101318
 20
111.103355
 11
-186.101318
 21
107.631927
  0
LINE
  8
0
 10
-186.101318
 20
107.631927
 11
-189.101318
 21
105.903358
  0
LINE
  8
0
 10
-189.101318
 20
105.903358
 11
-192.101303
 21
107.631927
  0
LINE
  8
0
 10
-192.101318
 20
111.103355
 11
-192.101318
 21
107.631927
  0
LINE
  8
0
 10
-189.101318
 20
112.831932
 11
-192.101318
 21
111.103355
  0
LINE
  8
0
 10
-189.101318
 20
167.831924
 11
-186.101318
 21
166.103363
  0
LINE
  8
0
 10
-186.101318
 20
166.103348
 11
-186.101318
 21
162.631927
  0
LINE
  8
0
 10
-186.101318
 20
162.631912
 11
-189.101318
 21
160.903351
  0
LINE
  8
0
 10
-189.101318
 20
160.903351
 11
-192.101318
 21
162.631912
  0
LINE
  8
0
 10
-192.101318
 20
166.103348
 11
-192.101318
 21
162.631927
  0
LINE
  8
0
 10
-189.101318
 20
167.831924
 11
-192.101318
 21
166.103363
  0
LINE
  8
0
 10
-189.101318
 20
57.846230
 11
-186.101318
 21
56.117664
  0
LINE
  8
0
 10
-186.101318
 20
56.117645
 11
-186.101318
 21
52.646225
  0
LINE
  8
0
 10
-186.101318
 20
52.646221
 11
-189.101334
 21
50.917645
  0
LINE
  8
0
 10
-189.101318
 20
50.917652
 11
-192.101318
 21
52.646217
  0
LINE
  8
0
 10
-192.101318
 20
56.117645
 11
-192.101318
 21
52.646225
  0
LINE
  8
0
 10
-189.101318
 20
57.846233
 11
-192.101318
 21
56.117657
  0
LINE
  8
0
  6
CENTER
 62
     2
 10
-201.844177
 20
49.374786
 11
-217.344162
 21
49.374786
  0
LINE
  8
0
  6
CENTER
 62
     2
 10
-210.101318
 20
41.146225
 11
-210.101318
 21
57.746216
  0
LINE
  8
0
 10
-159.101318
 20
183.374771
 11
-158.101303
 21
182.374756
  0
LINE
  8
0
 10
-158.101303
 20
36.374805
 11
-159.101303
 21
35.374802
  0
LINE
  8
0
 10
-220.101303
 20
36.374805
 11
-219.101303
 21
35.374802
  0
LINE
  8
0
 10
-219.101318
 20
183.374771
 11
-220.101303
 21
182.374771
  0
LINE
  8
0
 10
-219.101318
 20
183.374786
 11
-159.101318
 21
183.374786
  0
LINE
  8
0
 10
-219.101318
 20
35.374786
 11
-159.101318
 21
35.374786
  0
LINE
  8
0
 10
-220.101318
 20
55.231934
 11
-222.101318
 21
55.231934
  0
LINE
  8
0
 10
-220.101318
 20
63.531937
 11
-222.101318
 21
63.531937
  0
LINE
  8
0
 10
-156.101318
 20
156.717636
 11
-156.101318
 21
131.374786
  0
LINE
  8
0
 10
-156.101318
 20
156.717636
 11
-158.101318
 21
156.717636
  0
LINE
  8
0
 10
-156.101318
 20
162.017639
 11
-158.101318
 21
162.017639
  0
LINE
  8
0
 10
-220.101318
 20
163.517639
 11
-222.101318
 21
163.517639
  0
LINE
  8
0
 10
-220.101318
 20
155.217636
 11
-222.101318
 21
155.217636
  0
LINE
  8
0
 10
-220.101303
 20
89.374802
 11
-222.001297
 21
87.460510
  0
LINE
  8
0
 10
-220.101318
 20
129.374786
 11
-222.001312
 21
131.274780
  0
LINE
  8
0
 10
-158.101318
 20
89.374786
 11
-156.187027
 21
87.460503
  0
LINE
  8
0
 10
-158.101318
 20
129.374786
 11
-156.101318
 21
131.374786
  0
LINE
  8
0
 10
-222.101318
 20
131.374786
 11
-222.101318
 21
155.217636
  0
LINE
  8
0
 10
-222.101318
 20
163.517639
 11
-222.101318
 21
181.374786
  0
LINE
  8
0
 10
-222.101318
 20
55.231934
 11
-222.101318
 21
37.374786
  0
LINE
  8
0
 10
-156.101318
 20
37.374790
 11
-159.101318
 21
34.374802
  0
LINE
  8
0
 10
-222.101318
 20
87.374786
 11
-222.101318
 21
63.531937
  0
LINE
  8
0
  6
CENTER
 62
     2
 10
-225.644165
 20
109.374786
 11
-152.844177
 21
109.374786
  0
LINE
  8
0
 10
-156.101318
 20
87.374786
 11
-156.101318
 21
37.374786
  0
LINE
  8
0
 10
-222.101303
 20
37.374794
 11
-219.101303
 21
34.374805
  0
LINE
  8
0
 10
-219.101318
 20
184.374771
 11
-222.101318
 21
181.374771
  0
LINE
  8
0
 10
-159.101318
 20
184.374771
 11
-156.101318
 21
181.374771
  0
LINE
  8
0
 10
-156.101318
 20
181.374786
 11
-156.101318
 21
162.017639
  0
LINE
  8
0
 10
-159.101318
 20
34.374786
 11
-219.101318
 21
34.374786
  0
LINE
  8
0
 10
-159.101318
 20
184.374786
 11
-219.101318
 21
184.374786
  0
LINE
  8
0
  6
CENTER
 62
     2
 10
-189.101318
 20
30.103363
 11
-189.101318
 21
189.374786
  0
LINE
  8
0
  6
PHANTOM
 62
     3
 10
2.737305
 20
66.854477
 11
14.050613
 21
66.854477
  0
LINE
  8
0
  6
PHANTOM
 62
     3
 10
2.737305
 20
66.854477
 11
2.737305
 21
200.216263
  0
LINE
  8
0
  6
CENTER
 62
     2
 10
57.327255
 20
65.060501
 11
57.327255
 21
47.921463
  0
LINE
  8
0
 10
51.355820
 20
95.774788
 11
72.327255
 21
95.774788
  0
LINE
  8
0
 10
56.427246
 20
98.974785
 11
72.327255
 21
98.974785
  0
LINE
  8
0
 10
51.355820
 20
122.974785
 11
72.327255
 21
122.974785
  0
LINE
  8
0
 10
56.427246
 20
119.774788
 11
72.327255
 21
119.774788
  0
LINE
  8
0
  6
CENTER
 62
     2
 10
46.327255
 20
125.517639
 11
46.327255
 21
93.389069
  0
LINE
  8
0
  6
CENTER
 62
     2
 10
80.827240
 20
41.874786
 11
81.327240
 21
42.374790
  0
LINE
  8
0
  6
CENTER
 62
     2
 10
80.827255
 20
66.874786
 11
81.327255
 21
66.374786
  0
LINE
  8
0
  6
CENTER
 62
     2
 10
80.827255
 20
151.874786
 11
81.327255
 21
152.374786
  0
LINE
  8
0
  6
CENTER
 62
     2
 10
80.827240
 20
176.874786
 11
81.327240
 21
176.374786
  0
LINE
  8
0
  6
CENTER
 62
     2
 10
81.327255
 20
176.374786
 11
81.327255
 21
152.374786
  0
LINE
  8
0
  6
CENTER
 62
     2
 10
81.327255
 20
66.374786
 11
81.327255
 21
42.374786
  0
LINE
  8
0
  6
CENTER
 62
     2
 10
0.827255
 20
65.160507
 11
0.827255
 21
47.517654
  0
LINE
  8
0
  6
CENTER
 62
     2
 10
8.527252
 20
56.874786
 11
-6.887039
 21
56.874786
  0
LINE
  8
0
  6
CENTER
 62
     2
 10
-4.672745
 20
40.703369
 11
-4.672745
 21
32.846222
  0
LINE
  8
0
 10
-14.672742
 20
34.874802
 11
-14.172741
 21
34.374802
  0
LINE
  8
0
 10
72.327248
 20
34.874783
 11
71.827248
 21
34.374783
  0
LINE
  8
0
  6
CENTER
 62
     2
 10
47.741528
 20
39.260513
 11
47.870098
 21
34.374798
  0
LINE
  8
0
  6
CENTER
 62
     2
 10
47.027252
 20
39.260513
 11
47.027252
 21
35.374786
  0
LINE
  8
0
  6
CENTER
 62
     2
 10
34.912964
 20
39.260506
 11
34.784393
 21
34.531937
  0
LINE
  8
0
  6
CENTER
 62
     2
 10
35.627243
 20
39.260513
 11
35.627243
 21
35.374786
  0
LINE
  8
0
  6
CENTER
 62
     2
 10
47.027252
 20
35.374786
 11
35.627243
 21
35.374786
  0
LINE
  8
0
  6
CENTER
 62
     2
 10
34.627254
 20
34.374786
 11
35.627254
 21
35.374786
  0
LINE
  8
0
  6
CENTER
 62
     2
 10
47.027248
 20
35.374794
 11
48.027248
 21
34.374794
  0
LINE
  8
0
  6
CENTER
 62
     2
 10
41.327255
 20
40.417648
 11
41.327255
 21
32.989075
  0
LINE
  8
0
  6
CENTER
 62
     2
 10
1.755825
 20
39.260513
 11
1.884396
 21
34.374798
  0
LINE
  8
0
  6
CENTER
 62
     2
 10
1.027252
 20
39.260513
 11
1.027252
 21
35.374786
  0
LINE
  8
0
  6
CENTER
 62
     2
 10
-11.087035
 20
39.260506
 11
-11.215607
 21
34.531940
  0
LINE
  8
0
  6
CENTER
 62
     2
 10
-10.372757
 20
39.260513
 11
-10.372757
 21
35.374786
  0
LINE
  8
0
  6
CENTER
 62
     2
 10
1.027252
 20
35.374786
 11
-10.372757
 21
35.374786
  0
LINE
  8
0
  6
CENTER
 62
     2
 10
-11.372746
 20
34.374790
 11
-10.372745
 21
35.374794
  0
LINE
  8
0
  6
CENTER
 62
     2
 10
1.027261
 20
35.374794
 11
2.027262
 21
34.374790
  0
LINE
  8
0
 10
-14.672745
 20
98.974785
 11
36.227249
 21
98.974785
  0
LINE
  8
0
 10
-14.672745
 20
95.774788
 11
41.298676
 21
95.774788
  0
LINE
  8
0
 10
-14.672745
 20
88.374786
 11
72.327255
 21
88.374786
  0
LINE
  8
0
 10
-14.672745
 20
87.374786
 11
72.327255
 21
87.374786
  0
LINE
  8
0
  6
CENTER
 62
     2
 10
48.325897
 20
56.874786
 11
65.881790
 21
56.874786
  0
LINE
  8
0
  6
CENTER
 62
     2
 10
13.327255
 20
84.974792
 11
13.327255
 21
67.331940
  0
LINE
  8
0
  6
CENTER
 62
     2
 10
-6.672745
 20
84.974792
 11
-6.672745
 21
67.660507
  0
LINE
  8
0
  6
CENTER
 62
     2
 10
-15.615616
 20
76.374786
 11
2.027252
 21
76.374786
  0
LINE
  8
0
 10
72.327255
 20
183.874786
 11
72.327255
 21
34.874786
  0
LINE
  8
0
  6
CENTER
 62
     2
 10
4.241531
 20
76.374786
 11
21.955826
 21
76.374786
  0
LINE
  8
0
 10
-14.672745
 20
37.374786
 11
72.327255
 21
37.374786
  0
LINE
  8
0
 10
-14.172745
 20
34.374786
 11
71.827255
 21
34.374786
  0
LINE
  8
0
 10
-14.672745
 20
183.874786
 11
-14.672745
 21
34.874786
  0
LINE
  8
0
  6
CENTER
 62
     2
 10
-15.615616
 20
142.374786
 11
2.027252
 21
142.374786
  0
LINE
  8
0
  6
CENTER
 62
     2
 10
-6.672745
 20
150.974777
 11
-6.672745
 21
133.646210
  0
LINE
  8
0
 10
-19.672745
 20
151.874786
 11
-14.672745
 21
151.874786
  0
LINE
  8
0
 10
-19.672745
 20
176.874786
 11
-14.672745
 21
176.874786
  0
LINE
  8
0
  6
CENTER
 62
     2
 10
-41.129887
 20
109.374786
 11
74.941528
 21
109.374786
  0
LINE
  8
0
  6
CENTER
 62
     2
 10
72.327255
 20
151.874786
 11
80.827255
 21
151.874786
  0
LINE
  8
0
  6
CENTER
 62
     2
 10
72.327255
 20
176.874786
 11
80.827255
 21
176.874786
  0
LINE
  8
0
  6
CENTER
 62
     2
 10
72.327255
 20
41.874786
 11
80.827255
 21
41.874786
  0
LINE
  8
0
  6
CENTER
 62
     2
 10
72.327255
 20
66.874786
 11
80.827255
 21
66.874786
  0
LINE
  8
0
 10
-19.672745
 20
113.731926
 11
-17.672745
 21
113.731926
  0
LINE
  8
0
 10
-14.172740
 20
184.374771
 11
-14.672741
 21
183.874771
  0
LINE
  8
0
 10
71.827248
 20
184.374786
 11
72.327248
 21
183.874786
  0
LINE
  8
0
 10
-14.672745
 20
156.717636
 11
72.327255
 21
156.717636
  0
LINE
  8
0
 10
-14.672745
 20
162.017639
 11
72.327255
 21
162.017639
  0
LINE
  8
0
 10
-14.672745
 20
130.374786
 11
72.327255
 21
130.374786
  0
LINE
  8
0
 10
-14.672745
 20
131.374786
 11
72.327255
 21
131.374786
  0
LINE
  8
0
  6
CENTER
 62
     2
 10
13.327255
 20
150.974777
 11
13.327255
 21
133.646210
  0
LINE
  8
0
  6
CENTER
 62
     2
 10
4.384384
 20
142.374786
 11
22.027252
 21
142.374786
  0
LINE
  8
0
 10
-14.672745
 20
181.374786
 11
72.327255
 21
181.374786
  0
LINE
  8
0
 10
-14.672745
 20
122.974785
 11
41.298676
 21
122.974785
  0
LINE
  8
0
 10
-14.672745
 20
119.774788
 11
36.227249
 21
119.774788
  0
LINE
  8
0
 10
-14.172745
 20
184.374786
 11
71.827255
 21
184.374786
  0
LINE
  8
0
 10
-19.672747
 20
36.374794
 11
-20.672749
 21
35.374794
  0
LINE
  8
0
 10
-37.672745
 20
36.374794
 11
-36.672745
 21
35.374794
  0
LINE
  8
0
 10
-20.672747
 20
183.374786
 11
-19.672745
 21
182.374786
  0
LINE
  8
0
 10
-36.672749
 20
183.374786
 11
-37.672749
 21
182.374786
  0
LINE
  8
0
  6
CENTER
 62
     2
 10
-40.615601
 20
54.374786
 11
-12.287033
 21
54.374786
  0
LINE
  8
0
 62
     2
 10
-17.672749
 20
113.731934
 11
-19.672749
 21
107.917648
  0
LINE
  8
0
 62
     2
 10
-19.672758
 20
110.817635
 11
-17.672758
 21
105.003349
  0
LINE
  8
0
 10
-17.672745
 20
105.003357
 11
-17.672745
 21
113.731926
  0
LINE
  8
0
 10
-19.672745
 20
105.003357
 11
-17.672745
 21
105.003357
  0
LINE
  8
0
 10
-19.672745
 20
119.374786
 11
-14.672745
 21
119.374786
  0
LINE
  8
0
 10
-37.672745
 20
182.374786
 11
-37.672745
 21
36.374786
  0
LINE
  8
0
 10
-36.672745
 20
35.374786
 11
-20.672745
 21
35.374786
  0
LINE
  8
0
 10
-36.672745
 20
183.374786
 11
-20.672745
 21
183.374786
  0
LINE
  8
0
 10
-19.672745
 20
66.874786
 11
-14.672745
 21
66.874786
  0
LINE
  8
0
 10
-19.672745
 20
41.874786
 11
-14.672745
 21
41.874786
  0
LINE
  8
0
 10
-19.672745
 20
182.374786
 11
-19.672745
 21
36.374786
  0
LINE
  8
0
  6
CENTER
 62
     2
 10
-41.187031
 20
164.374786
 11
-12.401321
 21
164.374786
  0
LINE
  8
0
 10
-19.672745
 20
99.374786
 11
-14.672745
 21
99.374786
  0
LINE
  8
0
  6
PHANTOM
 62
     3
 10
26.778091
 20
23.722473
 11
26.778091
 21
192.007996
  0
LINE
  8
0
  6
PHANTOM
 62
     3
 10
14.050613
 20
23.722473
 11
14.050613
 21
66.854477
  0
LINE
  8
0
 10
-59.599991
 20
-260.852295
 11
-59.599991
 21
-210.852432
  0
LINE
  8
0
 10
-84.599991
 20
-260.852295
 11
-84.599991
 21
-210.852432
  0
LINE
  8
0
 10
-109.599991
 20
-260.852295
 11
-109.599991
 21
-210.852432
  0
LINE
  8
0
 10
-134.599991
 20
-260.852295
 11
-134.599991
 21
-210.852432
  0
LINE
  8
0
 10
-159.599991
 20
-260.852295
 11
-159.599991
 21
-210.852432
  0
LINE
  8
0
 10
-184.599991
 20
-260.852295
 11
-184.599991
 21
-210.852432
  0
LINE
  8
0
 10
-209.599991
 20
-260.852295
 11
-209.599991
 21
-210.852432
  0
LINE
  8
0
 10
-234.599991
 20
-260.852295
 11
-234.599991
 21
-210.852432
  0
LINE
  8
0
 10
-259.599854
 20
-260.852295
 11
-259.599854
 21
-210.852432
  0
LINE
  8
0
 10
-284.599854
 20
-260.852295
 11
-284.599854
 21
-210.852432
  0
LINE
  8
0
 10
-309.599854
 20
-260.852295
 11
-309.599854
 21
-210.852432
  0
LINE
  8
0
 10
-334.599915
 20
-240.852417
 11
-339.958893
 21
-220.852402
  0
LINE
  8
0
 10
-334.599854
 20
-260.852295
 11
-334.599854
 21
-210.852432
  0
LINE
  8
0
 10
-384.599854
 20
-260.852295
 11
-384.599854
 21
-210.852432
  0
LINE
  8
0
 10
-384.599854
 20
-210.852432
 11
-59.599991
 21
-210.852432
  0
LINE
  8
0
 10
-384.599854
 20
-220.852432
 11
-339.958740
 21
-220.852432
  0
LINE
  8
0
 10
-384.599854
 20
-240.852432
 11
-59.599991
 21
-240.852432
  0
LINE
  8
0
 10
-384.599854
 20
-250.852432
 11
-59.599991
 21
-250.852432
  0
LINE
  8
0
 10
-384.599854
 20
-260.852295
 11
-59.599991
 21
-260.852295
  0
LINE
  8
0
 10
-199.250000
 20
276.250000
 11
-199.250000
 21
251.250000
  0
LINE
  8
0
 10
399.799805
 20
276.250000
 11
399.799805
 21
-276.750000
  0
LINE
  8
0
 10
-399.250000
 20
276.250000
 11
-399.250000
 21
-276.750000
  0
LINE
  8
0
 10
-399.250000
 20
276.250000
 11
399.799805
 21
276.250000
  0
LINE
  8
0
 10
-399.250000
 20
-276.750000
 11
399.799805
 21
-276.750000
  0
LINE
  8
0
 10
239.799988
 20
-251.750000
 11
399.799805
 21
-251.750000
  0
LINE
  8
0
 10
239.799988
 20
251.250000
 11
399.799805
 21
251.250000
  0
LINE
  8
0
 10
-399.250000
 20
251.250000
 11
-199.250000
 21
251.250000
  0
LINE
  8
0
 10
239.799988
 20
-251.750000
 11
239.799988
 21
-276.750000
  0
LINE
  8
0
 10
239.799988
 20
251.250000
 11
239.799988
 21
276.250000
  0
CIRCLE
  8
0
 10
13.327240
 20
-135.625198
 40
1.650000
  0
CIRCLE
  8
0
 10
13.327240
 20
-135.625198
 40
14.000000
  0
CIRCLE
  8
0
 10
13.327240
 20
-135.625198
 40
14.499999
  0
CIRCLE
  8
0
 10
0.827286
 20
-188.125183
 40
5.749999
  0
CIRCLE
  8
0
  6
CENTER
 62
     2
 10
0.827286
 20
-188.125183
 40
6.749999
  0
CIRCLE
  8
0
 10
57.327255
 20
-188.125183
 40
5.749999
  0
CIRCLE
  8
0
  6
CENTER
 62
     2
 10
57.327255
 20
-188.125183
 40
6.749999
  0
CIRCLE
  8
0
  6
CENTER
 62
     2
 10
13.327271
 20
-168.625198
 40
5.000000
  0
CIRCLE
  8
0
 10
13.327271
 20
-168.625198
 40
6.999999
  0
CIRCLE
  8
0
  6
CENTER
 62
     2
 10
-6.672714
 20
-168.625198
 40
5.000000
  0
CIRCLE
  8
0
 10
-6.672714
 20
-168.625198
 40
4.299998
  0
CIRCLE
  8
0
 10
-6.672714
 20
-168.625198
 40
6.999999
  0
CIRCLE
  8
0
 10
13.327271
 20
-168.625198
 40
4.299998
  0
CIRCLE
  8
0
  6
CENTER
 62
     2
 10
13.327240
 20
-102.625198
 40
5.000000
  0
CIRCLE
  8
0
 10
13.327240
 20
-102.625198
 40
4.299998
  0
CIRCLE
  8
0
 10
13.327240
 20
-102.625198
 40
6.999999
  0
CIRCLE
  8
0
 10
-6.672729
 20
-102.625198
 40
4.299998
  0
CIRCLE
  8
0
  6
CENTER
 62
     2
 10
-6.672729
 20
-102.625198
 40
5.000000
  0
CIRCLE
  8
0
 10
-6.672729
 20
-102.625198
 40
6.999999
  0
ARC
  8
0
 10
-26.672729
 20
-135.632339
 40
10.002337
 50
334.130249
 51
25.869755
  0
CIRCLE
  8
0
 10
203.541550
 20
56.874786
 40
1.499998
  0
CIRCLE
  8
0
 10
223.041534
 20
54.374786
 40
12.500000
  0
CIRCLE
  8
0
 10
223.041534
 20
164.374786
 40
12.500000
  0
CIRCLE
  8
0
 10
223.041580
 20
109.374786
 40
19.000000
  0
CIRCLE
  8
0
 10
223.041580
 20
109.374786
 40
25.999985
  0
CIRCLE
  8
0
 10
245.041473
 20
174.374786
 40
4.249999
  0
CIRCLE
  8
0
 62
     2
 10
245.041473
 20
174.374786
 40
5.000000
  0
CIRCLE
  8
0
 10
201.041565
 20
174.374786
 40
4.249999
  0
CIRCLE
  8
0
 62
     2
 10
201.041565
 20
174.374786
 40
5.000000
  0
CIRCLE
  8
0
 10
245.041473
 20
44.374786
 40
4.249999
  0
CIRCLE
  8
0
 62
     2
 10
245.041473
 20
44.374786
 40
5.000000
  0
CIRCLE
  8
0
 10
201.041565
 20
44.374786
 40
4.249999
  0
CIRCLE
  8
0
 62
     2
 10
201.041565
 20
44.374786
 40
5.000000
  0
ARC
  8
0
 10
251.441528
 20
96.974785
 40
2.099998
 50
90.000000
 51
270.000000
  0
ARC
  8
0
 10
251.441528
 20
121.774788
 40
2.099998
 50
90.000000
 51
270.000000
  0
ARC
  8
0
 10
194.641541
 20
96.974785
 40
2.099998
 50
270.000000
 51
90.000000
  0
ARC
  8
0
 10
194.641541
 20
121.774788
 40
2.099998
 50
270.000000
 51
90.000000
  0
CIRCLE
  8
0
 10
223.041534
 20
164.374786
 40
14.000000
  0
CIRCLE
  8
0
 10
223.041534
 20
54.374786
 40
14.000000
  0
CIRCLE
  8
0
 10
-189.101318
 20
109.374786
 40
5.599998
  0
CIRCLE
  8
0
 10
-189.101318
 20
109.374786
 40
8.750000
  0
CIRCLE
  8
0
 10
-189.101318
 20
164.374786
 40
5.599998
  0
CIRCLE
  8
0
 10
-189.101318
 20
164.374786
 40
8.750000
  0
CIRCLE
  8
0
 10
-189.101318
 20
54.374786
 40
5.599998
  0
CIRCLE
  8
0
 10
-189.101318
 20
54.374786
 40
8.750000
  0
CIRCLE
  8
0
  6
CENTER
 62
     2
 10
-168.101334
 20
169.374786
 40
5.000000
  0
CIRCLE
  8
0
 10
-168.101334
 20
169.374786
 40
4.249999
  0
CIRCLE
  8
0
  6
CENTER
 62
     2
 10
-168.101334
 20
49.374786
 40
5.000000
  0
CIRCLE
  8
0
 10
-168.101334
 20
49.374786
 40
4.249999
  0
CIRCLE
  8
0
  6
CENTER
 62
     2
 10
-210.101303
 20
169.374786
 40
5.000000
  0
CIRCLE
  8
0
 10
-210.101303
 20
169.374786
 40
4.249999
  0
CIRCLE
  8
0
 10
-210.101303
 20
49.374786
 40
4.249999
  0
CIRCLE
  8
0
  6
CENTER
 62
     2
 10
-210.101303
 20
49.374786
 40
5.000000
  0
CIRCLE
  8
0
 10
-189.101318
 20
164.374786
 40
10.000000
  0
CIRCLE
  8
0
 10
-189.101318
 20
54.374786
 40
10.000000
  0
CIRCLE
  8
0
 10
-189.101318
 20
109.374786
 40
10.000000
  0
CIRCLE
  8
0
 10
46.327240
 20
109.374786
 40
1.650000
  0
CIRCLE
  8
0
 10
46.327240
 20
109.374786
 40
14.000000
  0
CIRCLE
  8
0
 10
46.327240
 20
109.374786
 40
14.499999
  0
CIRCLE
  8
0
 10
0.827286
 20
56.874802
 40
5.749999
  0
CIRCLE
  8
0
 62
     2
 10
0.827286
 20
56.874802
 40
6.749999
  0
CIRCLE
  8
0
 10
57.327255
 20
56.874802
 40
5.749999
  0
CIRCLE
  8
0
 62
     2
 10
57.327255
 20
56.874802
 40
6.749999
  0
CIRCLE
  8
0
  6
DASHED
 62
     2
 10
13.327271
 20
76.374786
 40
5.000000
  0
CIRCLE
  8
0
 10
13.327271
 20
76.374786
 40
6.999999
  0
CIRCLE
  8
0
  6
DASHED
 62
     2
 10
-6.672714
 20
76.374786
 40
5.000000
  0
CIRCLE
  8
0
 10
-6.672714
 20
76.374786
 40
4.299998
  0
CIRCLE
  8
0
 10
-6.672714
 20
76.374786
 40
6.999999
  0
CIRCLE
  8
0
 10
13.327271
 20
76.374786
 40
4.299998
  0
CIRCLE
  8
0
  6
DASHED
 62
     2
 10
13.327240
 20
142.374786
 40
5.000000
  0
CIRCLE
  8
0
 10
13.327240
 20
142.374786
 40
4.299998
  0
CIRCLE
  8
0
 10
13.327240
 20
142.374786
 40
6.999999
  0
CIRCLE
  8
0
 10
-6.672729
 20
142.374786
 40
4.299998
  0
CIRCLE
  8
0
  6
DASHED
 62
     2
 10
-6.672729
 20
142.374786
 40
5.000000
  0
CIRCLE
  8
0
 10
-6.672729
 20
142.374786
 40
6.999999
  0
ARC
  8
0
 10
-26.672729
 20
109.367645
 40
10.002337
 50
334.130249
 51
25.869755
  0
TEXT
  8
0
 62
     3
 10
-38.904869
 20
210.584335
 40
6.300000
  1
STRETCH LINE A
 50
0.000000
 41
1.052632
 51
0.000000
  7
STANDARD
  0
TEXT
  8
0
 62
     3
 10
21.751024
 20
195.803085
 40
6.300000
  1
STRETCH LINE B
 50
0.000000
 41
1.052632
 51
0.000000
  7
STANDARD
  0
TEXT
  8
0
 62
     3
 10
-38.904869
 20
-33.415668
 40
6.300000
  1
STRETCH LINE A
 50
0.000000
 41
1.052632
 51
0.000000
  7
STANDARD
  0
TEXT
  8
0
 62
     3
 10
21.751024
 20
-48.196918
 40
6.300000
  1
STRETCH LINE B
 50
0.000000
 41
1.052632
 51
0.000000
  7
STANDARD
  0
TEXT
  8
0
 10
-260.339050
 20
-210.522430
 40
6.300000
  1
STRETCH LIST
 50
0.000000
 41
1.052632
 51
0.000000
  7
STANDARD
  0
TEXT
  8
0
 10
-81.989052
 20
-260.522430
 40
6.300000
  1
100
 50
0.000000
 41
1.052632
 51
0.000000
  7
STANDARD
  0
TEXT
  8
0
 10
-78.839050
 20
-250.522430
 40
6.300000
  1
90
 50
0.000000
 41
1.052632
 51
0.000000
  7
STANDARD
  0
TEXT
  8
0
 10
-81.989052
 20
-230.522430
 40
6.300000
  1
200
 50
0.000000
 41
1.052632
 51
0.000000
  7
STANDARD
  0
TEXT
  8
0
 10
-103.839050
 20
-260.522430
 40
6.300000
  1
75
 50
0.000000
 41
1.052632
 51
0.000000
  7
STANDARD
  0
TEXT
  8
0
 10
-103.839050
 20
-250.522430
 40
6.300000
  1
90
 50
0.000000
 41
1.052632
 51
0.000000
  7
STANDARD
  0
TEXT
  8
0
 10
-106.989052
 20
-230.522430
 40
6.300000
  1
175
 50
0.000000
 41
1.052632
 51
0.000000
  7
STANDARD
  0
TEXT
  8
0
 10
-128.839050
 20
-260.522430
 40
6.300000
  1
50
 50
0.000000
 41
1.052632
 51
0.000000
  7
STANDARD
  0
TEXT
  8
0
 10
-128.839050
 20
-250.522430
 40
6.300000
  1
90
 50
0.000000
 41
1.052632
 51
0.000000
  7
STANDARD
  0
TEXT
  8
0
 10
-131.989059
 20
-230.522430
 40
6.300000
  1
150
 50
0.000000
 41
1.052632
 51
0.000000
  7
STANDARD
  0
TEXT
  8
0
 10
-153.839050
 20
-260.522430
 40
6.300000
  1
25
 50
0.000000
 41
1.052632
 51
0.000000
  7
STANDARD
  0
TEXT
  8
0
 10
-153.839050
 20
-250.522430
 40
6.300000
  1
90
 50
0.000000
 41
1.052632
 51
0.000000
  7
STANDARD
  0
TEXT
  8
0
 10
-156.989059
 20
-230.522430
 40
6.300000
  1
125
 50
0.000000
 41
1.052632
 51
0.000000
  7
STANDARD
  0
TEXT
  8
0
 10
-178.839050
 20
-260.522430
 40
6.300000
  1
50
 50
0.000000
 41
1.052632
 51
0.000000
  7
STANDARD
  0
TEXT
  8
0
 10
-178.839050
 20
-250.522430
 40
6.300000
  1
40
 50
0.000000
 41
1.052632
 51
0.000000
  7
STANDARD
  0
TEXT
  8
0
 10
-181.989059
 20
-230.522430
 40
6.300000
  1
100
 50
0.000000
 41
1.052632
 51
0.000000
  7
STANDARD
  0
TEXT
  8
0
 10
-203.839050
 20
-260.522430
 40
6.300000
  1
25
 50
0.000000
 41
1.052632
 51
0.000000
  7
STANDARD
  0
TEXT
  8
0
 10
-203.839050
 20
-250.522430
 40
6.300000
  1
40
 50
0.000000
 41
1.052632
 51
0.000000
  7
STANDARD
  0
TEXT
  8
0
 10
-203.839050
 20
-230.522430
 40
6.300000
  1
75
 50
0.000000
 41
1.052632
 51
0.000000
  7
STANDARD
  0
TEXT
  8
0
 10
-225.689056
 20
-260.522430
 40
6.300000
  1
0
 50
0.000000
 41
1.052632
 51
0.000000
  7
STANDARD
  0
TEXT
  8
0
 10
-228.839050
 20
-250.522430
 40
6.300000
  1
40
 50
0.000000
 41
1.052632
 51
0.000000
  7
STANDARD
  0
TEXT
  8
0
 10
-228.839050
 20
-230.522430
 40
6.300000
  1
50
 50
0.000000
 41
1.052632
 51
0.000000
  7
STANDARD
  0
TEXT
  8
0
 10
-250.689056
 20
-260.522430
 40
6.300000
  1
0
 50
0.000000
 41
1.052632
 51
0.000000
  7
STANDARD
  0
TEXT
  8
0
 10
-253.839050
 20
-250.522430
 40
6.300000
  1
30
 50
0.000000
 41
1.052632
 51
0.000000
  7
STANDARD
  0
TEXT
  8
0
 10
-253.839050
 20
-230.522430
 40
6.300000
  1
40
 50
0.000000
 41
1.052632
 51
0.000000
  7
STANDARD
  0
TEXT
  8
0
 10
-275.688904
 20
-260.522430
 40
6.300000
  1
0
 50
0.000000
 41
1.052632
 51
0.000000
  7
STANDARD
  0
TEXT
  8
0
 10
-278.838928
 20
-250.522430
 40
6.300000
  1
20
 50
0.000000
 41
1.052632
 51
0.000000
  7
STANDARD
  0
TEXT
  8
0
 10
-278.838928
 20
-230.522430
 40
6.300000
  1
30
 50
0.000000
 41
1.052632
 51
0.000000
  7
STANDARD
  0
TEXT
  8
0
 10
-300.688904
 20
-260.522430
 40
6.300000
  1
0
 50
0.000000
 41
1.052632
 51
0.000000
  7
STANDARD
  0
TEXT
  8
0
 10
-303.838928
 20
-250.522430
 40
6.300000
  1
10
 50
0.000000
 41
1.052632
 51
0.000000
  7
STANDARD
  0
TEXT
  8
0
 10
-303.838928
 20
-230.522430
 40
6.300000
  1
20
 50
0.000000
 41
1.052632
 51
0.000000
  7
STANDARD
  0
TEXT
  8
0
 10
-325.688904
 20
-260.522430
 40
6.300000
  1
0
 50
0.000000
 41
1.052632
 51
0.000000
  7
STANDARD
  0
TEXT
  8
0
 10
-325.688904
 20
-250.522430
 40
6.300000
  1
0
 50
0.000000
 41
1.052632
 51
0.000000
  7
STANDARD
  0
TEXT
  8
0
 10
-328.838928
 20
-230.522430
 40
6.300000
  1
10
 50
0.000000
 41
1.052632
 51
0.000000
  7
STANDARD
  0
TEXT
  8
0
 10
-384.088928
 20
-228.828674
 40
6.300000
  1
STRETCH
 50
0.000000
 41
1.052632
 51
0.000000
  7
STANDARD
  0
TEXT
  8
0
 10
-384.088928
 20
-239.066177
 40
6.300000
  1
  PLACE
 50
0.000000
 41
1.052632
 51
0.000000
  7
STANDARD
  0
TEXT
  8
0
 10
-378.938904
 20
-220.522430
 40
6.300000
  1
STROKE
 50
0.000000
 41
1.052632
 51
0.000000
  7
STANDARD
  0
TEXT
  8
0
 10
-363.188904
 20
-260.522430
 40
6.300000
  1
B
 50
0.000000
 41
1.052632
 51
0.000000
  7
STANDARD
  0
TEXT
  8
0
 10
-363.188904
 20
-250.522430
 40
6.300000
  1
A
 50
0.000000
 41
1.052632
 51
0.000000
  7
STANDARD
  0
TEXT
  8
0
 10
-85.139053
 20
-210.522430
 40
6.300000
  1
（ｍｍ）
 50
0.000000
 41
0.833333
 51
0.000000
  7
STANDARD
  0
TEXT
  8
0
 10
-330.785309
 20
212.149994
 40
9.000000
  1
SGDAK50*ST(10)-RL
 50
0.000000
 41
1.052632
 51
0.000000
  7
STANDARD
  0
TEXT
  8
0
 10
-392.354553
 20
256.649994
 40
9.000000
  1
JIG CYLINDER WITH GUIDE
 50
0.000000
 41
0.937799
 51
0.000000
  7
STANDARD
  0
TEXT
  8
0
 10
242.014633
 20
-274.500000
 40
12.500000
  1
KOGANEI CORP.
 50
0.000000
 41
1.052632
 51
0.000000
  7
STANDARD
  0
TEXT
  8
0
 10
282.764496
 20
256.649994
 40
9.000000
  1
Ｖｅｒ．　１．０
 50
0.000000
 41
0.833333
 51
0.000000
  7
STANDARD
  0
TEXT
  8
0
 10
-384.785309
 20
224.149994
 40
9.000000
  1
MODEL:SGDAK50*ST(10)-HL
 50
0.000000
 41
1.052632
 51
0.000000
  7
STANDARD
  0
TEXT
  8
0
 62
     2
 10
107.968491
 20
1.989697
 40
3.200000
  1
STROKE:75-200
 50
0.000000
 41
1.052632
 51
0.000000
  7
STANDARD
  0
LINE
  8
0
 62
     2
 10
81.327240
 20
0.989697
 11
149.318497
 21
0.989697
  0
LINE
  8
0
 62
     2
 10
81.327240
 20
0.989697
 11
72.327240
 21
0.989697
  0
LINE
  8
0
 62
     2
 10
81.327240
 20
0.989697
 11
84.225014
 21
1.766155
  0
LINE
  8
0
 62
     2
 10
81.327240
 20
0.989697
 11
84.225014
 21
0.213240
  0
LINE
  8
0
 62
     2
 10
81.327240
 20
0.989697
 11
87.327240
 21
0.989697
  0
LINE
  8
0
 62
     2
 10
72.327240
 20
0.989697
 11
69.429466
 21
0.213240
  0
LINE
  8
0
 62
     2
 10
72.327240
 20
0.989697
 11
69.429466
 21
1.766155
  0
LINE
  8
0
 62
     2
 10
72.327240
 20
0.989697
 11
66.327240
 21
0.989697
  0
LINE
  8
0
 62
     2
 10
81.327240
 20
42.374786
 11
81.327240
 21
-0.510303
  0
LINE
  8
0
 62
     2
 10
72.327240
 20
34.874786
 11
72.327240
 21
-0.510303
  0
ENDSEC
  0
EOF
